0
SECTION
2
HEADER
9
$MEASUREMENT
70
1
0
ENDSEC
0
SECTION
2
TABLES
0
TABLE
2
LTYPE
0
LTYPE
72
65
70
64
2
CONTINUOUS
3
______
73
0
40
0
0
ENDTAB
0
TABLE
2
LAYER
0
LAYER
2
DEFAULT_255_2_778
70
0
62
255
6
CONTINUOUS
0
ENDTAB
0
ENDSEC
0
SECTION
2
ENTITIES
0
ARC
8
DEFAULT_255_2_778
10
81.0520032
20
133.3192735
40
1.4477827
50
77.242504
51
90.4993097
0
ARC
8
DEFAULT_255_2_778
10
81.1934824
20
133.8699028
40
0.8796571
50
26.7666966
51
78.3103641
0
ARC
8
DEFAULT_255_2_778
10
80.8136793
20
133.6721777
40
1.3078222
50
12.42754
51
27.007251
0
ARC
8
DEFAULT_255_2_778
10
80.0714406
20
133.5022796
40
2.0692416
50
3.1147884
51
12.5987675
0
ARC
8
DEFAULT_255_2_778
10
79.2656348
20
133.4441083
40
2.8770532
50
359.9421062
51
3.3995831
0
ARC
8
DEFAULT_255_2_778
10
80.2088876
20
0.9692076
40
1.9338412
50
350.0760889
51
0.3790523
0
ARC
8
DEFAULT_255_2_778
10
80.9149745
20
0.8407594
40
1.2161921
50
333.4566989
51
350.3040674
0
ARC
8
DEFAULT_255_2_778
10
81.1965216
20
0.7088315
40
0.9053992
50
286.6513468
51
332.9634818
0
ARC
8
DEFAULT_255_2_778
10
80.9989738
20
1.2696446
40
1.4995742
50
274.5675495
51
287.7428096
0
ARC
8
DEFAULT_255_2_778
10
80.93285
20
1.9130183
40
2.1462205
50
269.8995315
51
274.9594285
0
LINE
8
DEFAULT_255_2_778
10
80.9290866
20
-0.2331988
11
1.1566866
21
-0.2331988
0
ARC
8
DEFAULT_255_2_778
10
1.1436125
20
1.0237038
40
1.2569706
50
255.7908805
51
270.5959563
0
ARC
8
DEFAULT_255_2_778
10
1.0240547
20
0.5789753
40
0.7965293
50
202.8271069
51
256.2754421
0
ARC
8
DEFAULT_255_2_778
10
1.498798
20
0.8028387
40
1.3211244
50
189.8745999
51
203.7879011
0
ARC
8
DEFAULT_255_2_778
10
2.2987275
20
0.9499992
40
2.1344545
50
181.351092
51
190.083939
0
ARC
8
DEFAULT_255_2_778
10
2.9880668
20
0.9813016
40
2.8243804
50
179.9858064
51
181.6561947
0
LINE
8
DEFAULT_255_2_778
10
0.1636866
20
0.9820012
11
0.1636866
21
133.9383012
0
ARC
8
DEFAULT_255_2_778
10
1.3383835
20
133.9511559
40
1.1747673
50
166.5111581
51
180.6269614
0
ARC
8
DEFAULT_255_2_778
10
0.8552808
20
134.0749542
40
0.6761579
50
135.3635266
51
167.163378
0
ARC
8
DEFAULT_255_2_778
10
0.8591808
20
134.0414955
40
0.7027573
50
105.3058859
51
133.6455574
0
ARC
8
DEFAULT_255_2_778
10
1.006775
20
133.5481396
40
1.2176353
50
92.3852156
51
105.8765288
0
ARC
8
DEFAULT_255_2_778
10
1.0451205
20
133.0293533
40
1.7376484
50
89.9615504
51
92.9365829
0
LINE
8
DEFAULT_255_2_778
10
1.0462866
20
134.7670012
11
81.0393866
21
134.7670012
0
LINE
8
DEFAULT_255_2_778
10
82.1426866
20
133.4412012
11
82.1426866
21
0.9820012
0
LINE
8
DEFAULT_255_2_778
10
1.0462866
20
134.7670012
11
1.0462866
21
134.7670012
0
LINE
8
DEFAULT_255_2_778
10
0.1427355
20
128.6786
11
82.1426355
21
128.6786
0
LINE
8
DEFAULT_255_2_778
10
9.4032084
20
126.8294341
11
16.0178084
21
126.8294341
0
LINE
8
DEFAULT_255_2_778
10
16.0178084
20
126.8294341
11
16.0178084
21
112.9295341
0
LINE
8
DEFAULT_255_2_778
10
16.0178084
20
112.9295341
11
12.7105084
21
112.9295341
0
LINE
8
DEFAULT_255_2_778
10
12.7105084
20
112.9295341
11
12.7105084
21
108.2961341
0
LINE
8
DEFAULT_255_2_778
10
12.7105084
20
108.2961341
11
9.4032084
21
108.2961341
0
LINE
8
DEFAULT_255_2_778
10
9.4032084
20
108.2961341
11
9.4032084
21
126.8294341
0
ARC
8
DEFAULT_255_2_778
10
7.9530282
20
88.0360889
40
14.9564958
50
21.8112493
51
27.0786568
0
ARC
8
DEFAULT_255_2_778
10
6.291625
20
87.3679912
40
16.747196
50
17.5748002
51
21.8214305
0
ARC
8
DEFAULT_255_2_778
10
4.3230513
20
86.7437801
40
18.8123646
50
13.7637032
51
17.5768196
0
ARC
8
DEFAULT_255_2_778
10
2.1165721
20
86.1992893
40
21.0850298
50
10.7494187
51
13.7742857
0
ARC
8
DEFAULT_255_2_778
10
-0.400359
20
85.7230236
40
23.6466249
50
7.7098929
51
10.7456999
0
ARC
8
DEFAULT_255_2_778
10
-3.356542
20
85.3205546
40
26.6300784
50
5.0854444
51
7.7147064
0
ARC
8
DEFAULT_255_2_778
10
-6.5788815
20
85.0322367
40
29.8652904
50
2.743999
51
5.0884196
0
ARC
8
DEFAULT_255_2_778
10
-10.0895157
20
84.8624729
40
33.3800265
50
0.6475304
51
2.7465783
0
ARC
8
DEFAULT_255_2_778
10
-12.6164762
20
84.8233328
40
35.9072696
50
359.9980108
51
0.664412
0
ARC
8
DEFAULT_255_2_778
10
-13.6416146
20
84.8224857
40
36.932408
50
359.6495112
51
359.9993802
0
ARC
8
DEFAULT_255_2_778
10
-14.3673759
20
84.8269881
40
37.6581832
50
359.3040566
51
359.6494157
0
ARC
8
DEFAULT_255_2_778
10
-4.8447104
20
84.638185
40
28.134022
50
354.1733635
51
359.4529779
0
ARC
8
DEFAULT_255_2_778
10
-3.2893481
20
84.4635033
40
26.5689666
50
337.7273585
51
354.2076102
0
ARC
8
DEFAULT_255_2_778
10
31.9825157
20
88.0352209
40
15.5225855
50
154.3898688
51
159.2377422
0
ARC
8
DEFAULT_255_2_778
10
33.7162924
20
87.3754424
40
17.3776554
50
159.2300807
51
163.260401
0
ARC
8
DEFAULT_255_2_778
10
35.7862529
20
86.7526177
40
19.5392862
50
163.2597073
51
166.9549333
0
ARC
8
DEFAULT_255_2_778
10
38.0790801
20
86.216714
40
21.8939051
50
166.9430453
51
169.7988619
0
ARC
8
DEFAULT_255_2_778
10
40.634184
20
85.7583816
40
24.4897909
50
169.802214
51
172.6733451
0
ARC
8
DEFAULT_255_2_778
10
43.6102887
20
85.3735739
40
27.4906694
50
172.6688954
51
175.1608981
0
ARC
8
DEFAULT_255_2_778
10
46.9522355
20
85.0907925
40
30.8445587
50
175.1611696
51
177.5412101
0
ARC
8
DEFAULT_255_2_778
10
50.4891819
20
84.9345509
40
34.3849519
50
177.5339452
51
179.4155824
0
ARC
8
DEFAULT_255_2_778
10
52.8582411
20
84.9014836
40
36.7542263
50
179.4017059
51
180.0016282
0
ARC
8
DEFAULT_255_2_778
10
53.9058197
20
84.9009671
40
37.8018047
50
180.0008002
51
180.4016035
0
ARC
8
DEFAULT_255_2_778
10
54.7700295
20
84.9070772
40
38.6660361
50
180.4016812
51
180.7964891
0
ARC
8
DEFAULT_255_2_778
10
46.1028796
20
84.6381816
40
29.9963528
50
180.5130527
51
185.4637445
0
ARC
8
DEFAULT_255_2_778
10
44.5315341
20
84.4845008
40
28.417514
50
185.4569587
51
192.6756395
0
ARC
8
DEFAULT_255_2_778
10
43.9904519
20
84.3744808
40
27.8654795
50
192.6990628
51
200.9887723
0
LINE
8
DEFAULT_255_2_778
10
17.9851667
20
97.3384788
11
21.2702667
21
97.3384788
0
LINE
8
DEFAULT_255_2_778
10
21.2702667
20
97.3384788
11
21.2702667
21
71.8992788
0
LINE
8
DEFAULT_255_2_778
10
21.2702667
20
71.8992788
11
17.9851667
21
71.8992788
0
LINE
8
DEFAULT_255_2_778
10
17.9851667
20
71.8992788
11
17.9851667
21
97.3384788
0
ARC
8
DEFAULT_255_2_778
10
35.8653937
20
99.5361591
40
2.1579289
50
80.6790401
51
90.3424161
0
ARC
8
DEFAULT_255_2_778
10
35.9959047
20
100.3032964
40
1.3797899
50
65.6415595
51
80.8675043
0
ARC
8
DEFAULT_255_2_778
10
36.159687
20
100.6696627
40
0.9784873
50
15.7672879
51
65.5301498
0
ARC
8
DEFAULT_255_2_778
10
35.5503928
20
100.4618219
40
1.6216985
50
4.2975222
51
16.9847507
0
ARC
8
DEFAULT_255_2_778
10
34.8934109
20
100.3976552
40
2.2816892
50
359.9119681
51
4.6680382
0
LINE
8
DEFAULT_255_2_778
10
37.1750974
20
100.3941495
11
37.1750974
21
67.2434495
0
ARC
8
DEFAULT_255_2_778
10
33.0628711
20
67.2314474
40
4.1122438
50
355.4266802
51
0.167225
0
ARC
8
DEFAULT_255_2_778
10
34.622794
20
67.1024822
40
2.5470078
50
348.6658019
51
355.5205873
0
ARC
8
DEFAULT_255_2_778
10
35.6747452
20
66.887305
40
1.4732894
50
338.4181095
51
348.8306652
0
ARC
8
DEFAULT_255_2_778
10
36.2971876
20
66.6352333
40
0.8017836
50
320.4729231
51
338.8073049
0
ARC
8
DEFAULT_255_2_778
10
36.5285903
20
66.4465468
40
0.5032118
50
268.3268242
51
320.2752422
0
LINE
8
DEFAULT_255_2_778
10
36.5138974
20
65.9435495
11
0.1426974
21
65.9435495
0
LINE
8
DEFAULT_255_2_778
10
0.1426974
20
101.6940495
11
35.8524974
21
101.6940495
0
LINE
8
DEFAULT_255_2_778
10
29.2395084
20
93.7375497
11
37.1749084
21
93.7375497
0
LINE
8
DEFAULT_255_2_778
10
37.1749084
20
93.7375497
11
37.1749084
21
75.2082497
0
LINE
8
DEFAULT_255_2_778
10
37.1749084
20
75.2082497
11
29.2395084
21
75.2082497
0
LINE
8
DEFAULT_255_2_778
10
29.2395084
20
75.2082497
11
29.2395084
21
93.7375497
0
LINE
8
DEFAULT_255_2_778
10
35.191
20
93.7375497
11
35.191
21
75.2082497
0
LINE
8
DEFAULT_255_2_778
10
0.1427355
20
104.3259
11
82.1426355
21
104.3259
0
LINE
8
DEFAULT_255_2_778
10
63.6427169
20
104.3258249
11
63.6427169
21
2.4142249
0
LINE
8
DEFAULT_255_2_778
10
63.6427169
20
2.4142249
11
76.8719169
21
2.4142249
0
LINE
8
DEFAULT_255_2_778
10
76.8719169
20
2.4142249
11
76.8719169
21
104.3258249
0
LINE
8
DEFAULT_255_2_778
10
63.6427169
20
58.0024
11
76.8719169
21
58.0024
0
LINE
8
DEFAULT_255_2_778
10
0.1427432
20
36.8258995
11
31.8848432
21
36.8258995
0
ARC
8
DEFAULT_255_2_778
10
31.8977521
20
34.7062177
40
2.1197211
50
80.4947577
51
90.3489292
0
ARC
8
DEFAULT_255_2_778
10
32.0274009
20
35.4541882
40
1.3606168
50
65.2025593
51
80.6779606
0
ARC
8
DEFAULT_255_2_778
10
32.1806403
20
35.7951902
40
0.9867938
50
16.4543553
51
64.9755336
0
ARC
8
DEFAULT_255_2_778
10
31.575308
20
35.5812162
40
1.6282936
50
4.9603483
51
17.6420079
0
ARC
8
DEFAULT_255_2_778
10
30.881398
20
35.5071493
40
2.3260499
50
359.8854639
51
5.3000206
0
LINE
8
DEFAULT_255_2_778
10
33.2074432
20
35.5024995
11
33.2074432
21
10.3553995
0
ARC
8
DEFAULT_255_2_778
10
32.2381564
20
10.3430063
40
0.969366
50
345.8288498
51
0.7325365
0
ARC
8
DEFAULT_255_2_778
10
32.6858882
20
10.2162234
40
0.504396
50
285.0203831
51
347.3411019
0
ARC
8
DEFAULT_255_2_778
10
32.5644476
20
10.6140462
40
0.920209
50
270.0475599
51
285.9039812
0
ARC
8
DEFAULT_255_2_778
10
32.5462979
20
10.9879722
40
1.2942728
50
269.9975782
51
270.8373069
0
LINE
8
DEFAULT_255_2_778
10
32.5462432
20
9.6936995
11
31.2236432
21
9.6936995
0
ARC
8
DEFAULT_255_2_778
10
32.4627563
20
-0.3062353
40
10.0764129
50
97.0636362
51
101.6658305
0
ARC
8
DEFAULT_255_2_778
10
32.1328454
20
1.2790749
40
8.4571409
50
101.6486144
51
107.3709385
0
ARC
8
DEFAULT_255_2_778
10
31.7261645
20
2.5707151
40
7.1029932
50
107.3507312
51
114.6336629
0
ARC
8
DEFAULT_255_2_778
10
31.2790644
20
3.5377825
40
6.0375803
50
114.6021377
51
124.8754663
0
ARC
8
DEFAULT_255_2_778
10
30.9781788
20
3.9851864
40
5.4984942
50
124.9690153
51
150.444681
0
ARC
8
DEFAULT_255_2_778
10
31.8266979
20
3.4819282
40
6.4848714
50
150.2747733
51
158.9325822
0
ARC
8
DEFAULT_255_2_778
10
32.9673296
20
3.0394254
40
7.7083265
50
158.9109781
51
165.552607
0
ARC
8
DEFAULT_255_2_778
10
34.4430417
20
2.6557819
40
9.2330885
50
165.5319136
51
170.7780262
0
ARC
8
DEFAULT_255_2_778
10
35.7447508
20
2.4327916
40
10.5537155
50
170.7156115
51
172.896427
0
LINE
8
DEFAULT_255_2_778
10
25.2720432
20
3.7378995
11
25.2720432
21
-0.2327005
0
ARC
8
DEFAULT_255_2_778
10
12.0771893
20
28.8903322
40
3.9990575
50
164.958672
51
180.0541499
0
ARC
8
DEFAULT_255_2_778
10
12.0288678
20
28.8999915
40
3.9498864
50
139.5324886
51
164.9120823
0
ARC
8
DEFAULT_255_2_778
10
12.0374955
20
28.8967896
40
3.9585294
50
107.8307628
51
139.5782791
0
ARC
8
DEFAULT_255_2_778
10
12.0403365
20
28.8742182
40
3.9808888
50
91.6628438
51
107.7702122
0
ARC
8
DEFAULT_255_2_778
10
12.0467562
20
28.7744714
40
4.0807814
50
89.9989151
51
91.7123026
0
ARC
8
DEFAULT_255_2_778
10
16.67772
20
28.8559897
40
3.9992648
50
74.9590633
51
90.054247
0
ARC
8
DEFAULT_255_2_778
10
16.6874616
20
28.9046017
40
3.9497916
50
49.5322378
51
74.9125368
0
ARC
8
DEFAULT_255_2_778
10
16.6842424
20
28.8959776
40
3.9584431
50
17.8298442
51
49.5778054
0
ARC
8
DEFAULT_255_2_778
10
16.6614559
20
28.8930563
40
3.9810317
50
1.6626901
51
17.7694544
0
ARC
8
DEFAULT_255_2_778
10
16.5609562
20
28.8866233
40
4.0816773
50
359.9990093
51
1.7120206
0
ARC
8
DEFAULT_255_2_778
10
16.6434095
20
6.3790694
40
3.9992258
50
344.9593759
51
0.0542026
0
ARC
8
DEFAULT_255_2_778
10
16.6919218
20
6.369354
40
3.9498555
50
319.5332507
51
344.9128622
0
ARC
8
DEFAULT_255_2_778
10
16.6833798
20
6.3724986
40
3.9583963
50
287.8303112
51
319.5788661
0
ARC
8
DEFAULT_255_2_778
10
16.6804755
20
6.3952088
40
3.9809071
50
271.6979841
51
287.7700197
0
ARC
8
DEFAULT_255_2_778
10
16.6740096
20
6.4956072
40
4.0814544
50
269.998932
51
271.7469511
0
ARC
8
DEFAULT_255_2_778
10
12.043054
20
6.4132084
40
3.9990575
50
254.958672
51
270.0541499
0
ARC
8
DEFAULT_255_2_778
10
12.0333947
20
6.364887
40
3.9498864
50
229.5324886
51
254.9120823
0
ARC
8
DEFAULT_255_2_778
10
12.0365966
20
6.3735147
40
3.9585294
50
197.8307628
51
229.5782791
0
ARC
8
DEFAULT_255_2_778
10
12.059168
20
6.3763557
40
3.9808888
50
181.6628438
51
197.7702122
0
ARC
8
DEFAULT_255_2_778
10
12.1589148
20
6.3827754
40
4.0807814
50
179.9989151
51
181.7123026
0
LINE
8
DEFAULT_255_2_778
10
12.0468335
20
32.8552527
11
16.6739335
21
32.8552527
0
LINE
8
DEFAULT_255_2_778
10
20.6426335
20
28.8865527
11
20.6426335
21
6.3828527
0
LINE
8
DEFAULT_255_2_778
10
16.6739335
20
2.4141527
11
12.0468335
21
2.4141527
0
LINE
8
DEFAULT_255_2_778
10
8.0781335
20
6.3828527
11
8.0781335
21
28.8865527
0
ARC
8
DEFAULT_255_2_778
10
26.5241022
20
-30.843292
40
56.9753909
50
104.5280668
51
105.2721365
0
ARC
8
DEFAULT_255_2_778
10
24.724687
20
-23.8770283
40
49.7804836
50
103.4659659
51
104.534556
0
ARC
8
DEFAULT_255_2_778
10
22.9747725
20
-16.558251
40
42.2554126
50
102.218417
51
103.4693565
0
ARC
8
DEFAULT_255_2_778
10
21.5460615
20
-9.9560774
40
35.5004212
50
100.8460931
51
102.2199169
0
ARC
8
DEFAULT_255_2_778
10
20.4263268
20
-4.0999084
40
29.5381636
50
99.2488921
51
100.8504226
0
ARC
8
DEFAULT_255_2_778
10
19.5841392
20
1.0807243
40
24.2895227
50
97.4427563
51
99.2522195
0
ARC
8
DEFAULT_255_2_778
10
19.2275041
20
3.7230087
40
21.6233061
50
97.1333042
51
97.4126543
0
ARC
8
DEFAULT_255_2_778
10
16.553916
20
21.2495803
40
3.9293855
50
84.7375319
51
90.1685099
0
ARC
8
DEFAULT_255_2_778
10
16.6808253
20
22.5803214
40
2.5926172
50
76.9928952
51
84.8330258
0
ARC
8
DEFAULT_255_2_778
10
16.9002561
20
23.5118888
40
1.6355693
50
65.4401354
51
77.1376111
0
ARC
8
DEFAULT_255_2_778
10
17.1605597
20
24.0686508
40
1.0209994
50
45.0883269
51
65.7397272
0
ARC
8
DEFAULT_255_2_778
10
17.2622354
20
24.1929069
40
0.8613606
50
6.8238201
51
44.042579
0
ARC
8
DEFAULT_255_2_778
10
16.8822038
20
24.123592
40
1.2471606
50
359.8372192
51
7.9112954
0
LINE
8
DEFAULT_255_2_778
10
18.1293595
20
24.1200488
11
18.1293595
21
11.9436488
0
ARC
8
DEFAULT_255_2_778
10
15.4553221
20
11.9316931
40
2.6740641
50
352.8230918
51
0.2561687
0
ARC
8
DEFAULT_255_2_778
10
16.4248751
20
11.8049877
40
1.6962838
50
341.6755754
51
352.9778963
0
ARC
8
DEFAULT_255_2_778
10
17.0334317
20
11.5980111
40
1.053526
50
322.5078474
51
341.9558045
0
ARC
8
DEFAULT_255_2_778
10
17.202204
20
11.4859233
40
0.8515049
50
281.2205064
51
321.5799638
0
ARC
8
DEFAULT_255_2_778
10
17.0816553
20
11.9792588
40
1.3590497
50
269.561721
51
282.1585215
0
ARC
8
DEFAULT_255_2_778
10
91.3544524
20
567.4295023
40
561.7424121
50
262.326709
51
262.4011145
0
ARC
8
DEFAULT_255_2_778
10
78.7759983
20
474.0893455
40
467.5585368
50
262.2381283
51
262.3270337
0
ARC
8
DEFAULT_255_2_778
10
67.1905061
20
389.1072552
40
381.7903651
50
262.1348554
51
262.2384261
0
ARC
8
DEFAULT_255_2_778
10
57.4684633
20
318.7216489
40
310.7365003
50
262.0306754
51
262.1346494
0
ARC
8
DEFAULT_255_2_778
10
49.9422755
20
264.9542136
40
256.4448748
50
261.9270602
51
262.0304586
0
ARC
8
DEFAULT_255_2_778
10
42.7637888
20
214.3871826
40
205.3708576
50
261.7713798
51
261.9287443
0
ARC
8
DEFAULT_255_2_778
10
35.6625886
20
165.2996152
40
155.7723061
50
261.5801211
51
261.7723054
0
ARC
8
DEFAULT_255_2_778
10
30.1439981
20
128.0052498
40
118.0718483
50
261.3904702
51
261.5792645
0
ARC
8
DEFAULT_255_2_778
10
25.6714698
20
98.4908212
40
88.2204666
50
261.1349687
51
261.3929548
0
ARC
8
DEFAULT_255_2_778
10
22.0283165
20
75.1268681
40
64.5741799
50
260.8694628
51
261.1341478
0
ARC
8
DEFAULT_255_2_778
10
19.256748
20
57.8917816
40
47.1176682
50
260.5447151
51
260.8713028
0
ARC
8
DEFAULT_255_2_778
10
11.5034566
20
12.3105053
40
0.8963494
50
252.0181681
51
270.8247995
0
ARC
8
DEFAULT_255_2_778
10
11.4364797
20
12.073312
40
0.6501347
50
202.1908784
51
251.1791607
0
ARC
8
DEFAULT_255_2_778
10
11.9150596
20
12.2992277
40
1.1789362
50
189.5732069
51
203.5724975
0
ARC
8
DEFAULT_255_2_778
10
12.729353
20
12.4444901
40
2.0060633
50
180.9818065
51
189.7964469
0
ARC
8
DEFAULT_255_2_778
10
13.4242036
20
12.4726822
40
2.7013441
50
179.9901038
51
181.3271465
0
LINE
8
DEFAULT_255_2_778
10
10.7228595
20
12.4731488
11
10.7228595
21
23.0614488
0
ARC
8
DEFAULT_255_2_778
10
11.9864762
20
23.0746335
40
1.2636855
50
163.883694
51
180.5978078
0
ARC
8
DEFAULT_255_2_778
10
11.6945773
20
23.1501355
40
0.9623372
50
118.7508202
51
163.3780407
0
ARC
8
DEFAULT_255_2_778
10
11.9877989
20
22.6760397
40
1.5193038
50
108.0772922
51
119.8457597
0
LINE
8
DEFAULT_255_2_778
10
11.5163595
20
24.1203488
11
11.5165595
21
24.1200488
0
ARC
8
DEFAULT_255_2_778
10
33.2180242
20
-9366.7888922
40
9378.5245785
50
89.9907203
51
90.0000659
0
ARC
8
DEFAULT_255_2_778
10
33.3539931
20
-8517.6441049
40
8529.3797803
50
89.981066
51
89.9907098
0
ARC
8
DEFAULT_255_2_778
10
33.6162912
20
-7723.3883542
40
7735.1239864
50
89.9710849
51
89.9810647
0
ARC
8
DEFAULT_255_2_778
10
33.9670015
20
-7028.9205841
40
7040.6561277
50
89.9607972
51
89.9710869
0
ARC
8
DEFAULT_255_2_778
10
34.3974439
20
-6397.8669278
40
6409.6023246
50
89.9501779
51
89.9607853
0
ARC
8
DEFAULT_255_2_778
10
34.8952459
20
-5823.1600589
40
5834.8952403
50
89.9392237
51
89.9501589
0
ARC
8
DEFAULT_255_2_778
10
35.4728327
20
-5277.884582
40
5289.6194575
50
89.9278946
51
89.9392149
0
ARC
8
DEFAULT_255_2_778
10
36.1013805
20
-4779.6507894
40
4791.3852683
50
89.9161843
51
89.9279129
0
ARC
8
DEFAULT_255_2_778
10
36.7178476
20
-4359.6187859
40
4371.3528124
50
89.9041461
51
89.9162107
0
ARC
8
DEFAULT_255_2_778
10
37.3637448
20
-3973.0009034
40
3984.7343903
50
89.8917121
51
89.9041331
0
ARC
8
DEFAULT_255_2_778
10
38.0668689
20
-3600.414782
40
3612.1476054
50
89.8788362
51
89.8916954
0
ARC
8
DEFAULT_255_2_778
10
38.7618953
20
-3271.8381041
40
3283.5701925
50
89.8655637
51
89.8788394
0
ARC
8
DEFAULT_255_2_778
10
39.634423
20
-2903.323366
40
2915.0544216
50
89.8448344
51
89.8657182
0
ARC
8
DEFAULT_255_2_778
10
40.7027217
20
-2509.2243428
40
2520.9539505
50
89.8229198
51
89.8448575
0
ARC
8
DEFAULT_255_2_778
10
41.7310299
20
-2176.628354
40
2188.3563721
50
89.7999713
51
89.8229295
0
ARC
8
DEFAULT_255_2_778
10
42.8394557
20
-1859.9585074
40
1871.6845856
50
89.7717239
51
89.8000594
0
ARC
8
DEFAULT_255_2_778
10
43.9971532
20
-1569.3511301
40
1581.0749024
50
89.7417437
51
89.7717189
0
ARC
8
DEFAULT_255_2_778
10
45.1744783
20
-1308.7347493
40
1320.4558624
50
89.7059013
51
89.7418569
0
ARC
8
DEFAULT_255_2_778
10
46.3527365
20
-1079.2371296
40
1090.955218
50
89.6669956
51
89.7059138
0
ARC
8
DEFAULT_255_2_778
10
47.4741207
20
-886.2812653
40
897.9960953
50
89.6254341
51
89.6669897
0
ARC
8
DEFAULT_255_2_778
10
48.5094254
20
-727.9400445
40
739.6514899
50
89.5811031
51
89.6254457
0
ARC
8
DEFAULT_255_2_778
10
49.464543
20
-597.389911
40
609.0978627
50
89.5338358
51
89.5811625
0
ARC
8
DEFAULT_255_2_778
10
50.3276541
20
-491.3195547
40
503.0239949
50
89.4834788
51
89.5338463
0
ARC
8
DEFAULT_255_2_778
10
51.132673
20
-402.0247246
40
413.7255362
50
89.4296559
51
89.4834795
0
ARC
8
DEFAULT_255_2_778
10
52.0256631
20
-313.0365494
40
324.7328809
50
89.3419673
51
89.4309153
0
ARC
8
DEFAULT_255_2_778
10
52.9797676
20
-229.9921117
40
241.6829624
50
89.2438841
51
89.3420409
0
ARC
8
DEFAULT_255_2_778
10
53.8871604
20
-161.610889
40
173.2957198
50
89.1067038
51
89.2455149
0
ARC
8
DEFAULT_255_2_778
10
54.7540614
20
-106.1250513
40
117.8031106
50
88.9384995
51
89.1075566
0
ARC
8
DEFAULT_255_2_778
10
55.4753695
20
-67.2130079
40
78.8843823
50
88.745424
51
88.938728
0
ARC
8
DEFAULT_255_2_778
10
56.045099
20
-41.2104976
40
52.875631
50
88.5249078
51
88.7457219
0
ARC
8
DEFAULT_255_2_778
10
56.5898965
20
-20.3070443
40
31.9650811
50
88.1310241
51
88.5365811
0
ARC
8
DEFAULT_255_2_778
10
57.1323568
20
-3.8644106
40
15.5135039
50
87.452
51
88.1528577
0
ARC
8
DEFAULT_255_2_778
10
57.564242
20
5.7266491
40
5.9127286
50
86.2232326
51
87.5011763
0
ARC
8
DEFAULT_255_2_778
10
57.8669799
20
10.2030158
40
1.4261605
50
83.0955861
51
86.5135074
0
ARC
8
DEFAULT_255_2_778
10
58.0375584
20
11.5446613
40
0.0741775
50
62.8216382
51
89.3319286
0
ARC
8
DEFAULT_255_2_778
10
58.0702088
20
11.6097499
40
0.0015244
50
1.3691346
51
36.1374581
0
ARC
8
DEFAULT_255_2_778
10
58.0845959
20
9.381182
40
2.2286414
50
81.0050896
51
90.330702
0
ARC
8
DEFAULT_255_2_778
10
58.2153143
20
10.1785283
40
1.4206704
50
66.6715865
51
81.18449
0
ARC
8
DEFAULT_255_2_778
10
58.4031358
20
10.6023265
40
0.9571515
50
16.718547
51
66.9495008
0
ARC
8
DEFAULT_255_2_778
10
57.864733
20
10.4156735
40
1.5266768
50
4.3276888
51
17.6148094
0
ARC
8
DEFAULT_255_2_778
10
57.2498992
20
10.3543457
40
2.144436
50
359.9129133
51
4.72198
0
LINE
8
DEFAULT_255_2_778
10
59.3943327
20
10.3510863
11
59.3943327
21
0.0312863
0
ARC
8
DEFAULT_255_2_778
10
29.3763327
20
3.8733201
40
1.9883815
50
156.4981207
51
180.0994542
0
ARC
8
DEFAULT_255_2_778
10
29.3677315
20
3.8752853
40
1.9797107
50
99.9309156
51
156.4510073
0
ARC
8
DEFAULT_255_2_778
10
29.3707924
20
3.8448332
40
2.0102356
50
89.9725853
51
99.8671642
0
ARC
8
DEFAULT_255_2_778
10
29.3751732
20
3.870245
40
1.9848267
50
66.4686189
51
90.0986943
0
ARC
8
DEFAULT_255_2_778
10
29.374826
20
3.8749863
40
1.9806196
50
10.2353149
51
66.4046512
0
ARC
8
DEFAULT_255_2_778
10
29.3421384
20
3.8708881
40
2.0135161
50
359.9709913
51
10.1847957
0
ARC
8
DEFAULT_255_2_778
10
29.3675496
20
3.8664235
40
1.9881076
50
336.4963514
51
0.0992885
0
ARC
8
DEFAULT_255_2_778
10
29.3758624
20
3.8646166
40
1.9797646
50
279.9289805
51
336.4483611
0
ARC
8
DEFAULT_255_2_778
10
29.3727164
20
3.8953477
40
2.0105791
50
269.9725806
51
279.8662866
0
ARC
8
DEFAULT_255_2_778
10
29.3683446
20
3.8693757
40
1.98461
50
246.4674604
51
270.0984374
0
ARC
8
DEFAULT_255_2_778
10
29.368766
20
3.8648304
40
1.980612
50
190.2034484
51
246.4037824
0
ARC
8
DEFAULT_255_2_778
10
29.4012441
20
3.8688555
40
2.0132901
50
179.9711658
51
190.1524547
0
LINE
8
DEFAULT_255_2_778
10
27.3879542
20
3.8698687
11
27.3879542
21
3.8698687
0
ARC
8
DEFAULT_255_2_778
10
14.4610718
20
130.7472652
40
1.5821203
50
35.3606968
51
61.6303006
0
ARC
8
DEFAULT_255_2_778
10
14.5873463
20
132.9701481
40
1.0399125
50
306.9758007
51
359.5771142
0
ARC
8
DEFAULT_255_2_778
10
14.5795435
20
132.9673769
40
1.0476984
50
359.7318097
51
30.4963559
0
ARC
8
DEFAULT_255_2_778
10
14.6586898
20
133.0207342
40
0.9524408
50
30.1468157
51
89.877247
0
ARC
8
DEFAULT_255_2_778
10
14.5337437
20
130.6922003
40
1.4856435
50
272.7541802
51
295.5642046
0
ARC
8
DEFAULT_255_2_778
10
14.5137491
20
130.692368
40
1.4945309
50
296.2529384
51
350.552115
0
ARC
8
DEFAULT_255_2_778
10
14.3597789
20
130.7376062
40
1.6539517
50
349.8817723
51
0.0369515
0
ARC
8
DEFAULT_255_2_778
10
13.506036
20
130.7383188
40
2.5076944
50
0.0080903
51
0.0404517
0
ARC
8
DEFAULT_255_2_778
10
14.3607614
20
130.7642164
40
1.6531445
50
359.1637537
51
22.4595127
0
ARC
8
DEFAULT_255_2_778
10
14.8560972
20
130.9436034
40
1.1270929
50
23.6518292
51
29.8019658
0
ARC
8
DEFAULT_255_2_778
10
10.7343438
20
130.7487269
40
1.5799924
50
35.3504608
51
61.6616564
0
ARC
8
DEFAULT_255_2_778
10
10.8588463
20
132.9701481
40
1.0399125
50
306.9758007
51
359.5771142
0
ARC
8
DEFAULT_255_2_778
10
10.8510435
20
132.9673769
40
1.0476984
50
359.7318097
51
30.4963559
0
ARC
8
DEFAULT_255_2_778
10
10.9301898
20
133.0207342
40
0.9524408
50
30.1468157
51
89.877247
0
ARC
8
DEFAULT_255_2_778
10
10.80549
20
130.6918486
40
1.4852948
50
272.7569011
51
295.567523
0
ARC
8
DEFAULT_255_2_778
10
10.7852627
20
130.6926412
40
1.4948466
50
296.2537995
51
350.5435126
0
ARC
8
DEFAULT_255_2_778
10
10.6322877
20
130.7376106
40
1.6532429
50
349.877232
51
0.0368133
0
ARC
8
DEFAULT_255_2_778
10
9.777836
20
130.7383188
40
2.5076944
50
0.0080903
51
0.0404517
0
ARC
8
DEFAULT_255_2_778
10
10.6305437
20
130.7641078
40
1.6551604
50
359.168532
51
22.4347351
0
ARC
8
DEFAULT_255_2_778
10
11.1262398
20
130.9434494
40
1.1287817
50
23.6228218
51
29.761889
0
LINE
8
DEFAULT_255_2_778
10
7.8389304
20
131.6628729
11
7.0518304
21
133.9728729
0
LINE
8
DEFAULT_255_2_778
10
7.0518304
20
133.9728729
11
6.4580304
21
133.9728729
0
LINE
8
DEFAULT_255_2_778
10
6.4580304
20
133.9728729
11
6.4580304
21
131.6628729
0
LINE
8
DEFAULT_255_2_778
10
6.4580304
20
131.6628729
11
7.8389304
21
131.6628729
0
LINE
8
DEFAULT_255_2_778
10
6.4580304
20
130.2189729
11
7.1899304
21
130.2189729
0
LINE
8
DEFAULT_255_2_778
10
7.1899304
20
130.2189729
11
7.5214304
21
129.2082729
0
LINE
8
DEFAULT_255_2_778
10
7.5214304
20
129.2082729
11
8.6676304
21
129.2082729
0
LINE
8
DEFAULT_255_2_778
10
8.6676304
20
129.2082729
11
7.8804304
21
131.5183729
0
LINE
8
DEFAULT_255_2_778
10
7.8804304
20
131.5183729
11
6.4580304
21
131.5183729
0
LINE
8
DEFAULT_255_2_778
10
6.4580304
20
131.5183729
11
6.4580304
21
130.2189729
0
LINE
8
DEFAULT_255_2_778
10
6.3199304
20
133.9728729
11
5.7262304
21
133.9728729
0
LINE
8
DEFAULT_255_2_778
10
5.7262304
20
133.9728729
11
4.9391304
21
131.6628729
0
LINE
8
DEFAULT_255_2_778
10
4.9391304
20
131.6628729
11
6.3199304
21
131.6628729
0
LINE
8
DEFAULT_255_2_778
10
6.3199304
20
131.6628729
11
6.3199304
21
133.9728729
0
LINE
8
DEFAULT_255_2_778
10
4.8975304
20
131.5183729
11
4.1104304
21
129.2082729
0
LINE
8
DEFAULT_255_2_778
10
4.1104304
20
129.2082729
11
5.2566304
21
129.2082729
0
LINE
8
DEFAULT_255_2_778
10
5.2566304
20
129.2082729
11
5.5881304
21
130.2189729
0
LINE
8
DEFAULT_255_2_778
10
5.5881304
20
130.2189729
11
6.3199304
21
130.2189729
0
LINE
8
DEFAULT_255_2_778
10
6.3199304
20
130.2189729
11
6.3199304
21
131.5183729
0
LINE
8
DEFAULT_255_2_778
10
6.3199304
20
131.5183729
11
4.8975304
21
131.5183729
0
LINE
8
DEFAULT_255_2_778
10
12.8099304
20
133.9728729
11
14.1908304
21
133.9728729
0
LINE
8
DEFAULT_255_2_778
10
14.1908304
20
133.9728729
11
14.1908304
21
131.6628729
0
LINE
8
DEFAULT_255_2_778
10
14.1908304
20
131.6628729
11
12.8099304
21
131.6628729
0
LINE
8
DEFAULT_255_2_778
10
12.8099304
20
131.6628729
11
12.8099304
21
133.9728729
0
LINE
8
DEFAULT_255_2_778
10
14.6607304
20
133.9731729
11
14.3291304
21
133.9731729
0
LINE
8
DEFAULT_255_2_778
10
14.3291304
20
133.9731729
11
14.3291304
21
131.6630729
0
LINE
8
DEFAULT_255_2_778
10
14.3291304
20
131.6630729
11
15.7515304
21
131.6630729
0
LINE
8
DEFAULT_255_2_778
10
15.7515304
20
131.6630729
11
15.7513304
21
131.6628729
0
LINE
8
DEFAULT_255_2_778
10
12.8099304
20
131.5183729
11
14.1908304
21
131.5183729
0
LINE
8
DEFAULT_255_2_778
10
14.1908304
20
131.5183729
11
14.1908304
21
129.2082729
0
LINE
8
DEFAULT_255_2_778
10
14.1908304
20
129.2082729
11
12.8099304
21
129.2082729
0
LINE
8
DEFAULT_255_2_778
10
12.8099304
20
129.2082729
11
12.8099304
21
131.5183729
0
LINE
8
DEFAULT_255_2_778
10
14.3289304
20
129.2082729
11
14.6051304
21
129.2082729
0
LINE
8
DEFAULT_255_2_778
10
15.8341304
20
131.5037729
11
14.3289304
21
131.5037729
0
LINE
8
DEFAULT_255_2_778
10
14.3289304
20
131.5037729
11
14.3289304
21
129.2080729
0
LINE
8
DEFAULT_255_2_778
10
14.3289304
20
129.2080729
11
14.3289304
21
129.2082729
0
LINE
8
DEFAULT_255_2_778
10
9.0817304
20
133.9728729
11
10.4625304
21
133.9728729
0
LINE
8
DEFAULT_255_2_778
10
10.4625304
20
133.9728729
11
10.4625304
21
131.6628729
0
LINE
8
DEFAULT_255_2_778
10
10.4625304
20
131.6628729
11
9.0817304
21
131.6628729
0
LINE
8
DEFAULT_255_2_778
10
9.0817304
20
131.6628729
11
9.0817304
21
133.9728729
0
LINE
8
DEFAULT_255_2_778
10
10.9322304
20
133.9731729
11
10.6006304
21
133.9731729
0
LINE
8
DEFAULT_255_2_778
10
10.6006304
20
133.9731729
11
10.6006304
21
131.6630729
0
LINE
8
DEFAULT_255_2_778
10
10.6006304
20
131.6630729
11
12.0230304
21
131.6630729
0
LINE
8
DEFAULT_255_2_778
10
12.0230304
20
131.6630729
11
12.0230304
21
131.6628729
0
LINE
8
DEFAULT_255_2_778
10
9.0817304
20
131.5183729
11
10.4625304
21
131.5183729
0
LINE
8
DEFAULT_255_2_778
10
10.4625304
20
131.5183729
11
10.4625304
21
129.2082729
0
LINE
8
DEFAULT_255_2_778
10
10.4625304
20
129.2082729
11
9.0817304
21
129.2082729
0
LINE
8
DEFAULT_255_2_778
10
9.0817304
20
129.2082729
11
9.0817304
21
131.5183729
0
LINE
8
DEFAULT_255_2_778
10
10.6006304
20
129.2082729
11
10.8769304
21
129.2082729
0
LINE
8
DEFAULT_255_2_778
10
12.1061304
20
131.5037729
11
10.6009304
21
131.5037729
0
LINE
8
DEFAULT_255_2_778
10
10.6009304
20
131.5037729
11
10.6009304
21
129.2080729
0
LINE
8
DEFAULT_255_2_778
10
10.6009304
20
129.2080729
11
10.6006304
21
129.2082729
0
LINE
8
DEFAULT_255_2_778
10
47.7677084
20
108.2964654
11
54.3823084
21
108.2964654
0
LINE
8
DEFAULT_255_2_778
10
54.3823084
20
108.2964654
11
54.3823084
21
127.3551654
0
LINE
8
DEFAULT_255_2_778
10
54.3823084
20
127.3551654
11
47.7677084
21
127.3551654
0
LINE
8
DEFAULT_255_2_778
10
47.7677084
20
127.3551654
11
47.7677084
21
108.2964654
0
LINE
8
DEFAULT_255_2_778
10
55.7052084
20
108.2964654
11
62.3198084
21
108.2964654
0
LINE
8
DEFAULT_255_2_778
10
62.3198084
20
108.2964654
11
62.3198084
21
127.3551654
0
LINE
8
DEFAULT_255_2_778
10
62.3198084
20
127.3551654
11
55.7052084
21
127.3551654
0
LINE
8
DEFAULT_255_2_778
10
55.7052084
20
127.3551654
11
55.7052084
21
108.2964654
0
LINE
8
DEFAULT_255_2_778
10
63.6427084
20
108.3086654
11
70.2573084
21
108.3086654
0
LINE
8
DEFAULT_255_2_778
10
70.2573084
20
108.3086654
11
70.2573084
21
127.3673654
0
LINE
8
DEFAULT_255_2_778
10
70.2573084
20
127.3673654
11
63.6427084
21
127.3673654
0
LINE
8
DEFAULT_255_2_778
10
63.6427084
20
127.3673654
11
63.6427084
21
108.3086654
0
LINE
8
DEFAULT_255_2_778
10
71.5802386
20
108.2964654
11
78.4395386
21
108.2964654
0
LINE
8
DEFAULT_255_2_778
10
78.4395386
20
108.2964654
11
78.4395386
21
127.3551654
0
LINE
8
DEFAULT_255_2_778
10
78.4395386
20
127.3551654
11
71.5802386
21
127.3551654
0
LINE
8
DEFAULT_255_2_778
10
71.5802386
20
127.3551654
11
71.5802386
21
108.2964654
0
ARC
8
DEFAULT_255_2_778
10
59.5438568
20
131.8006705
40
1.1036831
50
75.2669715
51
90.6610697
0
ARC
8
DEFAULT_255_2_778
10
59.6483091
20
132.1915111
40
0.699131
50
48.4939195
51
75.3998379
0
ARC
8
DEFAULT_255_2_778
10
59.6850777
20
132.2426436
40
0.6365038
50
359.1891076
51
47.9223073
0
ARC
8
DEFAULT_255_2_778
10
59.4143051
20
132.2143482
40
0.9074176
50
359.9957048
51
1.2179314
0
ARC
8
DEFAULT_255_2_778
10
59.5456568
20
132.200873
40
0.776182
50
339.7619378
51
0.9897326
0
ARC
8
DEFAULT_255_2_778
10
59.7518477
20
132.1316871
40
0.5588245
50
310.7090002
51
339.1045783
0
ARC
8
DEFAULT_255_2_778
10
59.6698052
20
132.2417949
40
0.695866
50
282.6269601
51
309.9166101
0
ARC
8
DEFAULT_255_2_778
10
59.5433519
20
132.753218
40
1.2226178
50
269.7532324
51
283.1704203
0
ARC
8
DEFAULT_255_2_778
10
59.5279706
20
133.1599669
40
1.6293867
50
269.9983235
51
270.355709
0
ARC
8
DEFAULT_255_2_778
10
59.5438802
20
132.4783334
40
0.7041688
50
268.9619327
51
287.2950043
0
ARC
8
DEFAULT_255_2_778
10
59.6288116
20
132.1962455
40
0.409595
50
287.6826204
51
310.9060721
0
ARC
8
DEFAULT_255_2_778
10
59.6353042
20
132.1710212
40
0.3864538
50
312.6277045
51
356.9895143
0
ARC
8
DEFAULT_255_2_778
10
59.3832304
20
132.210555
40
0.6407935
50
354.6425806
51
0.0916681
0
ARC
8
DEFAULT_255_2_778
10
59.5843994
20
132.2271082
40
0.4398977
50
357.9770828
51
36.3796586
0
ARC
8
DEFAULT_255_2_778
10
59.6200964
20
132.2425341
40
0.4021036
50
37.6270605
51
46.4731641
0
ARC
8
DEFAULT_255_2_778
10
59.5825171
20
132.190426
40
0.4658455
50
47.5358371
51
84.7751997
0
ARC
8
DEFAULT_255_2_778
10
59.53392
20
131.9152366
40
0.7446828
50
82.9794811
51
88.8917744
0
LINE
8
DEFAULT_255_2_778
10
59.5282229
20
131.5307802
11
58.9964229
21
131.5307802
0
LINE
8
DEFAULT_255_2_778
10
58.9964229
20
131.5307802
11
58.9964229
21
130.6470802
0
LINE
8
DEFAULT_255_2_778
10
58.9964229
20
130.6470802
11
58.6987229
21
130.6470802
0
LINE
8
DEFAULT_255_2_778
10
58.6987229
20
130.6470802
11
58.6987229
21
132.9042802
0
LINE
8
DEFAULT_255_2_778
10
58.6987229
20
132.9042802
11
59.5311229
21
132.9042802
0
LINE
8
DEFAULT_255_2_778
10
59.5279229
20
131.5305802
11
59.5282229
21
131.5307802
0
LINE
8
DEFAULT_255_2_778
10
58.9964229
20
132.6595802
11
58.9964229
21
131.7742802
0
LINE
8
DEFAULT_255_2_778
10
58.9964229
20
131.7742802
11
59.5311229
21
131.7742802
0
LINE
8
DEFAULT_255_2_778
10
59.5483229
20
132.6597802
11
58.9964229
21
132.6597802
0
LINE
8
DEFAULT_255_2_778
10
58.9964229
20
132.6597802
11
58.9964229
21
132.6595802
0
LINE
8
DEFAULT_255_2_778
10
60.7017115
20
132.9042802
11
61.0861115
21
132.9042802
0
LINE
8
DEFAULT_255_2_778
10
61.0861115
20
132.9042802
11
61.8240115
21
131.0624802
0
LINE
8
DEFAULT_255_2_778
10
61.8240115
20
131.0624802
11
62.5619115
21
132.9042802
0
LINE
8
DEFAULT_255_2_778
10
62.5619115
20
132.9042802
11
62.9480115
21
132.9042802
0
LINE
8
DEFAULT_255_2_778
10
62.9480115
20
132.9042802
11
62.9480115
21
130.6470802
0
LINE
8
DEFAULT_255_2_778
10
62.9480115
20
130.6470802
11
62.6503115
21
130.6470802
0
LINE
8
DEFAULT_255_2_778
10
62.6503115
20
130.6470802
11
62.6503115
21
131.5260802
0
LINE
8
DEFAULT_255_2_778
10
62.6503115
20
131.5260802
11
62.6781115
21
132.4748802
0
LINE
8
DEFAULT_255_2_778
10
62.6781115
20
132.4748802
11
61.9370115
21
130.6470802
0
LINE
8
DEFAULT_255_2_778
10
61.9370115
20
130.6470802
11
61.7092115
21
130.6470802
0
LINE
8
DEFAULT_255_2_778
10
61.7092115
20
130.6470802
11
60.9697115
21
132.4703802
0
LINE
8
DEFAULT_255_2_778
10
60.9697115
20
132.4703802
11
60.9991115
21
131.5263802
0
LINE
8
DEFAULT_255_2_778
10
60.9991115
20
131.5263802
11
60.9991115
21
130.6473802
0
LINE
8
DEFAULT_255_2_778
10
60.9991115
20
130.6473802
11
60.7014115
21
130.6473802
0
LINE
8
DEFAULT_255_2_778
10
60.7014115
20
130.6473802
11
60.7014115
21
132.9042802
0
LINE
8
DEFAULT_255_2_778
10
60.7014115
20
132.9042802
11
60.7017115
21
132.9042802
0
ARC
8
DEFAULT_255_2_778
10
64.1855116
20
131.3929976
40
0.7284963
50
89.0347046
51
120.0162579
0
ARC
8
DEFAULT_255_2_778
10
64.2119283
20
131.4275616
40
0.6939731
50
64.7131011
51
91.1678295
0
ARC
8
DEFAULT_255_2_778
10
64.2489891
20
131.5311819
40
0.5845499
50
41.3528425
51
63.6591761
0
ARC
8
DEFAULT_255_2_778
10
64.1499002
20
131.4513563
40
0.7116933
50
8.7620246
51
40.9063538
0
ARC
8
DEFAULT_255_2_778
10
63.7583533
20
131.3718405
40
1.1109451
50
359.7137688
51
9.7390447
0
ARC
8
DEFAULT_255_2_778
10
63.8944266
20
131.353229
40
0.9749453
50
343.2258529
51
0.7676296
0
ARC
8
DEFAULT_255_2_778
10
64.2001328
20
131.2635813
40
0.6563791
50
317.0904879
51
343.0169161
0
ARC
8
DEFAULT_255_2_778
10
64.2240176
20
131.2541056
40
0.6325023
50
276.9102076
51
316.2460613
0
ARC
8
DEFAULT_255_2_778
10
64.1581193
20
131.5985813
40
0.9826967
50
269.799726
51
278.3081648
0
ARC
8
DEFAULT_255_2_778
10
64.1410705
20
131.4299798
40
0.814203
50
248.7106155
51
270.9580609
0
ARC
8
DEFAULT_255_2_778
10
64.081644
20
131.2550155
40
0.629655
50
228.7258898
51
247.9685628
0
ARC
8
DEFAULT_255_2_778
10
64.0902147
20
131.2559336
40
0.6360255
50
188.2171799
51
228.2001666
0
ARC
8
DEFAULT_255_2_778
10
64.3720163
20
131.3220563
40
0.9247272
50
185.054137
51
189.7767187
0
ARC
8
DEFAULT_255_2_778
10
64.2573709
20
131.3007891
40
0.5386608
50
186.4165468
51
209.9920285
0
ARC
8
DEFAULT_255_2_778
10
64.0989756
20
131.2175257
40
0.3599231
50
211.1167004
51
228.3725453
0
ARC
8
DEFAULT_255_2_778
10
64.1270366
20
131.2653898
40
0.4144821
50
229.8684592
51
269.1287678
0
ARC
8
DEFAULT_255_2_778
10
64.1540844
20
131.4935268
40
0.6434362
50
267.0289539
51
270.0267104
0
ARC
8
DEFAULT_255_2_778
10
64.173029
20
131.2368251
40
0.3871837
50
267.239891
51
319.7372285
0
ARC
8
DEFAULT_255_2_778
10
64.0797329
20
131.2969196
40
0.4974252
50
321.400649
51
353.0155331
0
ARC
8
DEFAULT_255_2_778
10
63.7362478
20
131.359698
40
0.8462446
50
351.6244049
51
0.2500134
0
ARC
8
DEFAULT_255_2_778
10
63.9921274
20
131.3769898
40
0.5905136
50
358.6803916
51
24.3729094
0
ARC
8
DEFAULT_255_2_778
10
64.1272553
20
131.4288132
40
0.4461244
50
25.4721921
51
41.9243182
0
ARC
8
DEFAULT_255_2_778
10
64.1486549
20
131.4454666
40
0.41908
50
42.1851116
51
92.3618544
0
ARC
8
DEFAULT_255_2_778
10
64.118865
20
131.2863937
40
0.5779325
50
88.7587392
51
109.2414084
0
ARC
8
DEFAULT_255_2_778
10
64.0493571
20
131.5027297
40
0.3508211
50
110.1671787
51
127.2751949
0
LINE
8
DEFAULT_255_2_778
10
63.7604844
20
131.7197906
11
63.5310844
21
131.7787906
0
LINE
8
DEFAULT_255_2_778
10
63.5310844
20
131.7787906
11
63.6458844
21
132.9042906
0
LINE
8
DEFAULT_255_2_778
10
63.6458844
20
132.9042906
11
64.8023844
21
132.9042906
0
LINE
8
DEFAULT_255_2_778
10
64.8023844
20
132.9042906
11
64.8023844
21
132.6391906
0
LINE
8
DEFAULT_255_2_778
10
64.8023844
20
132.6391906
11
63.8892844
21
132.6391906
0
LINE
8
DEFAULT_255_2_778
10
63.8892844
20
132.6391906
11
63.8210844
21
132.0237906
0
LINE
8
DEFAULT_255_2_778
10
63.4508844
20
131.2405906
11
63.7220844
21
131.2405906
0
LINE
8
DEFAULT_255_2_778
10
63.8368844
20
131.7818906
11
63.7609844
21
131.7199906
0
LINE
8
DEFAULT_255_2_778
10
63.7609844
20
131.7199906
11
63.7604844
21
131.7197906
0
ARC
8
DEFAULT_255_2_778
10
66.2576817
20
131.7615367
40
0.9009202
50
90.1886351
51
110.1296742
0
ARC
8
DEFAULT_255_2_778
10
66.1805901
20
131.9897179
40
0.6601751
50
110.6630071
51
134.0819033
0
ARC
8
DEFAULT_255_2_778
10
66.2407163
20
131.9415126
40
0.7366953
50
134.8328824
51
166.2825287
0
ARC
8
DEFAULT_255_2_778
10
66.6274005
20
131.8278308
40
1.139462
50
165.3400232
51
175.2114296
0
ARC
8
DEFAULT_255_2_778
10
65.9409452
20
131.5283054
40
0.5978073
50
91.3698698
51
138.6881518
0
ARC
8
DEFAULT_255_2_778
10
65.9782575
20
131.2452273
40
0.882225
50
89.9702475
51
93.353301
0
ARC
8
DEFAULT_255_2_778
10
66.0015946
20
131.5427364
40
0.5851631
50
40.1125818
51
92.2407503
0
ARC
8
DEFAULT_255_2_778
10
65.873911
20
131.4433458
40
0.7468757
50
6.001061
51
39.6328408
0
ARC
8
DEFAULT_255_2_778
10
65.533593
20
131.3860739
40
1.0915257
50
359.8623774
51
7.1233412
0
ARC
8
DEFAULT_255_2_778
10
65.6512321
20
131.3701276
40
0.9739747
50
342.2977073
51
0.7838599
0
ARC
8
DEFAULT_255_2_778
10
65.9229967
20
131.2880983
40
0.6901502
50
317.9054619
51
341.9248903
0
ARC
8
DEFAULT_255_2_778
10
65.9627076
20
131.257614
40
0.6402604
50
271.2007359
51
317.5475232
0
ARC
8
DEFAULT_255_2_778
10
65.9262084
20
131.5449444
40
0.9287925
50
269.9757743
51
273.0807282
0
ARC
8
DEFAULT_255_2_778
10
65.9089583
20
131.2600701
40
0.6441387
50
217.8473984
51
271.4996257
0
ARC
8
DEFAULT_255_2_778
10
66.1032019
20
131.422781
40
0.8974039
50
188.2605725
51
218.4414385
0
ARC
8
DEFAULT_255_2_778
10
66.512316
20
131.5007886
40
1.3136104
50
179.7747849
51
189.0639676
0
ARC
8
DEFAULT_255_2_778
10
67.5396723
20
131.6289048
40
2.3409919
50
171.4657736
51
180.3145732
0
ARC
8
DEFAULT_255_2_778
10
66.7020336
20
131.7583584
40
1.4934217
50
158.435602
51
171.6082822
0
ARC
8
DEFAULT_255_2_778
10
66.2687502
20
131.928332
40
1.0279933
50
141.4658659
51
158.3700755
0
ARC
8
DEFAULT_255_2_778
10
66.1421809
20
132.0162154
40
0.8742948
50
102.0345632
51
140.8036609
0
ARC
8
DEFAULT_255_2_778
10
66.266009
20
131.5341573
40
1.3717314
50
90.4174171
51
102.8948982
0
ARC
8
DEFAULT_255_2_778
10
65.9296422
20
131.4317315
40
0.457022
50
89.8528816
51
126.216578
0
ARC
8
DEFAULT_255_2_778
10
65.9193609
20
131.4213649
40
0.4595375
50
124.418399
51
159.9713227
0
ARC
8
DEFAULT_255_2_778
10
66.4037199
20
131.4604654
40
0.9161949
50
179.1940856
51
196.2534626
0
ARC
8
DEFAULT_255_2_778
10
66.0945481
20
131.3741734
40
0.5952392
50
196.6086542
51
216.0533843
0
ARC
8
DEFAULT_255_2_778
10
65.9434522
20
131.2482558
40
0.3991831
50
214.205129
51
252.8866039
0
ARC
8
DEFAULT_255_2_778
10
65.9248991
20
131.2223906
40
0.3691424
50
254.4576277
51
270.2664323
0
ARC
8
DEFAULT_255_2_778
10
65.9416478
20
131.2175593
40
0.3646172
50
267.6371843
51
322.5510192
0
ARC
8
DEFAULT_255_2_778
10
65.7974845
20
131.3198192
40
0.5412862
50
323.2364769
51
354.9975141
0
ARC
8
DEFAULT_255_2_778
10
65.4913949
20
131.3675061
40
0.8506229
50
353.59536
51
0.1310739
0
ARC
8
DEFAULT_255_2_778
10
65.6518677
20
131.3826583
40
0.6902742
50
358.9037602
51
20.4550159
0
ARC
8
DEFAULT_255_2_778
10
65.8495818
20
131.4488127
40
0.4819599
50
21.3005619
51
37.9721299
0
ARC
8
DEFAULT_255_2_778
10
65.9417256
20
131.5286611
40
0.3602473
50
36.9778529
51
91.6877125
0
LINE
8
DEFAULT_255_2_778
10
66.2562156
20
132.9058521
11
66.3073156
21
132.9058521
0
LINE
8
DEFAULT_255_2_778
10
66.3073156
20
132.9058521
11
66.3073156
21
132.6624521
0
LINE
8
DEFAULT_255_2_778
10
66.3073156
20
132.6624521
11
66.2547156
21
132.6624521
0
LINE
8
DEFAULT_255_2_778
10
65.1987156
20
131.5059521
11
65.1987156
21
131.6160521
0
LINE
8
DEFAULT_255_2_778
10
66.2560156
20
132.9058521
11
66.2562156
21
132.9058521
0
LINE
8
DEFAULT_255_2_778
10
65.4876156
20
131.5787521
11
65.4876156
21
131.4733521
0
LINE
8
DEFAULT_255_2_778
10
65.9311156
20
131.8887521
11
65.9308156
21
131.8887521
0
LINE
8
DEFAULT_255_2_778
10
68.1758156
20
132.9042802
11
68.1758156
21
131.4051802
0
LINE
8
DEFAULT_255_2_778
10
68.1758156
20
131.4051802
11
68.4891156
21
131.4051802
0
LINE
8
DEFAULT_255_2_778
10
68.4891156
20
131.4051802
11
68.4891156
21
131.1709802
0
LINE
8
DEFAULT_255_2_778
10
68.4891156
20
131.1709802
11
68.1758156
21
131.1709802
0
LINE
8
DEFAULT_255_2_778
10
68.1758156
20
131.1709802
11
68.1758156
21
130.6470802
0
LINE
8
DEFAULT_255_2_778
10
68.1758156
20
130.6470802
11
67.8874156
21
130.6470802
0
LINE
8
DEFAULT_255_2_778
10
67.8874156
20
130.6470802
11
67.8874156
21
131.1709802
0
LINE
8
DEFAULT_255_2_778
10
67.8874156
20
131.1709802
11
66.8595156
21
131.1709802
0
LINE
8
DEFAULT_255_2_778
10
66.8595156
20
131.1709802
11
66.8595156
21
131.3400802
0
LINE
8
DEFAULT_255_2_778
10
66.8595156
20
131.3400802
11
67.8702156
21
132.9042802
0
LINE
8
DEFAULT_255_2_778
10
67.8702156
20
132.9042802
11
68.1755156
21
132.9042802
0
LINE
8
DEFAULT_255_2_778
10
68.1755156
20
132.9042802
11
68.1758156
21
132.9042802
0
LINE
8
DEFAULT_255_2_778
10
67.8533156
20
132.4499802
11
67.1852156
21
131.4051802
0
LINE
8
DEFAULT_255_2_778
10
67.1852156
20
131.4051802
11
67.8874156
21
131.4051802
0
LINE
8
DEFAULT_255_2_778
10
67.8874156
20
131.4051802
11
67.8874156
21
132.5121802
0
LINE
8
DEFAULT_255_2_778
10
67.8874156
20
132.5121802
11
67.8533156
21
132.4502802
0
LINE
8
DEFAULT_255_2_778
10
67.8533156
20
132.4502802
11
67.8533156
21
132.4499802
0
LINE
8
DEFAULT_255_2_778
10
69.3738781
20
131.7229781
11
69.3738781
21
131.4887781
0
LINE
8
DEFAULT_255_2_778
10
69.3738781
20
131.4887781
11
68.6174781
21
131.4887781
0
LINE
8
DEFAULT_255_2_778
10
68.6174781
20
131.4887781
11
68.6174781
21
131.7229781
0
LINE
8
DEFAULT_255_2_778
10
68.6174781
20
131.7229781
11
69.3738781
21
131.7229781
0
LINE
8
DEFAULT_255_2_778
10
69.3738781
20
131.7229781
11
69.3738781
21
131.7229781
0
ARC
8
DEFAULT_255_2_778
10
70.4557982
20
131.6367593
40
1.2675823
50
77.7818649
51
90.5641368
0
ARC
8
DEFAULT_255_2_778
10
70.577225
20
132.1674939
40
0.7231991
50
53.1775116
51
78.2853358
0
ARC
8
DEFAULT_255_2_778
10
70.647685
20
132.2777089
40
0.5928218
50
49.8264035
51
52.2445074
0
ARC
8
DEFAULT_255_2_778
10
70.6547521
20
132.2953217
40
0.5748359
50
6.7581653
51
49.2321196
0
ARC
8
DEFAULT_255_2_778
10
70.3145097
20
132.2287702
40
0.9209144
50
359.7890862
51
8.3790975
0
ARC
8
DEFAULT_255_2_778
10
70.6278918
20
132.2124056
40
0.6076645
50
324.3083445
51
1.2234487
0
ARC
8
DEFAULT_255_2_778
10
70.5756764
20
132.2649283
40
0.6808243
50
289.6319589
51
323.2821122
0
ARC
8
DEFAULT_255_2_778
10
70.4664076
20
132.405221
40
0.6017876
50
268.7345795
51
292.3054942
0
ARC
8
DEFAULT_255_2_778
10
70.5272492
20
132.2371185
40
0.4232384
50
293.3226681
51
311.1614716
0
ARC
8
DEFAULT_255_2_778
10
70.5492297
20
132.2092869
40
0.3878221
50
311.4229836
51
2.3782622
0
ARC
8
DEFAULT_255_2_778
10
70.4618362
20
132.2388277
40
0.4750719
50
358.3779569
51
26.0800157
0
ARC
8
DEFAULT_255_2_778
10
70.5818936
20
132.2882315
40
0.3456216
50
27.473792
51
48.2986188
0
ARC
8
DEFAULT_255_2_778
10
70.5230124
20
132.2070967
40
0.4454817
50
49.5865228
51
81.6253547
0
ARC
8
DEFAULT_255_2_778
10
70.4508235
20
131.8543499
40
0.8052307
50
80.1990416
51
89.9506027
0
LINE
8
DEFAULT_255_2_778
10
71.0156177
20
130.6470802
11
70.5256177
21
131.5601802
0
LINE
8
DEFAULT_255_2_778
10
70.5256177
20
131.5601802
11
69.9953177
21
131.5601802
0
LINE
8
DEFAULT_255_2_778
10
69.9953177
20
131.5601802
11
69.9953177
21
130.6470802
0
LINE
8
DEFAULT_255_2_778
10
69.9953177
20
130.6470802
11
69.6961177
21
130.6470802
0
LINE
8
DEFAULT_255_2_778
10
69.6961177
20
130.6470802
11
69.6961177
21
132.9042802
0
LINE
8
DEFAULT_255_2_778
10
69.6961177
20
132.9042802
11
70.4433177
21
132.9042802
0
LINE
8
DEFAULT_255_2_778
10
70.8044177
20
131.6236802
11
71.3347177
21
130.6656802
0
LINE
8
DEFAULT_255_2_778
10
71.3347177
20
130.6656802
11
71.3347177
21
130.6470802
0
LINE
8
DEFAULT_255_2_778
10
71.3347177
20
130.6470802
11
71.0153177
21
130.6470802
0
LINE
8
DEFAULT_255_2_778
10
71.0153177
20
130.6470802
11
71.0156177
21
130.6470802
0
LINE
8
DEFAULT_255_2_778
10
69.9956177
20
132.6592802
11
69.9956177
21
131.8035802
0
LINE
8
DEFAULT_255_2_778
10
69.9956177
20
131.8035802
11
70.4531177
21
131.8035802
0
LINE
8
DEFAULT_255_2_778
10
70.4515177
20
132.6595802
11
69.9956177
21
132.6595802
0
LINE
8
DEFAULT_255_2_778
10
69.9956177
20
132.6595802
11
69.9956177
21
132.6592802
0
ARC
8
DEFAULT_255_2_778
10
72.4981568
20
131.8006705
40
1.1036831
50
75.2669715
51
90.6610697
0
ARC
8
DEFAULT_255_2_778
10
72.6026091
20
132.1915111
40
0.699131
50
48.4939195
51
75.3998379
0
ARC
8
DEFAULT_255_2_778
10
72.6393777
20
132.2426436
40
0.6365038
50
359.1891076
51
47.9223073
0
ARC
8
DEFAULT_255_2_778
10
72.3686051
20
132.2143482
40
0.9074176
50
359.9957048
51
1.2179314
0
ARC
8
DEFAULT_255_2_778
10
72.4999568
20
132.200873
40
0.776182
50
339.7619378
51
0.9897326
0
ARC
8
DEFAULT_255_2_778
10
72.7061477
20
132.1316871
40
0.5588245
50
310.7090002
51
339.1045783
0
ARC
8
DEFAULT_255_2_778
10
72.6241052
20
132.2417949
40
0.695866
50
282.6269601
51
309.9166101
0
ARC
8
DEFAULT_255_2_778
10
72.4976519
20
132.753218
40
1.2226178
50
269.7532324
51
283.1704203
0
ARC
8
DEFAULT_255_2_778
10
72.4822706
20
133.1599669
40
1.6293867
50
269.9983235
51
270.355709
0
ARC
8
DEFAULT_255_2_778
10
72.4981802
20
132.4783334
40
0.7041688
50
268.9619327
51
287.2950043
0
ARC
8
DEFAULT_255_2_778
10
72.5831116
20
132.1962455
40
0.409595
50
287.6826204
51
310.9060721
0
ARC
8
DEFAULT_255_2_778
10
72.5896042
20
132.1710212
40
0.3864538
50
312.6277045
51
356.9895143
0
ARC
8
DEFAULT_255_2_778
10
72.3375304
20
132.210555
40
0.6407935
50
354.6425806
51
0.0916681
0
ARC
8
DEFAULT_255_2_778
10
72.5386994
20
132.2271082
40
0.4398977
50
357.9770828
51
36.3796586
0
ARC
8
DEFAULT_255_2_778
10
72.5743964
20
132.2425341
40
0.4021036
50
37.6270605
51
46.4731641
0
ARC
8
DEFAULT_255_2_778
10
72.5368171
20
132.190426
40
0.4658455
50
47.5358371
51
84.7751997
0
ARC
8
DEFAULT_255_2_778
10
72.48822
20
131.9152366
40
0.7446828
50
82.9794811
51
88.8917744
0
LINE
8
DEFAULT_255_2_778
10
72.4825229
20
131.5307802
11
71.9507229
21
131.5307802
0
LINE
8
DEFAULT_255_2_778
10
71.9507229
20
131.5307802
11
71.9507229
21
130.6470802
0
LINE
8
DEFAULT_255_2_778
10
71.9507229
20
130.6470802
11
71.6530229
21
130.6470802
0
LINE
8
DEFAULT_255_2_778
10
71.6530229
20
130.6470802
11
71.6530229
21
132.9042802
0
LINE
8
DEFAULT_255_2_778
10
71.6530229
20
132.9042802
11
72.4854229
21
132.9042802
0
LINE
8
DEFAULT_255_2_778
10
72.4822229
20
131.5305802
11
72.4825229
21
131.5307802
0
LINE
8
DEFAULT_255_2_778
10
71.9507229
20
132.6595802
11
71.9507229
21
131.7742802
0
LINE
8
DEFAULT_255_2_778
10
71.9507229
20
131.7742802
11
72.4854229
21
131.7742802
0
LINE
8
DEFAULT_255_2_778
10
72.5026229
20
132.6597802
11
71.9507229
21
132.6597802
0
LINE
8
DEFAULT_255_2_778
10
71.9507229
20
132.6597802
11
71.9507229
21
132.6595802
0
LINE
8
DEFAULT_255_2_778
10
74.2077781
20
131.7229781
11
74.2077781
21
131.4887781
0
LINE
8
DEFAULT_255_2_778
10
74.2077781
20
131.4887781
11
73.4513781
21
131.4887781
0
LINE
8
DEFAULT_255_2_778
10
73.4513781
20
131.4887781
11
73.4513781
21
131.7229781
0
LINE
8
DEFAULT_255_2_778
10
73.4513781
20
131.7229781
11
74.2077781
21
131.7229781
0
LINE
8
DEFAULT_255_2_778
10
74.2077781
20
131.7229781
11
74.2077781
21
131.7229781
0
LINE
8
DEFAULT_255_2_778
10
75.9940188
20
130.6470802
11
75.7786188
21
131.2363802
0
LINE
8
DEFAULT_255_2_778
10
75.7786188
20
131.2363802
11
74.8330188
21
131.2363802
0
LINE
8
DEFAULT_255_2_778
10
74.8330188
20
131.2363802
11
74.6205188
21
130.6470802
0
LINE
8
DEFAULT_255_2_778
10
74.6205188
20
130.6470802
11
74.3136188
21
130.6470802
0
LINE
8
DEFAULT_255_2_778
10
74.3136188
20
130.6470802
11
75.1756188
21
132.9042802
0
LINE
8
DEFAULT_255_2_778
10
75.1756188
20
132.9042802
11
75.4360188
21
132.9042802
0
LINE
8
DEFAULT_255_2_778
10
75.4360188
20
132.9042802
11
76.2996188
21
130.6470802
0
LINE
8
DEFAULT_255_2_778
10
76.2996188
20
130.6470802
11
75.9942188
21
130.6470802
0
LINE
8
DEFAULT_255_2_778
10
75.9942188
20
130.6470802
11
75.9940188
21
130.6470802
0
LINE
8
DEFAULT_255_2_778
10
75.3055188
20
132.5370802
11
74.9227188
21
131.4813802
0
LINE
8
DEFAULT_255_2_778
10
74.9227188
20
131.4813802
11
75.6900188
21
131.4813802
0
LINE
8
DEFAULT_255_2_778
10
75.6900188
20
131.4813802
11
75.3055188
21
132.5370802
0
LINE
8
DEFAULT_255_2_778
10
75.3055188
20
132.5370802
11
75.3055188
21
132.5370802
0
ARC
8
DEFAULT_255_2_778
10
77.2444778
20
131.4670942
40
1.007555
50
335.8413335
51
354.0892149
0
ARC
8
DEFAULT_255_2_778
10
77.5043118
20
131.3553841
40
0.7247727
50
311.2698124
51
335.4923185
0
ARC
8
DEFAULT_255_2_778
10
77.4752777
20
131.404636
40
0.7810149
50
278.5929898
51
310.4874402
0
ARC
8
DEFAULT_255_2_778
10
77.396356
20
131.8006516
40
1.1845274
50
269.7397729
51
279.5055493
0
ARC
8
DEFAULT_255_2_778
10
77.3764344
20
131.4818051
40
0.8657908
50
245.3810885
51
270.9623722
0
ARC
8
DEFAULT_255_2_778
10
77.35516
20
131.4019795
40
0.7844823
50
219.50482
51
244.3648646
0
ARC
8
DEFAULT_255_2_778
10
77.5164923
20
131.5346225
40
0.9933417
50
192.2178598
51
219.4882666
0
ARC
8
DEFAULT_255_2_778
10
78.0353814
20
131.6576819
40
1.5265568
50
179.528791
51
192.6104535
0
ARC
8
DEFAULT_255_2_778
10
77.9232845
20
131.9004445
40
1.4144701
50
164.9575851
51
180.5350272
0
ARC
8
DEFAULT_255_2_778
10
77.6149624
20
131.9751526
40
1.0973519
50
154.8949324
51
164.5465627
0
ARC
8
DEFAULT_255_2_778
10
77.3890283
20
132.0954448
40
0.8418252
50
122.2453357
51
155.7844753
0
ARC
8
DEFAULT_255_2_778
10
77.3963542
20
132.0547651
40
0.8802763
50
89.9993028
51
121.2358656
0
ARC
8
DEFAULT_255_2_778
10
77.4174377
20
131.7965244
40
1.138712
50
89.9980684
51
91.0603638
0
ARC
8
DEFAULT_255_2_778
10
77.4305698
20
131.9467629
40
0.9885603
50
72.2236851
51
90.7589176
0
ARC
8
DEFAULT_255_2_778
10
77.5094694
20
132.2082785
40
0.7154577
50
47.3422504
51
71.846611
0
ARC
8
DEFAULT_255_2_778
10
77.4582555
20
132.1670327
40
0.7805543
50
12.5404568
51
46.6291466
0
ARC
8
DEFAULT_255_2_778
10
77.1081396
20
132.067406
40
1.1441463
50
5.5739036
51
13.6036405
0
ARC
8
DEFAULT_255_2_778
10
77.0137674
20
132.0576321
40
0.9417024
50
7.3765179
51
21.1916211
0
ARC
8
DEFAULT_255_2_778
10
77.4504827
20
132.2309618
40
0.4718774
50
20.7373642
51
45.8140656
0
ARC
8
DEFAULT_255_2_778
10
77.4740395
20
132.2280535
40
0.457935
50
48.1818641
51
84.139596
0
ARC
8
DEFAULT_255_2_778
10
77.4200443
20
131.9231829
40
0.7670579
50
82.4524178
51
90.1918363
0
ARC
8
DEFAULT_255_2_778
10
77.3950966
20
132.1581111
40
0.5325957
50
87.5917447
51
142.9054857
0
ARC
8
DEFAULT_255_2_778
10
77.5608552
20
132.0411431
40
0.7353891
50
143.4256056
51
167.1267571
0
ARC
8
DEFAULT_255_2_778
10
78.1115551
20
131.9043156
40
1.3027757
50
166.6563792
51
179.1234897
0
ARC
8
DEFAULT_255_2_778
10
78.6073092
20
131.8795293
40
1.7989331
50
178.5756747
51
180.0093285
0
ARC
8
DEFAULT_255_2_778
10
78.1515298
20
131.6478953
40
1.3432151
50
179.4522452
51
192.233358
0
ARC
8
DEFAULT_255_2_778
10
77.6191938
20
131.5279424
40
0.7975619
50
191.9150825
51
214.4966869
0
ARC
8
DEFAULT_255_2_778
10
77.3722295
20
131.3551243
40
0.4961536
50
214.2011427
51
272.2000368
0
ARC
8
DEFAULT_255_2_778
10
77.4039831
20
131.6266446
40
0.7674134
50
269.0512363
51
286.0704694
0
ARC
8
DEFAULT_255_2_778
10
77.4950773
20
131.3051834
40
0.4333002
50
286.2625085
51
309.6863394
0
ARC
8
DEFAULT_255_2_778
10
77.4762864
20
131.3008799
40
0.442323
50
311.9160172
51
339.2984939
0
ARC
8
DEFAULT_255_2_778
10
77.0010961
20
131.4953052
40
0.9556626
50
338.4655427
51
351.5681787
0
ARC
8
DEFAULT_255_2_778
10
76.5888407
20
131.5745217
40
1.3751944
50
350.8219496
51
351.1536198
0
LINE
8
DEFAULT_255_2_778
10
77.9473761
20
131.3633364
11
78.2466761
21
131.3633364
0
LINE
8
DEFAULT_255_2_778
10
76.5088761
20
131.6702364
11
76.5088761
21
131.8872364
0
LINE
8
DEFAULT_255_2_778
10
78.2468761
20
132.1785364
11
77.9476761
21
132.1785364
0
LINE
8
DEFAULT_255_2_778
10
76.8083761
20
131.8792364
11
76.8083761
21
131.6607364
0
LINE
8
DEFAULT_255_2_778
10
77.9476761
20
131.3630364
11
77.9473761
21
131.3633364
0
ENDSEC
0
EOF