0
SECTION
2
HEADER
9
$MEASUREMENT
70
1
0
ENDSEC
0
SECTION
2
TABLES
0
TABLE
2
LTYPE
0
LTYPE
72
65
70
64
2
CONTINUOUS
3
______
73
0
40
0
0
ENDTAB
0
TABLE
2
LAYER
0
LAYER
2
DEFAULT_255_2_778
70
0
62
255
6
CONTINUOUS
0
ENDTAB
0
ENDSEC
0
SECTION
2
ENTITIES
0
ARC
8
DEFAULT_255_2_778
10
81.0520032
20
133.3192735
40
1.4477827
50
77.242504
51
90.4993097
0
ARC
8
DEFAULT_255_2_778
10
81.1934824
20
133.8699028
40
0.8796571
50
26.7666966
51
78.3103641
0
ARC
8
DEFAULT_255_2_778
10
80.8136793
20
133.6721777
40
1.3078222
50
12.42754
51
27.007251
0
ARC
8
DEFAULT_255_2_778
10
80.0714406
20
133.5022796
40
2.0692416
50
3.1147884
51
12.5987675
0
ARC
8
DEFAULT_255_2_778
10
79.2656348
20
133.4441083
40
2.8770532
50
359.9421062
51
3.3995831
0
ARC
8
DEFAULT_255_2_778
10
80.2088876
20
0.9692076
40
1.9338412
50
350.0760889
51
0.3790523
0
ARC
8
DEFAULT_255_2_778
10
80.9149745
20
0.8407594
40
1.2161921
50
333.4566989
51
350.3040674
0
ARC
8
DEFAULT_255_2_778
10
81.1965216
20
0.7088315
40
0.9053992
50
286.6513468
51
332.9634818
0
ARC
8
DEFAULT_255_2_778
10
80.9989738
20
1.2696446
40
1.4995742
50
274.5675495
51
287.7428096
0
ARC
8
DEFAULT_255_2_778
10
80.93285
20
1.9130183
40
2.1462205
50
269.8995315
51
274.9594285
0
LINE
8
DEFAULT_255_2_778
10
80.9290866
20
-0.2331988
11
1.1566866
21
-0.2331988
0
ARC
8
DEFAULT_255_2_778
10
1.1436125
20
1.0237038
40
1.2569706
50
255.7908805
51
270.5959563
0
ARC
8
DEFAULT_255_2_778
10
1.0240547
20
0.5789753
40
0.7965293
50
202.8271069
51
256.2754421
0
ARC
8
DEFAULT_255_2_778
10
1.498798
20
0.8028387
40
1.3211244
50
189.8745999
51
203.7879011
0
ARC
8
DEFAULT_255_2_778
10
2.2987275
20
0.9499992
40
2.1344545
50
181.351092
51
190.083939
0
ARC
8
DEFAULT_255_2_778
10
2.9880668
20
0.9813016
40
2.8243804
50
179.9858064
51
181.6561947
0
LINE
8
DEFAULT_255_2_778
10
0.1636866
20
0.9820012
11
0.1636866
21
133.9383012
0
ARC
8
DEFAULT_255_2_778
10
1.3383835
20
133.9511559
40
1.1747673
50
166.5111581
51
180.6269614
0
ARC
8
DEFAULT_255_2_778
10
0.8552808
20
134.0749542
40
0.6761579
50
135.3635266
51
167.163378
0
ARC
8
DEFAULT_255_2_778
10
0.8591808
20
134.0414955
40
0.7027573
50
105.3058859
51
133.6455574
0
ARC
8
DEFAULT_255_2_778
10
1.006775
20
133.5481396
40
1.2176353
50
92.3852156
51
105.8765288
0
ARC
8
DEFAULT_255_2_778
10
1.0451205
20
133.0293533
40
1.7376484
50
89.9615504
51
92.9365829
0
LINE
8
DEFAULT_255_2_778
10
1.0462866
20
134.7670012
11
81.0393866
21
134.7670012
0
LINE
8
DEFAULT_255_2_778
10
82.1426866
20
133.4412012
11
82.1426866
21
0.9820012
0
LINE
8
DEFAULT_255_2_778
10
1.0462866
20
134.7670012
11
1.0462866
21
134.7670012
0
LINE
8
DEFAULT_255_2_778
10
0.1427355
20
128.6786
11
82.1426355
21
128.6786
0
LINE
8
DEFAULT_255_2_778
10
9.4032084
20
126.8294341
11
16.0178084
21
126.8294341
0
LINE
8
DEFAULT_255_2_778
10
16.0178084
20
126.8294341
11
16.0178084
21
112.9295341
0
LINE
8
DEFAULT_255_2_778
10
16.0178084
20
112.9295341
11
12.7105084
21
112.9295341
0
LINE
8
DEFAULT_255_2_778
10
12.7105084
20
112.9295341
11
12.7105084
21
108.2961341
0
LINE
8
DEFAULT_255_2_778
10
12.7105084
20
108.2961341
11
9.4032084
21
108.2961341
0
LINE
8
DEFAULT_255_2_778
10
9.4032084
20
108.2961341
11
9.4032084
21
126.8294341
0
ARC
8
DEFAULT_255_2_778
10
7.9530282
20
88.0360889
40
14.9564958
50
21.8112493
51
27.0786568
0
ARC
8
DEFAULT_255_2_778
10
6.291625
20
87.3679912
40
16.747196
50
17.5748002
51
21.8214305
0
ARC
8
DEFAULT_255_2_778
10
4.3230513
20
86.7437801
40
18.8123646
50
13.7637032
51
17.5768196
0
ARC
8
DEFAULT_255_2_778
10
2.1165721
20
86.1992893
40
21.0850298
50
10.7494187
51
13.7742857
0
ARC
8
DEFAULT_255_2_778
10
-0.400359
20
85.7230236
40
23.6466249
50
7.7098929
51
10.7456999
0
ARC
8
DEFAULT_255_2_778
10
-3.356542
20
85.3205546
40
26.6300784
50
5.0854444
51
7.7147064
0
ARC
8
DEFAULT_255_2_778
10
-6.5788815
20
85.0322367
40
29.8652904
50
2.743999
51
5.0884196
0
ARC
8
DEFAULT_255_2_778
10
-10.0895157
20
84.8624729
40
33.3800265
50
0.6475304
51
2.7465783
0
ARC
8
DEFAULT_255_2_778
10
-12.6164762
20
84.8233328
40
35.9072696
50
359.9980108
51
0.664412
0
ARC
8
DEFAULT_255_2_778
10
-13.6416146
20
84.8224857
40
36.932408
50
359.6495112
51
359.9993802
0
ARC
8
DEFAULT_255_2_778
10
-14.3673759
20
84.8269881
40
37.6581832
50
359.3040566
51
359.6494157
0
ARC
8
DEFAULT_255_2_778
10
-4.8447104
20
84.638185
40
28.134022
50
354.1733635
51
359.4529779
0
ARC
8
DEFAULT_255_2_778
10
-3.2893481
20
84.4635033
40
26.5689666
50
337.7273585
51
354.2076102
0
ARC
8
DEFAULT_255_2_778
10
31.9825157
20
88.0352209
40
15.5225855
50
154.3898688
51
159.2377422
0
ARC
8
DEFAULT_255_2_778
10
33.7162924
20
87.3754424
40
17.3776554
50
159.2300807
51
163.260401
0
ARC
8
DEFAULT_255_2_778
10
35.7862529
20
86.7526177
40
19.5392862
50
163.2597073
51
166.9549333
0
ARC
8
DEFAULT_255_2_778
10
38.0790801
20
86.216714
40
21.8939051
50
166.9430453
51
169.7988619
0
ARC
8
DEFAULT_255_2_778
10
40.634184
20
85.7583816
40
24.4897909
50
169.802214
51
172.6733451
0
ARC
8
DEFAULT_255_2_778
10
43.6102887
20
85.3735739
40
27.4906694
50
172.6688954
51
175.1608981
0
ARC
8
DEFAULT_255_2_778
10
46.9522355
20
85.0907925
40
30.8445587
50
175.1611696
51
177.5412101
0
ARC
8
DEFAULT_255_2_778
10
50.4891819
20
84.9345509
40
34.3849519
50
177.5339452
51
179.4155824
0
ARC
8
DEFAULT_255_2_778
10
52.8582411
20
84.9014836
40
36.7542263
50
179.4017059
51
180.0016282
0
ARC
8
DEFAULT_255_2_778
10
53.9058197
20
84.9009671
40
37.8018047
50
180.0008002
51
180.4016035
0
ARC
8
DEFAULT_255_2_778
10
54.7700295
20
84.9070772
40
38.6660361
50
180.4016812
51
180.7964891
0
ARC
8
DEFAULT_255_2_778
10
46.1028796
20
84.6381816
40
29.9963528
50
180.5130527
51
185.4637445
0
ARC
8
DEFAULT_255_2_778
10
44.5315341
20
84.4845008
40
28.417514
50
185.4569587
51
192.6756395
0
ARC
8
DEFAULT_255_2_778
10
43.9904519
20
84.3744808
40
27.8654795
50
192.6990628
51
200.9887723
0
LINE
8
DEFAULT_255_2_778
10
17.9851667
20
97.3384788
11
21.2702667
21
97.3384788
0
LINE
8
DEFAULT_255_2_778
10
21.2702667
20
97.3384788
11
21.2702667
21
71.8992788
0
LINE
8
DEFAULT_255_2_778
10
21.2702667
20
71.8992788
11
17.9851667
21
71.8992788
0
LINE
8
DEFAULT_255_2_778
10
17.9851667
20
71.8992788
11
17.9851667
21
97.3384788
0
ARC
8
DEFAULT_255_2_778
10
35.8653937
20
99.5361591
40
2.1579289
50
80.6790401
51
90.3424161
0
ARC
8
DEFAULT_255_2_778
10
35.9959047
20
100.3032964
40
1.3797899
50
65.6415595
51
80.8675043
0
ARC
8
DEFAULT_255_2_778
10
36.159687
20
100.6696627
40
0.9784873
50
15.7672879
51
65.5301498
0
ARC
8
DEFAULT_255_2_778
10
35.5503928
20
100.4618219
40
1.6216985
50
4.2975222
51
16.9847507
0
ARC
8
DEFAULT_255_2_778
10
34.8934109
20
100.3976552
40
2.2816892
50
359.9119681
51
4.6680382
0
LINE
8
DEFAULT_255_2_778
10
37.1750974
20
100.3941495
11
37.1750974
21
67.2434495
0
ARC
8
DEFAULT_255_2_778
10
33.0628711
20
67.2314474
40
4.1122438
50
355.4266802
51
0.167225
0
ARC
8
DEFAULT_255_2_778
10
34.622794
20
67.1024822
40
2.5470078
50
348.6658019
51
355.5205873
0
ARC
8
DEFAULT_255_2_778
10
35.6747452
20
66.887305
40
1.4732894
50
338.4181095
51
348.8306652
0
ARC
8
DEFAULT_255_2_778
10
36.2971876
20
66.6352333
40
0.8017836
50
320.4729231
51
338.8073049
0
ARC
8
DEFAULT_255_2_778
10
36.5285903
20
66.4465468
40
0.5032118
50
268.3268242
51
320.2752422
0
LINE
8
DEFAULT_255_2_778
10
36.5138974
20
65.9435495
11
0.1426974
21
65.9435495
0
LINE
8
DEFAULT_255_2_778
10
0.1426974
20
101.6940495
11
35.8524974
21
101.6940495
0
LINE
8
DEFAULT_255_2_778
10
29.2395084
20
93.7375497
11
37.1749084
21
93.7375497
0
LINE
8
DEFAULT_255_2_778
10
37.1749084
20
93.7375497
11
37.1749084
21
75.2082497
0
LINE
8
DEFAULT_255_2_778
10
37.1749084
20
75.2082497
11
29.2395084
21
75.2082497
0
LINE
8
DEFAULT_255_2_778
10
29.2395084
20
75.2082497
11
29.2395084
21
93.7375497
0
LINE
8
DEFAULT_255_2_778
10
35.191
20
93.7375497
11
35.191
21
75.2082497
0
LINE
8
DEFAULT_255_2_778
10
0.1427355
20
104.3259
11
82.1426355
21
104.3259
0
LINE
8
DEFAULT_255_2_778
10
63.6427169
20
104.3258249
11
63.6427169
21
2.4142249
0
LINE
8
DEFAULT_255_2_778
10
63.6427169
20
2.4142249
11
76.8719169
21
2.4142249
0
LINE
8
DEFAULT_255_2_778
10
76.8719169
20
2.4142249
11
76.8719169
21
104.3258249
0
LINE
8
DEFAULT_255_2_778
10
63.6427169
20
58.0024
11
76.8719169
21
58.0024
0
LINE
8
DEFAULT_255_2_778
10
0.1427432
20
36.8258995
11
31.8848432
21
36.8258995
0
ARC
8
DEFAULT_255_2_778
10
31.8977521
20
34.7062177
40
2.1197211
50
80.4947577
51
90.3489292
0
ARC
8
DEFAULT_255_2_778
10
32.0274009
20
35.4541882
40
1.3606168
50
65.2025593
51
80.6779606
0
ARC
8
DEFAULT_255_2_778
10
32.1806403
20
35.7951902
40
0.9867938
50
16.4543553
51
64.9755336
0
ARC
8
DEFAULT_255_2_778
10
31.575308
20
35.5812162
40
1.6282936
50
4.9603483
51
17.6420079
0
ARC
8
DEFAULT_255_2_778
10
30.881398
20
35.5071493
40
2.3260499
50
359.8854639
51
5.3000206
0
LINE
8
DEFAULT_255_2_778
10
33.2074432
20
35.5024995
11
33.2074432
21
10.3553995
0
ARC
8
DEFAULT_255_2_778
10
32.2381564
20
10.3430063
40
0.969366
50
345.8288498
51
0.7325365
0
ARC
8
DEFAULT_255_2_778
10
32.6858882
20
10.2162234
40
0.504396
50
285.0203831
51
347.3411019
0
ARC
8
DEFAULT_255_2_778
10
32.5644476
20
10.6140462
40
0.920209
50
270.0475599
51
285.9039812
0
ARC
8
DEFAULT_255_2_778
10
32.5462979
20
10.9879722
40
1.2942728
50
269.9975782
51
270.8373069
0
LINE
8
DEFAULT_255_2_778
10
32.5462432
20
9.6936995
11
31.2236432
21
9.6936995
0
ARC
8
DEFAULT_255_2_778
10
32.4627563
20
-0.3062353
40
10.0764129
50
97.0636362
51
101.6658305
0
ARC
8
DEFAULT_255_2_778
10
32.1328454
20
1.2790749
40
8.4571409
50
101.6486144
51
107.3709385
0
ARC
8
DEFAULT_255_2_778
10
31.7261645
20
2.5707151
40
7.1029932
50
107.3507312
51
114.6336629
0
ARC
8
DEFAULT_255_2_778
10
31.2790644
20
3.5377825
40
6.0375803
50
114.6021377
51
124.8754663
0
ARC
8
DEFAULT_255_2_778
10
30.9781788
20
3.9851864
40
5.4984942
50
124.9690153
51
150.444681
0
ARC
8
DEFAULT_255_2_778
10
31.8266979
20
3.4819282
40
6.4848714
50
150.2747733
51
158.9325822
0
ARC
8
DEFAULT_255_2_778
10
32.9673296
20
3.0394254
40
7.7083265
50
158.9109781
51
165.552607
0
ARC
8
DEFAULT_255_2_778
10
34.4430417
20
2.6557819
40
9.2330885
50
165.5319136
51
170.7780262
0
ARC
8
DEFAULT_255_2_778
10
35.7447508
20
2.4327916
40
10.5537155
50
170.7156115
51
172.896427
0
LINE
8
DEFAULT_255_2_778
10
25.2720432
20
3.7378995
11
25.2720432
21
-0.2327005
0
ARC
8
DEFAULT_255_2_778
10
12.0771893
20
28.8903322
40
3.9990575
50
164.958672
51
180.0541499
0
ARC
8
DEFAULT_255_2_778
10
12.0288678
20
28.8999915
40
3.9498864
50
139.5324886
51
164.9120823
0
ARC
8
DEFAULT_255_2_778
10
12.0374955
20
28.8967896
40
3.9585294
50
107.8307628
51
139.5782791
0
ARC
8
DEFAULT_255_2_778
10
12.0403365
20
28.8742182
40
3.9808888
50
91.6628438
51
107.7702122
0
ARC
8
DEFAULT_255_2_778
10
12.0467562
20
28.7744714
40
4.0807814
50
89.9989151
51
91.7123026
0
ARC
8
DEFAULT_255_2_778
10
16.67772
20
28.8559897
40
3.9992648
50
74.9590633
51
90.054247
0
ARC
8
DEFAULT_255_2_778
10
16.6874616
20
28.9046017
40
3.9497916
50
49.5322378
51
74.9125368
0
ARC
8
DEFAULT_255_2_778
10
16.6842424
20
28.8959776
40
3.9584431
50
17.8298442
51
49.5778054
0
ARC
8
DEFAULT_255_2_778
10
16.6614559
20
28.8930563
40
3.9810317
50
1.6626901
51
17.7694544
0
ARC
8
DEFAULT_255_2_778
10
16.5609562
20
28.8866233
40
4.0816773
50
359.9990093
51
1.7120206
0
ARC
8
DEFAULT_255_2_778
10
16.6434095
20
6.3790694
40
3.9992258
50
344.9593759
51
0.0542026
0
ARC
8
DEFAULT_255_2_778
10
16.6919218
20
6.369354
40
3.9498555
50
319.5332507
51
344.9128622
0
ARC
8
DEFAULT_255_2_778
10
16.6833798
20
6.3724986
40
3.9583963
50
287.8303112
51
319.5788661
0
ARC
8
DEFAULT_255_2_778
10
16.6804755
20
6.3952088
40
3.9809071
50
271.6979841
51
287.7700197
0
ARC
8
DEFAULT_255_2_778
10
16.6740096
20
6.4956072
40
4.0814544
50
269.998932
51
271.7469511
0
ARC
8
DEFAULT_255_2_778
10
12.043054
20
6.4132084
40
3.9990575
50
254.958672
51
270.0541499
0
ARC
8
DEFAULT_255_2_778
10
12.0333947
20
6.364887
40
3.9498864
50
229.5324886
51
254.9120823
0
ARC
8
DEFAULT_255_2_778
10
12.0365966
20
6.3735147
40
3.9585294
50
197.8307628
51
229.5782791
0
ARC
8
DEFAULT_255_2_778
10
12.059168
20
6.3763557
40
3.9808888
50
181.6628438
51
197.7702122
0
ARC
8
DEFAULT_255_2_778
10
12.1589148
20
6.3827754
40
4.0807814
50
179.9989151
51
181.7123026
0
LINE
8
DEFAULT_255_2_778
10
12.0468335
20
32.8552527
11
16.6739335
21
32.8552527
0
LINE
8
DEFAULT_255_2_778
10
20.6426335
20
28.8865527
11
20.6426335
21
6.3828527
0
LINE
8
DEFAULT_255_2_778
10
16.6739335
20
2.4141527
11
12.0468335
21
2.4141527
0
LINE
8
DEFAULT_255_2_778
10
8.0781335
20
6.3828527
11
8.0781335
21
28.8865527
0
ARC
8
DEFAULT_255_2_778
10
26.5241022
20
-30.843292
40
56.9753909
50
104.5280668
51
105.2721365
0
ARC
8
DEFAULT_255_2_778
10
24.724687
20
-23.8770283
40
49.7804836
50
103.4659659
51
104.534556
0
ARC
8
DEFAULT_255_2_778
10
22.9747725
20
-16.558251
40
42.2554126
50
102.218417
51
103.4693565
0
ARC
8
DEFAULT_255_2_778
10
21.5460615
20
-9.9560774
40
35.5004212
50
100.8460931
51
102.2199169
0
ARC
8
DEFAULT_255_2_778
10
20.4263268
20
-4.0999084
40
29.5381636
50
99.2488921
51
100.8504226
0
ARC
8
DEFAULT_255_2_778
10
19.5841392
20
1.0807243
40
24.2895227
50
97.4427563
51
99.2522195
0
ARC
8
DEFAULT_255_2_778
10
19.2275041
20
3.7230087
40
21.6233061
50
97.1333042
51
97.4126543
0
ARC
8
DEFAULT_255_2_778
10
16.553916
20
21.2495803
40
3.9293855
50
84.7375319
51
90.1685099
0
ARC
8
DEFAULT_255_2_778
10
16.6808253
20
22.5803214
40
2.5926172
50
76.9928952
51
84.8330258
0
ARC
8
DEFAULT_255_2_778
10
16.9002561
20
23.5118888
40
1.6355693
50
65.4401354
51
77.1376111
0
ARC
8
DEFAULT_255_2_778
10
17.1605597
20
24.0686508
40
1.0209994
50
45.0883269
51
65.7397272
0
ARC
8
DEFAULT_255_2_778
10
17.2622354
20
24.1929069
40
0.8613606
50
6.8238201
51
44.042579
0
ARC
8
DEFAULT_255_2_778
10
16.8822038
20
24.123592
40
1.2471606
50
359.8372192
51
7.9112954
0
LINE
8
DEFAULT_255_2_778
10
18.1293595
20
24.1200488
11
18.1293595
21
11.9436488
0
ARC
8
DEFAULT_255_2_778
10
15.4553221
20
11.9316931
40
2.6740641
50
352.8230918
51
0.2561687
0
ARC
8
DEFAULT_255_2_778
10
16.4248751
20
11.8049877
40
1.6962838
50
341.6755754
51
352.9778963
0
ARC
8
DEFAULT_255_2_778
10
17.0334317
20
11.5980111
40
1.053526
50
322.5078474
51
341.9558045
0
ARC
8
DEFAULT_255_2_778
10
17.202204
20
11.4859233
40
0.8515049
50
281.2205064
51
321.5799638
0
ARC
8
DEFAULT_255_2_778
10
17.0816553
20
11.9792588
40
1.3590497
50
269.561721
51
282.1585215
0
ARC
8
DEFAULT_255_2_778
10
91.3544524
20
567.4295023
40
561.7424121
50
262.326709
51
262.4011145
0
ARC
8
DEFAULT_255_2_778
10
78.7759983
20
474.0893455
40
467.5585368
50
262.2381283
51
262.3270337
0
ARC
8
DEFAULT_255_2_778
10
67.1905061
20
389.1072552
40
381.7903651
50
262.1348554
51
262.2384261
0
ARC
8
DEFAULT_255_2_778
10
57.4684633
20
318.7216489
40
310.7365003
50
262.0306754
51
262.1346494
0
ARC
8
DEFAULT_255_2_778
10
49.9422755
20
264.9542136
40
256.4448748
50
261.9270602
51
262.0304586
0
ARC
8
DEFAULT_255_2_778
10
42.7637888
20
214.3871826
40
205.3708576
50
261.7713798
51
261.9287443
0
ARC
8
DEFAULT_255_2_778
10
35.6625886
20
165.2996152
40
155.7723061
50
261.5801211
51
261.7723054
0
ARC
8
DEFAULT_255_2_778
10
30.1439981
20
128.0052498
40
118.0718483
50
261.3904702
51
261.5792645
0
ARC
8
DEFAULT_255_2_778
10
25.6714698
20
98.4908212
40
88.2204666
50
261.1349687
51
261.3929548
0
ARC
8
DEFAULT_255_2_778
10
22.0283165
20
75.1268681
40
64.5741799
50
260.8694628
51
261.1341478
0
ARC
8
DEFAULT_255_2_778
10
19.256748
20
57.8917816
40
47.1176682
50
260.5447151
51
260.8713028
0
ARC
8
DEFAULT_255_2_778
10
11.5034566
20
12.3105053
40
0.8963494
50
252.0181681
51
270.8247995
0
ARC
8
DEFAULT_255_2_778
10
11.4364797
20
12.073312
40
0.6501347
50
202.1908784
51
251.1791607
0
ARC
8
DEFAULT_255_2_778
10
11.9150596
20
12.2992277
40
1.1789362
50
189.5732069
51
203.5724975
0
ARC
8
DEFAULT_255_2_778
10
12.729353
20
12.4444901
40
2.0060633
50
180.9818065
51
189.7964469
0
ARC
8
DEFAULT_255_2_778
10
13.4242036
20
12.4726822
40
2.7013441
50
179.9901038
51
181.3271465
0
LINE
8
DEFAULT_255_2_778
10
10.7228595
20
12.4731488
11
10.7228595
21
23.0614488
0
ARC
8
DEFAULT_255_2_778
10
11.9864762
20
23.0746335
40
1.2636855
50
163.883694
51
180.5978078
0
ARC
8
DEFAULT_255_2_778
10
11.6945773
20
23.1501355
40
0.9623372
50
118.7508202
51
163.3780407
0
ARC
8
DEFAULT_255_2_778
10
11.9877989
20
22.6760397
40
1.5193038
50
108.0772922
51
119.8457597
0
LINE
8
DEFAULT_255_2_778
10
11.5163595
20
24.1203488
11
11.5165595
21
24.1200488
0
ARC
8
DEFAULT_255_2_778
10
33.2180242
20
-9366.7888922
40
9378.5245785
50
89.9907203
51
90.0000659
0
ARC
8
DEFAULT_255_2_778
10
33.3539931
20
-8517.6441049
40
8529.3797803
50
89.981066
51
89.9907098
0
ARC
8
DEFAULT_255_2_778
10
33.6162912
20
-7723.3883542
40
7735.1239864
50
89.9710849
51
89.9810647
0
ARC
8
DEFAULT_255_2_778
10
33.9670015
20
-7028.9205841
40
7040.6561277
50
89.9607972
51
89.9710869
0
ARC
8
DEFAULT_255_2_778
10
34.3974439
20
-6397.8669278
40
6409.6023246
50
89.9501779
51
89.9607853
0
ARC
8
DEFAULT_255_2_778
10
34.8952459
20
-5823.1600589
40
5834.8952403
50
89.9392237
51
89.9501589
0
ARC
8
DEFAULT_255_2_778
10
35.4728327
20
-5277.884582
40
5289.6194575
50
89.9278946
51
89.9392149
0
ARC
8
DEFAULT_255_2_778
10
36.1013805
20
-4779.6507894
40
4791.3852683
50
89.9161843
51
89.9279129
0
ARC
8
DEFAULT_255_2_778
10
36.7178476
20
-4359.6187859
40
4371.3528124
50
89.9041461
51
89.9162107
0
ARC
8
DEFAULT_255_2_778
10
37.3637448
20
-3973.0009034
40
3984.7343903
50
89.8917121
51
89.9041331
0
ARC
8
DEFAULT_255_2_778
10
38.0668689
20
-3600.414782
40
3612.1476054
50
89.8788362
51
89.8916954
0
ARC
8
DEFAULT_255_2_778
10
38.7618953
20
-3271.8381041
40
3283.5701925
50
89.8655637
51
89.8788394
0
ARC
8
DEFAULT_255_2_778
10
39.634423
20
-2903.323366
40
2915.0544216
50
89.8448344
51
89.8657182
0
ARC
8
DEFAULT_255_2_778
10
40.7027217
20
-2509.2243428
40
2520.9539505
50
89.8229198
51
89.8448575
0
ARC
8
DEFAULT_255_2_778
10
41.7310299
20
-2176.628354
40
2188.3563721
50
89.7999713
51
89.8229295
0
ARC
8
DEFAULT_255_2_778
10
42.8394557
20
-1859.9585074
40
1871.6845856
50
89.7717239
51
89.8000594
0
ARC
8
DEFAULT_255_2_778
10
43.9971532
20
-1569.3511301
40
1581.0749024
50
89.7417437
51
89.7717189
0
ARC
8
DEFAULT_255_2_778
10
45.1744783
20
-1308.7347493
40
1320.4558624
50
89.7059013
51
89.7418569
0
ARC
8
DEFAULT_255_2_778
10
46.3527365
20
-1079.2371296
40
1090.955218
50
89.6669956
51
89.7059138
0
ARC
8
DEFAULT_255_2_778
10
47.4741207
20
-886.2812653
40
897.9960953
50
89.6254341
51
89.6669897
0
ARC
8
DEFAULT_255_2_778
10
48.5094254
20
-727.9400445
40
739.6514899
50
89.5811031
51
89.6254457
0
ARC
8
DEFAULT_255_2_778
10
49.464543
20
-597.389911
40
609.0978627
50
89.5338358
51
89.5811625
0
ARC
8
DEFAULT_255_2_778
10
50.3276541
20
-491.3195547
40
503.0239949
50
89.4834788
51
89.5338463
0
ARC
8
DEFAULT_255_2_778
10
51.132673
20
-402.0247246
40
413.7255362
50
89.4296559
51
89.4834795
0
ARC
8
DEFAULT_255_2_778
10
52.0256631
20
-313.0365494
40
324.7328809
50
89.3419673
51
89.4309153
0
ARC
8
DEFAULT_255_2_778
10
52.9797676
20
-229.9921117
40
241.6829624
50
89.2438841
51
89.3420409
0
ARC
8
DEFAULT_255_2_778
10
53.8871604
20
-161.610889
40
173.2957198
50
89.1067038
51
89.2455149
0
ARC
8
DEFAULT_255_2_778
10
54.7540614
20
-106.1250513
40
117.8031106
50
88.9384995
51
89.1075566
0
ARC
8
DEFAULT_255_2_778
10
55.4753695
20
-67.2130079
40
78.8843823
50
88.745424
51
88.938728
0
ARC
8
DEFAULT_255_2_778
10
56.045099
20
-41.2104976
40
52.875631
50
88.5249078
51
88.7457219
0
ARC
8
DEFAULT_255_2_778
10
56.5898965
20
-20.3070443
40
31.9650811
50
88.1310241
51
88.5365811
0
ARC
8
DEFAULT_255_2_778
10
57.1323568
20
-3.8644106
40
15.5135039
50
87.452
51
88.1528577
0
ARC
8
DEFAULT_255_2_778
10
57.564242
20
5.7266491
40
5.9127286
50
86.2232326
51
87.5011763
0
ARC
8
DEFAULT_255_2_778
10
57.8669799
20
10.2030158
40
1.4261605
50
83.0955861
51
86.5135074
0
ARC
8
DEFAULT_255_2_778
10
58.0375584
20
11.5446613
40
0.0741775
50
62.8216382
51
89.3319286
0
ARC
8
DEFAULT_255_2_778
10
58.0702088
20
11.6097499
40
0.0015244
50
1.3691346
51
36.1374581
0
ARC
8
DEFAULT_255_2_778
10
58.0845959
20
9.381182
40
2.2286414
50
81.0050896
51
90.330702
0
ARC
8
DEFAULT_255_2_778
10
58.2153143
20
10.1785283
40
1.4206704
50
66.6715865
51
81.18449
0
ARC
8
DEFAULT_255_2_778
10
58.4031358
20
10.6023265
40
0.9571515
50
16.718547
51
66.9495008
0
ARC
8
DEFAULT_255_2_778
10
57.864733
20
10.4156735
40
1.5266768
50
4.3276888
51
17.6148094
0
ARC
8
DEFAULT_255_2_778
10
57.2498992
20
10.3543457
40
2.144436
50
359.9129133
51
4.72198
0
LINE
8
DEFAULT_255_2_778
10
59.3943327
20
10.3510863
11
59.3943327
21
0.0312863
0
ARC
8
DEFAULT_255_2_778
10
29.3763327
20
3.8733201
40
1.9883815
50
156.4981207
51
180.0994542
0
ARC
8
DEFAULT_255_2_778
10
29.3677315
20
3.8752853
40
1.9797107
50
99.9309156
51
156.4510073
0
ARC
8
DEFAULT_255_2_778
10
29.3707924
20
3.8448332
40
2.0102356
50
89.9725853
51
99.8671642
0
ARC
8
DEFAULT_255_2_778
10
29.3751732
20
3.870245
40
1.9848267
50
66.4686189
51
90.0986943
0
ARC
8
DEFAULT_255_2_778
10
29.374826
20
3.8749863
40
1.9806196
50
10.2353149
51
66.4046512
0
ARC
8
DEFAULT_255_2_778
10
29.3421384
20
3.8708881
40
2.0135161
50
359.9709913
51
10.1847957
0
ARC
8
DEFAULT_255_2_778
10
29.3675496
20
3.8664235
40
1.9881076
50
336.4963514
51
0.0992885
0
ARC
8
DEFAULT_255_2_778
10
29.3758624
20
3.8646166
40
1.9797646
50
279.9289805
51
336.4483611
0
ARC
8
DEFAULT_255_2_778
10
29.3727164
20
3.8953477
40
2.0105791
50
269.9725806
51
279.8662866
0
ARC
8
DEFAULT_255_2_778
10
29.3683446
20
3.8693757
40
1.98461
50
246.4674604
51
270.0984374
0
ARC
8
DEFAULT_255_2_778
10
29.368766
20
3.8648304
40
1.980612
50
190.2034484
51
246.4037824
0
ARC
8
DEFAULT_255_2_778
10
29.4012441
20
3.8688555
40
2.0132901
50
179.9711658
51
190.1524547
0
LINE
8
DEFAULT_255_2_778
10
27.3879542
20
3.8698687
11
27.3879542
21
3.8698687
0
ARC
8
DEFAULT_255_2_778
10
14.4610718
20
130.7472652
40
1.5821203
50
35.3606968
51
61.6303006
0
ARC
8
DEFAULT_255_2_778
10
14.5873463
20
132.9701481
40
1.0399125
50
306.9758007
51
359.5771142
0
ARC
8
DEFAULT_255_2_778
10
14.5795435
20
132.9673769
40
1.0476984
50
359.7318097
51
30.4963559
0
ARC
8
DEFAULT_255_2_778
10
14.6586898
20
133.0207342
40
0.9524408
50
30.1468157
51
89.877247
0
ARC
8
DEFAULT_255_2_778
10
14.5337437
20
130.6922003
40
1.4856435
50
272.7541802
51
295.5642046
0
ARC
8
DEFAULT_255_2_778
10
14.5137491
20
130.692368
40
1.4945309
50
296.2529384
51
350.552115
0
ARC
8
DEFAULT_255_2_778
10
14.3597789
20
130.7376062
40
1.6539517
50
349.8817723
51
0.0369515
0
ARC
8
DEFAULT_255_2_778
10
13.506036
20
130.7383188
40
2.5076944
50
0.0080903
51
0.0404517
0
ARC
8
DEFAULT_255_2_778
10
14.3607614
20
130.7642164
40
1.6531445
50
359.1637537
51
22.4595127
0
ARC
8
DEFAULT_255_2_778
10
14.8560972
20
130.9436034
40
1.1270929
50
23.6518292
51
29.8019658
0
ARC
8
DEFAULT_255_2_778
10
10.7343438
20
130.7487269
40
1.5799924
50
35.3504608
51
61.6616564
0
ARC
8
DEFAULT_255_2_778
10
10.8588463
20
132.9701481
40
1.0399125
50
306.9758007
51
359.5771142
0
ARC
8
DEFAULT_255_2_778
10
10.8510435
20
132.9673769
40
1.0476984
50
359.7318097
51
30.4963559
0
ARC
8
DEFAULT_255_2_778
10
10.9301898
20
133.0207342
40
0.9524408
50
30.1468157
51
89.877247
0
ARC
8
DEFAULT_255_2_778
10
10.80549
20
130.6918486
40
1.4852948
50
272.7569011
51
295.567523
0
ARC
8
DEFAULT_255_2_778
10
10.7852627
20
130.6926412
40
1.4948466
50
296.2537995
51
350.5435126
0
ARC
8
DEFAULT_255_2_778
10
10.6322877
20
130.7376106
40
1.6532429
50
349.877232
51
0.0368133
0
ARC
8
DEFAULT_255_2_778
10
9.777836
20
130.7383188
40
2.5076944
50
0.0080903
51
0.0404517
0
ARC
8
DEFAULT_255_2_778
10
10.6305437
20
130.7641078
40
1.6551604
50
359.168532
51
22.4347351
0
ARC
8
DEFAULT_255_2_778
10
11.1262398
20
130.9434494
40
1.1287817
50
23.6228218
51
29.761889
0
LINE
8
DEFAULT_255_2_778
10
7.8389304
20
131.6628729
11
7.0518304
21
133.9728729
0
LINE
8
DEFAULT_255_2_778
10
7.0518304
20
133.9728729
11
6.4580304
21
133.9728729
0
LINE
8
DEFAULT_255_2_778
10
6.4580304
20
133.9728729
11
6.4580304
21
131.6628729
0
LINE
8
DEFAULT_255_2_778
10
6.4580304
20
131.6628729
11
7.8389304
21
131.6628729
0
LINE
8
DEFAULT_255_2_778
10
6.4580304
20
130.2189729
11
7.1899304
21
130.2189729
0
LINE
8
DEFAULT_255_2_778
10
7.1899304
20
130.2189729
11
7.5214304
21
129.2082729
0
LINE
8
DEFAULT_255_2_778
10
7.5214304
20
129.2082729
11
8.6676304
21
129.2082729
0
LINE
8
DEFAULT_255_2_778
10
8.6676304
20
129.2082729
11
7.8804304
21
131.5183729
0
LINE
8
DEFAULT_255_2_778
10
7.8804304
20
131.5183729
11
6.4580304
21
131.5183729
0
LINE
8
DEFAULT_255_2_778
10
6.4580304
20
131.5183729
11
6.4580304
21
130.2189729
0
LINE
8
DEFAULT_255_2_778
10
6.3199304
20
133.9728729
11
5.7262304
21
133.9728729
0
LINE
8
DEFAULT_255_2_778
10
5.7262304
20
133.9728729
11
4.9391304
21
131.6628729
0
LINE
8
DEFAULT_255_2_778
10
4.9391304
20
131.6628729
11
6.3199304
21
131.6628729
0
LINE
8
DEFAULT_255_2_778
10
6.3199304
20
131.6628729
11
6.3199304
21
133.9728729
0
LINE
8
DEFAULT_255_2_778
10
4.8975304
20
131.5183729
11
4.1104304
21
129.2082729
0
LINE
8
DEFAULT_255_2_778
10
4.1104304
20
129.2082729
11
5.2566304
21
129.2082729
0
LINE
8
DEFAULT_255_2_778
10
5.2566304
20
129.2082729
11
5.5881304
21
130.2189729
0
LINE
8
DEFAULT_255_2_778
10
5.5881304
20
130.2189729
11
6.3199304
21
130.2189729
0
LINE
8
DEFAULT_255_2_778
10
6.3199304
20
130.2189729
11
6.3199304
21
131.5183729
0
LINE
8
DEFAULT_255_2_778
10
6.3199304
20
131.5183729
11
4.8975304
21
131.5183729
0
LINE
8
DEFAULT_255_2_778
10
12.8099304
20
133.9728729
11
14.1908304
21
133.9728729
0
LINE
8
DEFAULT_255_2_778
10
14.1908304
20
133.9728729
11
14.1908304
21
131.6628729
0
LINE
8
DEFAULT_255_2_778
10
14.1908304
20
131.6628729
11
12.8099304
21
131.6628729
0
LINE
8
DEFAULT_255_2_778
10
12.8099304
20
131.6628729
11
12.8099304
21
133.9728729
0
LINE
8
DEFAULT_255_2_778
10
14.6607304
20
133.9731729
11
14.3291304
21
133.9731729
0
LINE
8
DEFAULT_255_2_778
10
14.3291304
20
133.9731729
11
14.3291304
21
131.6630729
0
LINE
8
DEFAULT_255_2_778
10
14.3291304
20
131.6630729
11
15.7515304
21
131.6630729
0
LINE
8
DEFAULT_255_2_778
10
15.7515304
20
131.6630729
11
15.7513304
21
131.6628729
0
LINE
8
DEFAULT_255_2_778
10
12.8099304
20
131.5183729
11
14.1908304
21
131.5183729
0
LINE
8
DEFAULT_255_2_778
10
14.1908304
20
131.5183729
11
14.1908304
21
129.2082729
0
LINE
8
DEFAULT_255_2_778
10
14.1908304
20
129.2082729
11
12.8099304
21
129.2082729
0
LINE
8
DEFAULT_255_2_778
10
12.8099304
20
129.2082729
11
12.8099304
21
131.5183729
0
LINE
8
DEFAULT_255_2_778
10
14.3289304
20
129.2082729
11
14.6051304
21
129.2082729
0
LINE
8
DEFAULT_255_2_778
10
15.8341304
20
131.5037729
11
14.3289304
21
131.5037729
0
LINE
8
DEFAULT_255_2_778
10
14.3289304
20
131.5037729
11
14.3289304
21
129.2080729
0
LINE
8
DEFAULT_255_2_778
10
14.3289304
20
129.2080729
11
14.3289304
21
129.2082729
0
LINE
8
DEFAULT_255_2_778
10
9.0817304
20
133.9728729
11
10.4625304
21
133.9728729
0
LINE
8
DEFAULT_255_2_778
10
10.4625304
20
133.9728729
11
10.4625304
21
131.6628729
0
LINE
8
DEFAULT_255_2_778
10
10.4625304
20
131.6628729
11
9.0817304
21
131.6628729
0
LINE
8
DEFAULT_255_2_778
10
9.0817304
20
131.6628729
11
9.0817304
21
133.9728729
0
LINE
8
DEFAULT_255_2_778
10
10.9322304
20
133.9731729
11
10.6006304
21
133.9731729
0
LINE
8
DEFAULT_255_2_778
10
10.6006304
20
133.9731729
11
10.6006304
21
131.6630729
0
LINE
8
DEFAULT_255_2_778
10
10.6006304
20
131.6630729
11
12.0230304
21
131.6630729
0
LINE
8
DEFAULT_255_2_778
10
12.0230304
20
131.6630729
11
12.0230304
21
131.6628729
0
LINE
8
DEFAULT_255_2_778
10
9.0817304
20
131.5183729
11
10.4625304
21
131.5183729
0
LINE
8
DEFAULT_255_2_778
10
10.4625304
20
131.5183729
11
10.4625304
21
129.2082729
0
LINE
8
DEFAULT_255_2_778
10
10.4625304
20
129.2082729
11
9.0817304
21
129.2082729
0
LINE
8
DEFAULT_255_2_778
10
9.0817304
20
129.2082729
11
9.0817304
21
131.5183729
0
LINE
8
DEFAULT_255_2_778
10
10.6006304
20
129.2082729
11
10.8769304
21
129.2082729
0
LINE
8
DEFAULT_255_2_778
10
12.1061304
20
131.5037729
11
10.6009304
21
131.5037729
0
LINE
8
DEFAULT_255_2_778
10
10.6009304
20
131.5037729
11
10.6009304
21
129.2080729
0
LINE
8
DEFAULT_255_2_778
10
10.6009304
20
129.2080729
11
10.6006304
21
129.2082729
0
LINE
8
DEFAULT_255_2_778
10
47.7677084
20
108.2964654
11
54.3823084
21
108.2964654
0
LINE
8
DEFAULT_255_2_778
10
54.3823084
20
108.2964654
11
54.3823084
21
127.3551654
0
LINE
8
DEFAULT_255_2_778
10
54.3823084
20
127.3551654
11
47.7677084
21
127.3551654
0
LINE
8
DEFAULT_255_2_778
10
47.7677084
20
127.3551654
11
47.7677084
21
108.2964654
0
LINE
8
DEFAULT_255_2_778
10
55.7052084
20
108.2964654
11
62.3198084
21
108.2964654
0
LINE
8
DEFAULT_255_2_778
10
62.3198084
20
108.2964654
11
62.3198084
21
127.3551654
0
LINE
8
DEFAULT_255_2_778
10
62.3198084
20
127.3551654
11
55.7052084
21
127.3551654
0
LINE
8
DEFAULT_255_2_778
10
55.7052084
20
127.3551654
11
55.7052084
21
108.2964654
0
LINE
8
DEFAULT_255_2_778
10
63.6427084
20
108.3086654
11
70.2573084
21
108.3086654
0
LINE
8
DEFAULT_255_2_778
10
70.2573084
20
108.3086654
11
70.2573084
21
127.3673654
0
LINE
8
DEFAULT_255_2_778
10
70.2573084
20
127.3673654
11
63.6427084
21
127.3673654
0
LINE
8
DEFAULT_255_2_778
10
63.6427084
20
127.3673654
11
63.6427084
21
108.3086654
0
LINE
8
DEFAULT_255_2_778
10
71.5802386
20
108.2964654
11
78.4395386
21
108.2964654
0
LINE
8
DEFAULT_255_2_778
10
78.4395386
20
108.2964654
11
78.4395386
21
127.3551654
0
LINE
8
DEFAULT_255_2_778
10
78.4395386
20
127.3551654
11
71.5802386
21
127.3551654
0
LINE
8
DEFAULT_255_2_778
10
71.5802386
20
127.3551654
11
71.5802386
21
108.2964654
0
ARC
8
DEFAULT_255_2_778
10
58.8829416
20
131.8004283
40
1.1039255
50
75.2685599
51
90.6618153
0
ARC
8
DEFAULT_255_2_778
10
58.9875791
20
132.1919473
40
0.6986703
50
48.4826374
51
75.4029696
0
ARC
8
DEFAULT_255_2_778
10
59.0241455
20
132.2426436
40
0.6365038
50
359.1891076
51
47.9223073
0
ARC
8
DEFAULT_255_2_778
10
58.7533729
20
132.2143482
40
0.9074176
50
359.9957048
51
1.2179314
0
ARC
8
DEFAULT_255_2_778
10
58.8843864
20
132.2008704
40
0.7765201
50
339.771343
51
0.9894955
0
ARC
8
DEFAULT_255_2_778
10
59.0909016
20
132.1315879
40
0.5588238
50
310.7244794
51
339.1154358
0
ARC
8
DEFAULT_255_2_778
10
59.0089729
20
132.2417949
40
0.695866
50
282.6269601
51
309.9166101
0
ARC
8
DEFAULT_255_2_778
10
58.8825197
20
132.753218
40
1.2226178
50
269.7532324
51
283.1704203
0
ARC
8
DEFAULT_255_2_778
10
58.8671383
20
133.1599669
40
1.6293867
50
269.9983235
51
270.355709
0
ARC
8
DEFAULT_255_2_778
10
58.8829606
20
132.4787594
40
0.7045949
50
268.961522
51
287.2897728
0
ARC
8
DEFAULT_255_2_778
10
58.9680065
20
132.1962305
40
0.4095657
50
287.6767058
51
310.9045738
0
ARC
8
DEFAULT_255_2_778
10
58.9749134
20
132.1710994
40
0.3862125
50
312.5716572
51
356.9760129
0
ARC
8
DEFAULT_255_2_778
10
58.723595
20
132.2105531
40
0.6397964
50
354.6343764
51
0.0919797
0
ARC
8
DEFAULT_255_2_778
10
58.9246772
20
132.2271738
40
0.4389905
50
357.9643304
51
36.6279167
0
ARC
8
DEFAULT_255_2_778
10
58.9591201
20
132.2419424
40
0.4026321
50
37.8656286
51
46.5162964
0
ARC
8
DEFAULT_255_2_778
10
58.9212339
20
132.1893505
40
0.4669436
50
47.5841203
51
84.7511462
0
ARC
8
DEFAULT_255_2_778
10
58.8729844
20
131.9161206
40
0.743799
50
82.9751596
51
88.8901962
0
LINE
8
DEFAULT_255_2_778
10
58.8670906
20
131.5307802
11
58.3352906
21
131.5307802
0
LINE
8
DEFAULT_255_2_778
10
58.3352906
20
131.5307802
11
58.3352906
21
130.6470802
0
LINE
8
DEFAULT_255_2_778
10
58.3352906
20
130.6470802
11
58.0375906
21
130.6470802
0
LINE
8
DEFAULT_255_2_778
10
58.0375906
20
130.6470802
11
58.0375906
21
132.9042802
0
LINE
8
DEFAULT_255_2_778
10
58.0375906
20
132.9042802
11
58.8701906
21
132.9042802
0
LINE
8
DEFAULT_255_2_778
10
58.8670906
20
131.5305802
11
58.8670906
21
131.5307802
0
LINE
8
DEFAULT_255_2_778
10
58.3352906
20
132.6595802
11
58.3352906
21
131.7742802
0
LINE
8
DEFAULT_255_2_778
10
58.3352906
20
131.7742802
11
58.8701906
21
131.7742802
0
LINE
8
DEFAULT_255_2_778
10
58.8873906
20
132.6597802
11
58.3354906
21
132.6597802
0
LINE
8
DEFAULT_255_2_778
10
58.3354906
20
132.6597802
11
58.3352906
21
132.6595802
0
LINE
8
DEFAULT_255_2_778
10
60.0404438
20
132.9042802
11
60.4248438
21
132.9042802
0
LINE
8
DEFAULT_255_2_778
10
60.4248438
20
132.9042802
11
61.1628438
21
131.0624802
0
LINE
8
DEFAULT_255_2_778
10
61.1628438
20
131.0624802
11
61.9007438
21
132.9042802
0
LINE
8
DEFAULT_255_2_778
10
61.9007438
20
132.9042802
11
62.2867438
21
132.9042802
0
LINE
8
DEFAULT_255_2_778
10
62.2867438
20
132.9042802
11
62.2867438
21
130.6470802
0
LINE
8
DEFAULT_255_2_778
10
62.2867438
20
130.6470802
11
61.9891438
21
130.6470802
0
LINE
8
DEFAULT_255_2_778
10
61.9891438
20
130.6470802
11
61.9891438
21
131.5260802
0
LINE
8
DEFAULT_255_2_778
10
61.9891438
20
131.5260802
11
62.0171438
21
132.4748802
0
LINE
8
DEFAULT_255_2_778
10
62.0171438
20
132.4748802
11
61.2760438
21
130.6470802
0
LINE
8
DEFAULT_255_2_778
10
61.2760438
20
130.6470802
11
61.0482438
21
130.6470802
0
LINE
8
DEFAULT_255_2_778
10
61.0482438
20
130.6470802
11
60.3087438
21
132.4703802
0
LINE
8
DEFAULT_255_2_778
10
60.3087438
20
132.4703802
11
60.3381438
21
131.5263802
0
LINE
8
DEFAULT_255_2_778
10
60.3381438
20
131.5263802
11
60.3381438
21
130.6473802
0
LINE
8
DEFAULT_255_2_778
10
60.3381438
20
130.6473802
11
60.0404438
21
130.6473802
0
LINE
8
DEFAULT_255_2_778
10
60.0404438
20
130.6473802
11
60.0404438
21
132.9042802
0
LINE
8
DEFAULT_255_2_778
10
60.0404438
20
132.9042802
11
60.0404438
21
132.9042802
0
ARC
8
DEFAULT_255_2_778
10
63.5243681
20
131.3926546
40
0.7288378
50
89.0421438
51
120.0088187
0
ARC
8
DEFAULT_255_2_778
10
63.5507115
20
131.42727
40
0.694265
50
64.7184524
51
91.1686157
0
ARC
8
DEFAULT_255_2_778
10
63.5879162
20
131.5312247
40
0.584477
50
41.3535397
51
63.6641554
0
ARC
8
DEFAULT_255_2_778
10
63.4899146
20
131.4524938
40
0.7100818
50
8.8936413
51
40.8975703
0
ARC
8
DEFAULT_255_2_778
10
63.0964812
20
131.3720064
40
1.1113855
50
359.7053303
51
9.8574597
0
ARC
8
DEFAULT_255_2_778
10
63.2329943
20
131.353229
40
0.9749453
50
343.2258529
51
0.7676296
0
ARC
8
DEFAULT_255_2_778
10
63.5387005
20
131.2635813
40
0.6563791
50
317.0904879
51
343.0169161
0
ARC
8
DEFAULT_255_2_778
10
63.5624403
20
131.2544094
40
0.6328172
50
276.9167813
51
316.2352736
0
ARC
8
DEFAULT_255_2_778
10
63.4966821
20
131.598167
40
0.9822824
50
269.7999279
51
278.3099173
0
ARC
8
DEFAULT_255_2_778
10
63.4796522
20
131.4302357
40
0.8144587
50
248.7140457
51
270.9567769
0
ARC
8
DEFAULT_255_2_778
10
63.420322
20
131.2554999
40
0.6301579
50
228.7405646
51
247.9729629
0
ARC
8
DEFAULT_255_2_778
10
63.4296381
20
131.2566558
40
0.637201
50
188.2675318
51
228.1793882
0
ARC
8
DEFAULT_255_2_778
10
63.7120099
20
131.3231605
40
0.9265443
50
185.1127548
51
189.8266522
0
ARC
8
DEFAULT_255_2_778
10
63.5943228
20
131.3006305
40
0.5373355
50
186.4154196
51
210.0540797
0
ARC
8
DEFAULT_255_2_778
10
63.4371881
20
131.2178866
40
0.3599572
50
211.1805446
51
228.452963
0
ARC
8
DEFAULT_255_2_778
10
63.4656043
20
131.2653898
40
0.4144821
50
229.8684592
51
269.1287678
0
ARC
8
DEFAULT_255_2_778
10
63.4926521
20
131.4935268
40
0.6434362
50
267.0289539
51
270.0267104
0
ARC
8
DEFAULT_255_2_778
10
63.5116183
20
131.2361264
40
0.3864868
50
267.2316976
51
319.7854616
0
ARC
8
DEFAULT_255_2_778
10
63.4180006
20
131.2969196
40
0.4974252
50
321.400649
51
353.0155331
0
ARC
8
DEFAULT_255_2_778
10
63.0745155
20
131.359698
40
0.8462446
50
351.6244049
51
0.2500134
0
ARC
8
DEFAULT_255_2_778
10
63.3303951
20
131.3769898
40
0.5905136
50
358.6803916
51
24.3729094
0
ARC
8
DEFAULT_255_2_778
10
63.465523
20
131.4288132
40
0.4461244
50
25.4721921
51
41.9243182
0
ARC
8
DEFAULT_255_2_778
10
63.4869226
20
131.4454666
40
0.41908
50
42.1851116
51
92.3618544
0
ARC
8
DEFAULT_255_2_778
10
63.4571327
20
131.2863937
40
0.5779325
50
88.7587392
51
109.2414084
0
ARC
8
DEFAULT_255_2_778
10
63.3876248
20
131.5027297
40
0.3508211
50
110.1671787
51
127.2751949
0
LINE
8
DEFAULT_255_2_778
10
63.0992521
20
131.7197906
11
62.8698521
21
131.7787906
0
LINE
8
DEFAULT_255_2_778
10
62.8698521
20
131.7787906
11
62.9846521
21
132.9042906
0
LINE
8
DEFAULT_255_2_778
10
62.9846521
20
132.9042906
11
64.1411521
21
132.9042906
0
LINE
8
DEFAULT_255_2_778
10
64.1411521
20
132.9042906
11
64.1411521
21
132.6391906
0
LINE
8
DEFAULT_255_2_778
10
64.1411521
20
132.6391906
11
63.2280521
21
132.6391906
0
LINE
8
DEFAULT_255_2_778
10
63.2280521
20
132.6391906
11
63.1598521
21
132.0237906
0
LINE
8
DEFAULT_255_2_778
10
62.7891521
20
131.2405906
11
63.0603521
21
131.2405906
0
LINE
8
DEFAULT_255_2_778
10
63.1751521
20
131.7818906
11
63.0992521
21
131.7199906
0
LINE
8
DEFAULT_255_2_778
10
63.0992521
20
131.7199906
11
63.0992521
21
131.7197906
0
ARC
8
DEFAULT_255_2_778
10
65.3071681
20
131.3926546
40
0.7288378
50
89.0421438
51
120.0088187
0
ARC
8
DEFAULT_255_2_778
10
65.3335115
20
131.42727
40
0.694265
50
64.7184524
51
91.1686157
0
ARC
8
DEFAULT_255_2_778
10
65.3707162
20
131.5312247
40
0.584477
50
41.3535397
51
63.6641554
0
ARC
8
DEFAULT_255_2_778
10
65.2727146
20
131.4524938
40
0.7100818
50
8.8936413
51
40.8975703
0
ARC
8
DEFAULT_255_2_778
10
64.8792812
20
131.3720064
40
1.1113855
50
359.7053303
51
9.8574597
0
ARC
8
DEFAULT_255_2_778
10
65.0157943
20
131.353229
40
0.9749453
50
343.2258529
51
0.7676296
0
ARC
8
DEFAULT_255_2_778
10
65.3215005
20
131.2635813
40
0.6563791
50
317.0904879
51
343.0169161
0
ARC
8
DEFAULT_255_2_778
10
65.345224
20
131.2544658
40
0.6328679
50
276.9122491
51
316.2326021
0
ARC
8
DEFAULT_255_2_778
10
65.2793847
20
131.598685
40
0.9828004
50
269.7998867
51
278.3077253
0
ARC
8
DEFAULT_255_2_778
10
65.2623679
20
131.4298857
40
0.8141085
50
248.7094637
51
270.9560827
0
ARC
8
DEFAULT_255_2_778
10
65.2031771
20
131.2555511
40
0.6302327
50
228.7398759
51
247.9685723
0
ARC
8
DEFAULT_255_2_778
10
65.2124381
20
131.2566558
40
0.637201
50
188.2675318
51
228.1793882
0
ARC
8
DEFAULT_255_2_778
10
65.4948099
20
131.3231605
40
0.9265443
50
185.1127548
51
189.8266522
0
ARC
8
DEFAULT_255_2_778
10
65.3771228
20
131.3006305
40
0.5373355
50
186.4154196
51
210.0540797
0
ARC
8
DEFAULT_255_2_778
10
65.2199881
20
131.2178866
40
0.3599572
50
211.1805446
51
228.452963
0
ARC
8
DEFAULT_255_2_778
10
65.2484043
20
131.2653898
40
0.4144821
50
229.8684592
51
269.1287678
0
ARC
8
DEFAULT_255_2_778
10
65.2754521
20
131.4935268
40
0.6434362
50
267.0289539
51
270.0267104
0
ARC
8
DEFAULT_255_2_778
10
65.2944183
20
131.2361264
40
0.3864868
50
267.2316976
51
319.7854616
0
ARC
8
DEFAULT_255_2_778
10
65.2008006
20
131.2969196
40
0.4974252
50
321.400649
51
353.0155331
0
ARC
8
DEFAULT_255_2_778
10
64.8573155
20
131.359698
40
0.8462446
50
351.6244049
51
0.2500134
0
ARC
8
DEFAULT_255_2_778
10
65.1131951
20
131.3769898
40
0.5905136
50
358.6803916
51
24.3729094
0
ARC
8
DEFAULT_255_2_778
10
65.248323
20
131.4288132
40
0.4461244
50
25.4721921
51
41.9243182
0
ARC
8
DEFAULT_255_2_778
10
65.2697226
20
131.4454666
40
0.41908
50
42.1851116
51
92.3618544
0
ARC
8
DEFAULT_255_2_778
10
65.2399327
20
131.2863937
40
0.5779325
50
88.7587392
51
109.2414084
0
ARC
8
DEFAULT_255_2_778
10
65.1704248
20
131.5027297
40
0.3508211
50
110.1671787
51
127.2751949
0
LINE
8
DEFAULT_255_2_778
10
64.8820521
20
131.7197906
11
64.6526521
21
131.7787906
0
LINE
8
DEFAULT_255_2_778
10
64.6526521
20
131.7787906
11
64.7674521
21
132.9042906
0
LINE
8
DEFAULT_255_2_778
10
64.7674521
20
132.9042906
11
65.9239521
21
132.9042906
0
LINE
8
DEFAULT_255_2_778
10
65.9239521
20
132.9042906
11
65.9239521
21
132.6391906
0
LINE
8
DEFAULT_255_2_778
10
65.9239521
20
132.6391906
11
65.0108521
21
132.6391906
0
LINE
8
DEFAULT_255_2_778
10
65.0108521
20
132.6391906
11
64.9426521
21
132.0237906
0
LINE
8
DEFAULT_255_2_778
10
64.5719521
20
131.2405906
11
64.8431521
21
131.2405906
0
LINE
8
DEFAULT_255_2_778
10
64.9579521
20
131.7818906
11
64.8820521
21
131.7199906
0
LINE
8
DEFAULT_255_2_778
10
64.8820521
20
131.7199906
11
64.8820521
21
131.7197906
0
ARC
8
DEFAULT_255_2_778
10
67.3795817
20
131.7615367
40
0.9009202
50
90.1886351
51
110.1296742
0
ARC
8
DEFAULT_255_2_778
10
67.3024901
20
131.9897179
40
0.6601751
50
110.6630071
51
134.0819033
0
ARC
8
DEFAULT_255_2_778
10
67.3626163
20
131.9415126
40
0.7366953
50
134.8328824
51
166.2825287
0
ARC
8
DEFAULT_255_2_778
10
67.7493005
20
131.8278308
40
1.139462
50
165.3400232
51
175.2114296
0
ARC
8
DEFAULT_255_2_778
10
67.0628452
20
131.5283054
40
0.5978073
50
91.3698698
51
138.6881518
0
ARC
8
DEFAULT_255_2_778
10
67.1001575
20
131.2452273
40
0.882225
50
89.9702475
51
93.353301
0
ARC
8
DEFAULT_255_2_778
10
67.1234946
20
131.5427364
40
0.5851631
50
40.1125818
51
92.2407503
0
ARC
8
DEFAULT_255_2_778
10
66.995811
20
131.4433458
40
0.7468757
50
6.001061
51
39.6328408
0
ARC
8
DEFAULT_255_2_778
10
66.655493
20
131.3860739
40
1.0915257
50
359.8623774
51
7.1233412
0
ARC
8
DEFAULT_255_2_778
10
66.7731321
20
131.3701276
40
0.9739747
50
342.2977073
51
0.7838599
0
ARC
8
DEFAULT_255_2_778
10
67.0448967
20
131.2880983
40
0.6901502
50
317.9054619
51
341.9248903
0
ARC
8
DEFAULT_255_2_778
10
67.0846076
20
131.257614
40
0.6402604
50
271.2007359
51
317.5475232
0
ARC
8
DEFAULT_255_2_778
10
67.0481084
20
131.5449444
40
0.9287925
50
269.9757743
51
273.0807282
0
ARC
8
DEFAULT_255_2_778
10
67.0308583
20
131.2600701
40
0.6441387
50
217.8473984
51
271.4996257
0
ARC
8
DEFAULT_255_2_778
10
67.2270102
20
131.4236458
40
0.8994364
50
188.1570118
51
218.4090103
0
ARC
8
DEFAULT_255_2_778
10
67.6348839
20
131.5009089
40
1.3142779
50
179.7801423
51
188.9683251
0
ARC
8
DEFAULT_255_2_778
10
68.6615723
20
131.6289048
40
2.3409919
50
171.4657736
51
180.3145732
0
ARC
8
DEFAULT_255_2_778
10
67.8239336
20
131.7583584
40
1.4934217
50
158.435602
51
171.6082822
0
ARC
8
DEFAULT_255_2_778
10
67.3906502
20
131.928332
40
1.0279933
50
141.4658659
51
158.3700755
0
ARC
8
DEFAULT_255_2_778
10
67.2640809
20
132.0162154
40
0.8742948
50
102.0345632
51
140.8036609
0
ARC
8
DEFAULT_255_2_778
10
67.387909
20
131.5341573
40
1.3717314
50
90.4174171
51
102.8948982
0
ARC
8
DEFAULT_255_2_778
10
67.0513374
20
131.431439
40
0.4573143
50
89.8649091
51
126.2045505
0
ARC
8
DEFAULT_255_2_778
10
67.0405909
20
131.4218465
40
0.458931
50
124.414276
51
160.0077191
0
ARC
8
DEFAULT_255_2_778
10
67.5262549
20
131.4602359
40
0.9170302
50
179.1929785
51
196.2395666
0
ARC
8
DEFAULT_255_2_778
10
67.2158656
20
131.3736557
40
0.5948239
50
196.5936435
51
216.0446541
0
ARC
8
DEFAULT_255_2_778
10
67.0650344
20
131.2483421
40
0.3993294
50
214.2405365
51
252.8226323
0
ARC
8
DEFAULT_255_2_778
10
67.0462012
20
131.2217215
40
0.3684735
50
254.3981783
51
270.2665813
0
ARC
8
DEFAULT_255_2_778
10
67.0632397
20
131.2171388
40
0.3642093
50
267.5885777
51
322.5851759
0
ARC
8
DEFAULT_255_2_778
10
66.9185014
20
131.3197798
40
0.5415695
50
323.2640768
51
355.0043284
0
ARC
8
DEFAULT_255_2_778
10
66.611933
20
131.3675059
40
0.8513847
50
353.6011277
51
0.1309694
0
ARC
8
DEFAULT_255_2_778
10
66.7726205
20
131.3826626
40
0.6908215
50
358.904269
51
20.4376985
0
ARC
8
DEFAULT_255_2_778
10
66.9707604
20
131.4489132
40
0.4820725
50
21.2825318
51
37.9465288
0
ARC
8
DEFAULT_255_2_778
10
67.0629904
20
131.5283871
40
0.3605201
50
36.9997105
51
91.6808431
0
LINE
8
DEFAULT_255_2_778
10
67.3781156
20
132.9058521
11
67.4292156
21
132.9058521
0
LINE
8
DEFAULT_255_2_778
10
67.4292156
20
132.9058521
11
67.4292156
21
132.6624521
0
LINE
8
DEFAULT_255_2_778
10
67.4292156
20
132.6624521
11
67.3766156
21
132.6624521
0
LINE
8
DEFAULT_255_2_778
10
66.3206156
20
131.5059521
11
66.3206156
21
131.6160521
0
LINE
8
DEFAULT_255_2_778
10
67.3779156
20
132.9058521
11
67.3781156
21
132.9058521
0
LINE
8
DEFAULT_255_2_778
10
66.6093156
20
131.5787521
11
66.6093156
21
131.4731521
0
LINE
8
DEFAULT_255_2_778
10
67.0524156
20
131.8887521
11
67.0524156
21
131.8887521
0
LINE
8
DEFAULT_255_2_778
10
68.7126781
20
131.7229781
11
68.7126781
21
131.4887781
0
LINE
8
DEFAULT_255_2_778
10
68.7126781
20
131.4887781
11
67.9562781
21
131.4887781
0
LINE
8
DEFAULT_255_2_778
10
67.9562781
20
131.4887781
11
67.9562781
21
131.7229781
0
LINE
8
DEFAULT_255_2_778
10
67.9562781
20
131.7229781
11
68.7126781
21
131.7229781
0
LINE
8
DEFAULT_255_2_778
10
68.7126781
20
131.7229781
11
68.7126781
21
131.7229781
0
LINE
8
DEFAULT_255_2_778
10
70.5965396
20
132.9043125
11
70.5965396
21
132.6593125
0
LINE
8
DEFAULT_255_2_778
10
70.5965396
20
132.6593125
11
69.8710396
21
132.6593125
0
LINE
8
DEFAULT_255_2_778
10
69.8710396
20
132.6593125
11
69.8710396
21
130.6469125
0
LINE
8
DEFAULT_255_2_778
10
69.8710396
20
130.6469125
11
69.5749396
21
130.6469125
0
LINE
8
DEFAULT_255_2_778
10
69.5749396
20
130.6469125
11
69.5749396
21
132.6593125
0
LINE
8
DEFAULT_255_2_778
10
69.5749396
20
132.6593125
11
68.8510396
21
132.6593125
0
LINE
8
DEFAULT_255_2_778
10
68.8510396
20
132.6593125
11
68.8510396
21
132.9043125
0
LINE
8
DEFAULT_255_2_778
10
68.8510396
20
132.9043125
11
70.5967396
21
132.9043125
0
LINE
8
DEFAULT_255_2_778
10
70.5967396
20
132.9043125
11
70.5965396
21
132.9043125
0
ARC
8
DEFAULT_255_2_778
10
71.7765416
20
131.8004283
40
1.1039255
50
75.2685599
51
90.6618153
0
ARC
8
DEFAULT_255_2_778
10
71.8811791
20
132.1919473
40
0.6986703
50
48.4826374
51
75.4029696
0
ARC
8
DEFAULT_255_2_778
10
71.9177455
20
132.2426436
40
0.6365038
50
359.1891076
51
47.9223073
0
ARC
8
DEFAULT_255_2_778
10
71.6469729
20
132.2143482
40
0.9074176
50
359.9957048
51
1.2179314
0
ARC
8
DEFAULT_255_2_778
10
71.7779864
20
132.2008704
40
0.7765201
50
339.771343
51
0.9894955
0
ARC
8
DEFAULT_255_2_778
10
71.9845016
20
132.1315879
40
0.5588238
50
310.7244794
51
339.1154358
0
ARC
8
DEFAULT_255_2_778
10
71.9025729
20
132.2417949
40
0.695866
50
282.6269601
51
309.9166101
0
ARC
8
DEFAULT_255_2_778
10
71.7761197
20
132.753218
40
1.2226178
50
269.7532324
51
283.1704203
0
ARC
8
DEFAULT_255_2_778
10
71.7607383
20
133.1599669
40
1.6293867
50
269.9983235
51
270.355709
0
ARC
8
DEFAULT_255_2_778
10
71.7765606
20
132.4787594
40
0.7045949
50
268.961522
51
287.2897728
0
ARC
8
DEFAULT_255_2_778
10
71.8616065
20
132.1962305
40
0.4095657
50
287.6767058
51
310.9045738
0
ARC
8
DEFAULT_255_2_778
10
71.8685134
20
132.1710994
40
0.3862125
50
312.5716572
51
356.9760129
0
ARC
8
DEFAULT_255_2_778
10
71.617195
20
132.2105531
40
0.6397964
50
354.6343764
51
0.0919797
0
ARC
8
DEFAULT_255_2_778
10
71.8182772
20
132.2271738
40
0.4389905
50
357.9643304
51
36.6279167
0
ARC
8
DEFAULT_255_2_778
10
71.8527201
20
132.2419424
40
0.4026321
50
37.8656286
51
46.5162964
0
ARC
8
DEFAULT_255_2_778
10
71.8159657
20
132.1915266
40
0.464574
50
47.506147
51
84.4579171
0
ARC
8
DEFAULT_255_2_778
10
71.7667729
20
131.9181082
40
0.7418082
50
82.7153905
51
88.9017832
0
LINE
8
DEFAULT_255_2_778
10
71.7606906
20
131.5307802
11
71.2288906
21
131.5307802
0
LINE
8
DEFAULT_255_2_778
10
71.2288906
20
131.5307802
11
71.2288906
21
130.6470802
0
LINE
8
DEFAULT_255_2_778
10
71.2288906
20
130.6470802
11
70.9311906
21
130.6470802
0
LINE
8
DEFAULT_255_2_778
10
70.9311906
20
130.6470802
11
70.9311906
21
132.9042802
0
LINE
8
DEFAULT_255_2_778
10
70.9311906
20
132.9042802
11
71.7637906
21
132.9042802
0
LINE
8
DEFAULT_255_2_778
10
71.7606906
20
131.5305802
11
71.7606906
21
131.5307802
0
LINE
8
DEFAULT_255_2_778
10
71.2288906
20
132.6595802
11
71.2288906
21
131.7742802
0
LINE
8
DEFAULT_255_2_778
10
71.2288906
20
131.7742802
11
71.7637906
21
131.7742802
0
LINE
8
DEFAULT_255_2_778
10
71.7809906
20
132.6597802
11
71.2290906
21
132.6597802
0
LINE
8
DEFAULT_255_2_778
10
71.2290906
20
132.6597802
11
71.2288906
21
132.6595802
0
LINE
8
DEFAULT_255_2_778
10
73.4859781
20
131.7229781
11
73.4859781
21
131.4887781
0
LINE
8
DEFAULT_255_2_778
10
73.4859781
20
131.4887781
11
72.7295781
21
131.4887781
0
LINE
8
DEFAULT_255_2_778
10
72.7295781
20
131.4887781
11
72.7295781
21
131.7229781
0
LINE
8
DEFAULT_255_2_778
10
72.7295781
20
131.7229781
11
73.4859781
21
131.7229781
0
LINE
8
DEFAULT_255_2_778
10
73.4859781
20
131.7229781
11
73.4859781
21
131.7229781
0
LINE
8
DEFAULT_255_2_778
10
75.0859792
20
131.9337802
11
75.0859792
21
131.6903802
0
LINE
8
DEFAULT_255_2_778
10
75.0859792
20
131.6903802
11
74.1078792
21
131.6903802
0
LINE
8
DEFAULT_255_2_778
10
74.1078792
20
131.6903802
11
74.1078792
21
130.8905802
0
LINE
8
DEFAULT_255_2_778
10
74.1078792
20
130.8905802
11
75.2441792
21
130.8905802
0
LINE
8
DEFAULT_255_2_778
10
75.2441792
20
130.8905802
11
75.2441792
21
130.6470802
0
LINE
8
DEFAULT_255_2_778
10
75.2441792
20
130.6470802
11
73.8101792
21
130.6470802
0
LINE
8
DEFAULT_255_2_778
10
73.8101792
20
130.6470802
11
73.8101792
21
132.9042802
0
LINE
8
DEFAULT_255_2_778
10
73.8101792
20
132.9042802
11
75.2285792
21
132.9042802
0
LINE
8
DEFAULT_255_2_778
10
75.2285792
20
132.9042802
11
75.2285792
21
132.6592802
0
LINE
8
DEFAULT_255_2_778
10
75.2285792
20
132.6592802
11
74.1078792
21
132.6592802
0
LINE
8
DEFAULT_255_2_778
10
74.1078792
20
132.6592802
11
74.1078792
21
131.9337802
0
LINE
8
DEFAULT_255_2_778
10
74.1078792
20
131.9337802
11
75.0859792
21
131.9337802
0
LINE
8
DEFAULT_255_2_778
10
75.0859792
20
131.9337802
11
75.0859792
21
131.9337802
0
LINE
8
DEFAULT_255_2_778
10
77.2056396
20
132.9043125
11
77.2056396
21
132.6593125
0
LINE
8
DEFAULT_255_2_778
10
77.2056396
20
132.6593125
11
76.4801396
21
132.6593125
0
LINE
8
DEFAULT_255_2_778
10
76.4801396
20
132.6593125
11
76.4801396
21
130.6469125
0
LINE
8
DEFAULT_255_2_778
10
76.4801396
20
130.6469125
11
76.1840396
21
130.6469125
0
LINE
8
DEFAULT_255_2_778
10
76.1840396
20
130.6469125
11
76.1840396
21
132.6593125
0
LINE
8
DEFAULT_255_2_778
10
76.1840396
20
132.6593125
11
75.4601396
21
132.6593125
0
LINE
8
DEFAULT_255_2_778
10
75.4601396
20
132.6593125
11
75.4601396
21
132.9043125
0
LINE
8
DEFAULT_255_2_778
10
75.4601396
20
132.9043125
11
77.2058396
21
132.9043125
0
LINE
8
DEFAULT_255_2_778
10
77.2058396
20
132.9043125
11
77.2056396
21
132.9043125
0
LINE
8
DEFAULT_255_2_778
10
79.2751636
20
132.9042802
11
79.2751636
21
130.6470802
0
LINE
8
DEFAULT_255_2_778
10
79.2751636
20
130.6470802
11
78.9758636
21
130.6470802
0
LINE
8
DEFAULT_255_2_778
10
78.9758636
20
130.6470802
11
78.9758636
21
131.6903802
0
LINE
8
DEFAULT_255_2_778
10
78.9758636
20
131.6903802
11
77.8379636
21
131.6903802
0
LINE
8
DEFAULT_255_2_778
10
77.8379636
20
131.6903802
11
77.8379636
21
130.6470802
0
LINE
8
DEFAULT_255_2_778
10
77.8379636
20
130.6470802
11
77.5402636
21
130.6470802
0
LINE
8
DEFAULT_255_2_778
10
77.5402636
20
130.6470802
11
77.5402636
21
132.9042802
0
LINE
8
DEFAULT_255_2_778
10
77.5402636
20
132.9042802
11
77.8379636
21
132.9042802
0
LINE
8
DEFAULT_255_2_778
10
77.8379636
20
132.9042802
11
77.8379636
21
131.9337802
0
LINE
8
DEFAULT_255_2_778
10
77.8379636
20
131.9337802
11
78.9758636
21
131.9337802
0
LINE
8
DEFAULT_255_2_778
10
78.9758636
20
131.9337802
11
78.9758636
21
132.9042802
0
LINE
8
DEFAULT_255_2_778
10
78.9758636
20
132.9042802
11
79.2751636
21
132.9042802
0
LINE
8
DEFAULT_255_2_778
10
79.2751636
20
132.9042802
11
79.2751636
21
132.9042802
0
ENDSEC
0
EOF