0
SECTION
2
HEADER
9
$MEASUREMENT
70
1
0
ENDSEC
0
SECTION
2
TABLES
0
TABLE
2
LTYPE
0
LTYPE
72
65
70
64
2
CONTINUOUS
3
______
73
0
40
0
0
ENDTAB
0
TABLE
2
LAYER
0
LAYER
2
DEFAULT_255_2_778
70
0
62
255
6
CONTINUOUS
0
ENDTAB
0
ENDSEC
0
SECTION
2
ENTITIES
0
ARC
8
DEFAULT_255_2_778
10
81.0517565
20
133.2238651
40
1.449138
50
77.2523675
51
90.4990128
0
ARC
8
DEFAULT_255_2_778
10
81.19353
20
133.7757574
40
0.8797203
50
26.7934075
51
78.3270689
0
ARC
8
DEFAULT_255_2_778
10
80.8150962
20
133.5787113
40
1.3063588
50
12.4373752
51
27.0259635
0
ARC
8
DEFAULT_255_2_778
10
80.0741593
20
133.4089832
40
2.0664714
50
3.1172632
51
12.6083807
0
ARC
8
DEFAULT_255_2_778
10
79.2697246
20
133.3508566
40
2.8729125
50
359.9419951
51
3.4023692
0
ARC
8
DEFAULT_255_2_778
10
80.2108763
20
0.9373609
40
1.9318016
50
350.0695998
51
0.3792628
0
ARC
8
DEFAULT_255_2_778
10
80.9159783
20
0.8090127
40
1.2151392
50
333.441138
51
350.2973037
0
ARC
8
DEFAULT_255_2_778
10
81.1965215
20
0.6775912
40
0.9054736
50
286.6353671
51
332.9423613
0
ARC
8
DEFAULT_255_2_778
10
80.9986519
20
1.2395396
40
1.500823
50
274.5644143
51
287.7316056
0
ARC
8
DEFAULT_255_2_778
10
80.9325045
20
1.8835728
40
2.1481279
50
269.8994716
51
274.9561171
0
LINE
8
DEFAULT_255_2_778
10
80.9287355
20
-0.2645519
11
1.1359355
21
-0.2645519
0
ARC
8
DEFAULT_255_2_778
10
1.1228583
20
0.9933404
40
1.2579603
50
255.7994012
51
270.5956312
0
ARC
8
DEFAULT_255_2_778
10
1.0030455
20
0.5476799
40
0.796555
50
202.846993
51
256.2902079
0
ARC
8
DEFAULT_255_2_778
10
1.4767061
20
0.7710978
40
1.3199844
50
189.8808027
51
203.801141
0
ARC
8
DEFAULT_255_2_778
10
2.2756386
20
0.9181625
40
2.1323166
50
181.3519792
51
190.0900485
0
ARC
8
DEFAULT_255_2_778
10
2.9638476
20
0.9494421
40
2.8211122
50
179.9856606
51
181.6572962
0
LINE
8
DEFAULT_255_2_778
10
0.1427355
20
0.9501481
11
0.1427355
21
133.8448481
0
ARC
8
DEFAULT_255_2_778
10
1.315397
20
133.8576901
40
1.1727318
50
166.4971022
51
180.6274302
0
ARC
8
DEFAULT_255_2_778
10
0.8336248
20
133.9812528
40
0.6754689
50
135.3289925
51
167.1465252
0
ARC
8
DEFAULT_255_2_778
10
0.8382034
20
133.9471402
40
0.7030221
50
105.3114418
51
133.6139551
0
ARC
8
DEFAULT_255_2_778
10
0.9860287
20
133.4530168
40
1.2187021
50
92.384386
51
105.8801839
0
ARC
8
DEFAULT_255_2_778
10
1.0244666
20
132.9330822
40
1.7398665
50
89.9615048
51
92.9367672
0
LINE
8
DEFAULT_255_2_778
10
1.0256355
20
134.6729481
11
81.0391355
21
134.6729481
0
LINE
8
DEFAULT_255_2_778
10
82.1426355
20
133.3479481
11
82.1426355
21
0.9501481
0
LINE
8
DEFAULT_255_2_778
10
1.0256355
20
134.6729481
11
1.0256355
21
134.6729481
0
LINE
8
DEFAULT_255_2_778
10
53.3041708
20
134.6728752
11
53.3030708
21
-0.1985248
0
LINE
8
DEFAULT_255_2_778
10
23.6697337
20
126.7378
11
53.3030337
21
126.7378
0
LINE
8
DEFAULT_255_2_778
10
23.6615733
20
84.4021
11
53.2372733
21
84.4021
0
LINE
8
DEFAULT_255_2_778
10
23.6698
20
134.6647033
11
23.6698
21
-0.2248967
0
LINE
8
DEFAULT_255_2_778
10
0.2531118
20
120.0901
11
23.4293118
21
120.0901
0
ARC
8
DEFAULT_255_2_778
10
7.3719659
20
120.2143383
40
2.7043515
50
168.2060492
51
180.2866048
0
ARC
8
DEFAULT_255_2_778
10
6.8044277
20
120.3369493
40
2.1237375
50
129.9216688
51
168.3145565
0
ARC
8
DEFAULT_255_2_778
10
7.2671791
20
119.8132724
40
2.8223858
50
119.1206073
51
130.3039326
0
ARC
8
DEFAULT_255_2_778
10
7.7366682
20
118.9796517
40
3.779114
50
111.2213138
51
119.1882743
0
ARC
8
DEFAULT_255_2_778
10
8.2048926
20
117.784428
40
5.062774
50
105.1865403
51
111.2647373
0
ARC
8
DEFAULT_255_2_778
10
8.6430624
20
116.182361
40
6.7236785
50
100.3572896
51
105.2136954
0
ARC
8
DEFAULT_255_2_778
10
9.0200261
20
114.1398796
40
8.8006528
50
96.4956363
51
100.3808048
0
ARC
8
DEFAULT_255_2_778
10
9.306286
20
111.6550782
40
11.3018873
50
93.347562
51
96.5124815
0
ARC
8
DEFAULT_255_2_778
10
9.4809561
20
108.7211458
40
14.2410132
50
90.7439134
51
93.35984
0
ARC
8
DEFAULT_255_2_778
10
9.5222144
20
106.4827485
40
16.4797621
50
89.9953625
51
90.7863047
0
ARC
8
DEFAULT_255_2_778
10
9.9933506
20
96.7272555
40
26.2394612
50
90.7768613
51
91.0259025
0
ARC
8
DEFAULT_255_2_778
10
9.9819899
20
97.5804718
40
25.3861692
50
90.4432044
51
90.7773323
0
ARC
8
DEFAULT_255_2_778
10
9.9747328
20
98.5237117
40
24.4429015
50
90.1128174
51
90.4432966
0
ARC
8
DEFAULT_255_2_778
10
9.9732619
20
99.0962855
40
23.8703259
50
90.0001159
51
90.1119929
0
ARC
8
DEFAULT_255_2_778
10
9.9838735
20
101.4033717
40
21.5632424
50
88.2189914
51
90.0283243
0
ARC
8
DEFAULT_255_2_778
10
10.1091941
20
105.3521784
40
17.6124488
50
86.0432275
51
88.2272327
0
ARC
8
DEFAULT_255_2_778
10
10.3534968
20
108.8502514
40
14.1058562
50
83.4367101
51
86.0527317
0
ARC
8
DEFAULT_255_2_778
10
10.6979373
20
111.8262234
40
11.1100185
50
80.3365738
51
83.4471666
0
ARC
8
DEFAULT_255_2_778
10
11.1138379
20
114.2591205
40
8.6418291
50
76.6798496
51
80.347267
0
ARC
8
DEFAULT_255_2_778
10
11.584441
20
116.2344096
40
6.6112569
50
72.0686353
51
76.7045674
0
ARC
8
DEFAULT_255_2_778
10
12.0889738
20
117.7872441
40
4.9785157
50
66.3895585
51
72.0909946
0
ARC
8
DEFAULT_255_2_778
10
12.6028664
20
118.9550252
40
3.702669
50
58.8403602
51
66.4384488
0
ARC
8
DEFAULT_255_2_778
10
13.1079744
20
119.7840009
40
2.7319373
50
48.3066531
51
58.9096408
0
ARC
8
DEFAULT_255_2_778
10
13.5606644
20
120.2852659
40
2.0565362
50
30.5328296
51
48.4352946
0
ARC
8
DEFAULT_255_2_778
10
13.6551541
20
120.3609138
40
1.936793
50
5.518316
51
30.0253396
0
ARC
8
DEFAULT_255_2_778
10
13.2320583
20
120.3033171
40
2.3635255
50
359.9345757
51
5.9217786
0
ARC
8
DEFAULT_255_2_778
10
13.0175284
20
120.3008483
40
2.5780538
50
358.4740963
51
359.9948882
0
ARC
8
DEFAULT_255_2_778
10
12.9415858
20
120.3027067
40
2.654019
50
357.7996961
51
358.4776478
0
LINE
8
DEFAULT_255_2_778
10
0.2530836
20
103.960829
11
19.9737836
21
103.960829
0
ARC
8
DEFAULT_255_2_778
10
19.9859233
20
99.7647802
40
4.1960664
50
85.467107
51
90.1657627
0
ARC
8
DEFAULT_255_2_778
10
20.1164785
20
101.3578712
40
2.5976439
50
78.7642015
51
85.5606859
0
ARC
8
DEFAULT_255_2_778
10
20.3345715
20
102.4335115
40
1.5001312
50
68.5942771
51
78.9294841
0
ARC
8
DEFAULT_255_2_778
10
20.5904149
20
103.0709872
40
0.8132727
50
50.7942604
51
68.9842842
0
ARC
8
DEFAULT_255_2_778
10
20.7860937
20
103.3123025
40
0.5025927
50
358.3725954
51
50.6905974
0
LINE
8
DEFAULT_255_2_778
10
21.2884836
20
103.298029
11
21.2884836
21
95.343929
0
ARC
8
DEFAULT_255_2_778
10
20.3820877
20
95.3303803
40
0.9064972
50
340.2530503
51
0.856389
0
ARC
8
DEFAULT_255_2_778
10
20.5601685
20
95.281524
40
0.7225211
50
297.1969837
51
339.1281665
0
ARC
8
DEFAULT_255_2_778
10
20.3072779
20
95.7273579
40
1.2348291
50
284.1425279
51
298.1789562
0
ARC
8
DEFAULT_255_2_778
10
20.1020276
20
96.5110086
40
2.0448918
50
275.4825712
51
284.3542437
0
ARC
8
DEFAULT_255_2_778
10
19.9843783
20
97.6573515
40
3.1972399
50
269.8101392
51
275.6185179
0
LINE
8
DEFAULT_255_2_778
10
19.9737836
20
94.460129
11
0.2530836
21
94.460129
0
LINE
8
DEFAULT_255_2_778
10
4.0905417
20
98.9543843
11
5.4134417
21
98.9543843
0
LINE
8
DEFAULT_255_2_778
10
5.4134417
20
98.9543843
11
5.4134417
21
101.5999843
0
LINE
8
DEFAULT_255_2_778
10
5.4134417
20
101.5999843
11
4.0905417
21
101.5999843
0
LINE
8
DEFAULT_255_2_778
10
4.0905417
20
101.5999843
11
4.0905417
21
98.9543843
0
ARC
8
DEFAULT_255_2_778
10
18.6648173
20
14.6645265
40
1.8803852
50
269.8904175
51
293.8769018
0
ARC
8
DEFAULT_255_2_778
10
18.6850723
20
14.6268571
40
1.8377439
50
293.7748266
51
353.1539176
0
ARC
8
DEFAULT_255_2_778
10
18.6689139
20
14.6236079
40
1.853407
50
353.3131879
51
0.013503
0
ARC
8
DEFAULT_255_2_778
10
18.699389
20
14.6271134
40
1.8229345
50
359.9035491
51
25.5390534
0
ARC
8
DEFAULT_255_2_778
10
18.673985
20
14.6093199
40
1.8535347
50
25.6967853
51
77.2189825
0
ARC
8
DEFAULT_255_2_778
10
18.6626745
20
14.5644433
40
1.8998019
50
77.1857364
51
90.0438399
0
ARC
8
DEFAULT_255_2_778
10
18.6576118
20
14.5838165
40
1.8804317
50
89.8900329
51
113.8758527
0
ARC
8
DEFAULT_255_2_778
10
18.6374135
20
14.6215442
40
1.83776
50
113.7761083
51
173.1612978
0
ARC
8
DEFAULT_255_2_778
10
18.6548135
20
14.624485
40
1.8546926
50
173.3155066
51
180.013602
0
ARC
8
DEFAULT_255_2_778
10
18.6229173
20
14.6209151
40
1.8227991
50
179.9016277
51
205.5400269
0
ARC
8
DEFAULT_255_2_778
10
18.6479873
20
14.6386978
40
1.8530938
50
205.7019288
51
257.2227054
0
ARC
8
DEFAULT_255_2_778
10
18.6597576
20
14.6848971
40
1.9007528
50
257.1846843
51
270.0441077
0
LINE
8
DEFAULT_255_2_778
10
18.6612209
20
12.7841447
11
18.6612209
21
12.7841447
0
ARC
8
DEFAULT_255_2_778
10
13.4093377
20
14.664829
40
1.8806876
50
269.890891
51
293.9180339
0
ARC
8
DEFAULT_255_2_778
10
13.4298386
20
14.6270189
40
1.8378159
50
293.8116899
51
353.287074
0
ARC
8
DEFAULT_255_2_778
10
13.4139101
20
14.6236292
40
1.8532463
50
353.4487167
51
0.0128464
0
ARC
8
DEFAULT_255_2_778
10
13.4443078
20
14.6271194
40
1.8228511
50
359.9033587
51
25.5401024
0
ARC
8
DEFAULT_255_2_778
10
13.4188003
20
14.6092236
40
1.8535888
50
25.6992831
51
77.1601971
0
ARC
8
DEFAULT_255_2_778
10
13.4072303
20
14.5636912
40
1.900554
50
77.1251611
51
90.0444376
0
ARC
8
DEFAULT_255_2_778
10
13.4021292
20
14.5833325
40
1.8809157
50
89.8895134
51
113.8727397
0
ARC
8
DEFAULT_255_2_778
10
13.381695
20
14.621544
40
1.8377063
50
113.7722989
51
173.161092
0
ARC
8
DEFAULT_255_2_778
10
13.3991489
20
14.624485
40
1.8546926
50
173.3155065
51
180.0136019
0
ARC
8
DEFAULT_255_2_778
10
13.3671984
20
14.6209116
40
1.8227448
50
179.9015143
51
205.5407217
0
ARC
8
DEFAULT_255_2_778
10
13.3923324
20
14.6387586
40
1.853125
50
205.7035498
51
257.1701432
0
ARC
8
DEFAULT_255_2_778
10
13.4042787
20
14.685372
40
1.9012279
50
257.1310511
51
270.0445298
0
LINE
8
DEFAULT_255_2_778
10
13.4057563
20
12.7841447
11
13.4057563
21
12.7841447
0
ARC
8
DEFAULT_255_2_778
10
8.373285
20
14.6645265
40
1.8803852
50
269.8904175
51
293.8769018
0
ARC
8
DEFAULT_255_2_778
10
8.39354
20
14.6268571
40
1.8377439
50
293.7748266
51
353.1539176
0
ARC
8
DEFAULT_255_2_778
10
8.3773816
20
14.6236079
40
1.853407
50
353.3131879
51
0.013503
0
ARC
8
DEFAULT_255_2_778
10
8.4078567
20
14.6271134
40
1.8229345
50
359.9035491
51
25.5390534
0
ARC
8
DEFAULT_255_2_778
10
8.3824527
20
14.6093199
40
1.8535347
50
25.6967853
51
77.2189825
0
ARC
8
DEFAULT_255_2_778
10
8.3711422
20
14.5644433
40
1.8998019
50
77.1857364
51
90.0438399
0
ARC
8
DEFAULT_255_2_778
10
8.366098
20
14.5837918
40
1.8804564
50
89.8905966
51
113.9403314
0
ARC
8
DEFAULT_255_2_778
10
8.3458179
20
14.6213362
40
1.8379156
50
113.8374454
51
173.1620028
0
ARC
8
DEFAULT_255_2_778
10
8.3624948
20
14.6244831
40
1.8541061
50
173.3199178
51
180.0135475
0
ARC
8
DEFAULT_255_2_778
10
8.3311307
20
14.6209116
40
1.8227448
50
179.9015143
51
205.5407217
0
ARC
8
DEFAULT_255_2_778
10
8.3562647
20
14.6387586
40
1.853125
50
205.7035498
51
257.1701432
0
ARC
8
DEFAULT_255_2_778
10
8.368211
20
14.685372
40
1.9012279
50
257.1310511
51
270.0445298
0
LINE
8
DEFAULT_255_2_778
10
8.3696886
20
12.7841447
11
8.3696886
21
12.7841447
0
LINE
8
DEFAULT_255_2_778
10
21.2885002
20
17.1138248
11
21.2885002
21
20.9021248
0
LINE
8
DEFAULT_255_2_778
10
21.2885002
20
20.9021248
11
5.4135002
21
20.9021248
0
LINE
8
DEFAULT_255_2_778
10
5.4135002
20
20.9021248
11
5.4135002
21
8.9959248
0
LINE
8
DEFAULT_255_2_778
10
5.4135002
20
8.9959248
11
21.2885002
21
8.9959248
0
LINE
8
DEFAULT_255_2_778
10
21.2885002
20
8.9959248
11
21.2885002
21
17.1138248
0
LINE
8
DEFAULT_255_2_778
10
5.506369
20
17.1979
11
21.271869
21
17.1979
0
LINE
8
DEFAULT_255_2_778
10
21.2885002
20
17.1138248
11
21.2885002
21
8.9959248
0
LINE
8
DEFAULT_255_2_778
10
21.2885002
20
8.9959248
11
5.4135002
21
8.9959248
0
LINE
8
DEFAULT_255_2_778
10
5.4135002
20
8.9959248
11
5.4135002
21
20.9021248
0
LINE
8
DEFAULT_255_2_778
10
5.4135002
20
20.9021248
11
21.2885002
21
20.9021248
0
LINE
8
DEFAULT_255_2_778
10
21.2885002
20
20.9021248
11
21.2885002
21
17.1138248
0
LINE
8
DEFAULT_255_2_778
10
7.0010293
20
82.3436249
11
7.0010293
21
75.1898249
0
LINE
8
DEFAULT_255_2_778
10
7.0010293
20
75.1898249
11
9.7236293
21
75.1898249
0
LINE
8
DEFAULT_255_2_778
10
9.7236293
20
75.1898249
11
9.7236293
21
72.9546249
0
LINE
8
DEFAULT_255_2_778
10
9.7236293
20
72.9546249
11
10.8560293
21
72.9546249
0
LINE
8
DEFAULT_255_2_778
10
10.8560293
20
72.9546249
11
10.8560293
21
71.8344249
0
LINE
8
DEFAULT_255_2_778
10
10.8560293
20
71.8344249
11
15.8460293
21
71.8344249
0
LINE
8
DEFAULT_255_2_778
10
15.8460293
20
71.8344249
11
15.8460293
21
73.1776249
0
LINE
8
DEFAULT_255_2_778
10
15.8460293
20
73.1776249
11
16.9784293
21
73.1776249
0
LINE
8
DEFAULT_255_2_778
10
16.9784293
20
73.1776249
11
16.9784293
21
75.1898249
0
LINE
8
DEFAULT_255_2_778
10
16.9784293
20
75.1898249
11
19.9285293
21
75.1898249
0
LINE
8
DEFAULT_255_2_778
10
19.9285293
20
75.1898249
11
19.9285293
21
82.3436249
0
LINE
8
DEFAULT_255_2_778
10
19.9285293
20
82.3436249
11
7.0010293
21
82.3436249
0
LINE
8
DEFAULT_255_2_778
10
7.0010293
20
82.3436249
11
7.0010293
21
82.3436249
0
LINE
8
DEFAULT_255_2_778
10
5.4135002
20
84.5740214
11
5.4135002
21
72.5381214
0
ARC
8
DEFAULT_255_2_778
10
6.1344627
20
72.5247063
40
0.7210873
50
178.9340059
51
201.0958097
0
ARC
8
DEFAULT_255_2_778
10
5.9731998
20
72.4775323
40
0.5538307
50
202.5474935
51
247.7784493
0
ARC
8
DEFAULT_255_2_778
10
6.1748882
20
72.9119397
40
1.0324938
50
246.5341777
51
261.2918045
0
ARC
8
DEFAULT_255_2_778
10
6.3039398
20
73.6945209
40
1.825615
50
261.0068531
51
269.8860326
0
ARC
8
DEFAULT_255_2_778
10
6.3209409
20
74.2875712
40
2.4187498
50
269.5112494
51
270.0014063
0
LINE
8
DEFAULT_255_2_778
10
6.3210002
20
71.8688214
11
9.4960002
21
71.8688214
0
LINE
8
DEFAULT_255_2_778
10
9.4960002
20
71.8688214
11
9.4960002
21
68.9716214
0
ARC
8
DEFAULT_255_2_778
10
9.869543
20
68.9509404
40
0.3741149
50
176.8310791
51
245.7122531
0
ARC
8
DEFAULT_255_2_778
10
10.038356
20
69.2910146
40
0.7536557
50
244.6484363
51
261.3507004
0
ARC
8
DEFAULT_255_2_778
10
10.1624027
20
70.0326696
40
1.5055719
50
260.9282228
51
270.3513845
0
ARC
8
DEFAULT_255_2_778
10
10.1760957
20
70.6879399
40
2.1608185
50
269.8817494
51
269.9974691
0
LINE
8
DEFAULT_255_2_778
10
10.1760002
20
68.5271214
11
16.0736002
21
68.5271214
0
ARC
8
DEFAULT_255_2_778
10
16.0868213
20
69.2870276
40
0.7600212
50
269.0032548
51
289.8364041
0
ARC
8
DEFAULT_255_2_778
10
16.1434129
20
69.0945582
40
0.5598986
50
291.0724627
51
339.1509643
0
ARC
8
DEFAULT_255_2_778
10
15.6909957
20
69.2944994
40
1.0541691
50
337.7468752
51
352.3033902
0
ARC
8
DEFAULT_255_2_778
10
14.9268474
20
69.4081508
40
1.8266834
50
351.980725
51
0.3315604
0
LINE
8
DEFAULT_255_2_778
10
16.7535002
20
69.4187214
11
16.7535002
21
71.8688214
0
LINE
8
DEFAULT_255_2_778
10
16.7535002
20
71.8688214
11
20.8361002
21
71.8688214
0
ARC
8
DEFAULT_255_2_778
10
20.8411874
20
72.2303012
40
0.3615156
50
269.1937236
51
336.8632817
0
ARC
8
DEFAULT_255_2_778
10
20.4009815
20
72.4718526
40
0.8626291
50
333.5966531
51
347.6434078
0
ARC
8
DEFAULT_255_2_778
10
19.6053438
20
72.6553715
40
1.6791319
50
347.3361392
51
355.7744136
0
ARC
8
DEFAULT_255_2_778
10
18.4481399
20
72.7525077
40
2.8403713
50
355.5403126
51
0.1596348
0
LINE
8
DEFAULT_255_2_778
10
21.2885002
20
72.7604214
11
21.2885002
21
84.7963214
0
ARC
8
DEFAULT_255_2_778
10
20.0566581
20
84.8069637
40
1.2318881
50
359.5050178
51
12.6155808
0
ARC
8
DEFAULT_255_2_778
10
20.5342717
20
84.9292792
40
0.7392438
50
11.4492186
51
62.8450803
0
ARC
8
DEFAULT_255_2_778
10
20.3731825
20
84.6187562
40
1.0890615
50
62.7603147
51
77.9128177
0
ARC
8
DEFAULT_255_2_778
10
20.2334948
20
83.9993786
40
1.723972
50
77.6837211
51
86.9312087
0
ARC
8
DEFAULT_255_2_778
10
20.1875685
20
83.351142
40
2.3737638
50
86.6619062
51
90.0552995
0
ARC
8
DEFAULT_255_2_778
10
20.1875128
20
82.8479382
40
2.8769676
50
90.0445171
51
92.8716382
0
ARC
8
DEFAULT_255_2_778
10
20.2154056
20
82.2830312
40
3.4425627
50
92.8642616
51
95.2785031
0
ARC
8
DEFAULT_255_2_778
10
20.2730881
20
81.6543033
40
4.0739309
50
95.2728323
51
97.3535762
0
ARC
8
DEFAULT_255_2_778
10
20.3297321
20
81.1998019
40
4.5319444
50
97.3283617
51
97.9745582
0
LINE
8
DEFAULT_255_2_778
10
19.7010002
20
85.6879214
11
6.0935002
21
85.6879214
0
ARC
8
DEFAULT_255_2_778
10
6.0789486
20
85.0809445
40
0.6071514
50
88.6266567
51
118.6255033
0
ARC
8
DEFAULT_255_2_778
10
6.0878204
20
85.1072607
40
0.5886554
50
120.6110219
51
153.3607343
0
ARC
8
DEFAULT_255_2_778
10
6.504889
20
84.8815376
40
1.0627615
50
152.5649546
51
166.5276334
0
ARC
8
DEFAULT_255_2_778
10
7.2898009
20
84.686373
40
1.8715561
50
166.3155332
51
175.2807575
0
ARC
8
DEFAULT_255_2_778
10
8.4134816
20
84.582505
40
2.9999934
50
175.0693927
51
180.1620257
0
LINE
8
DEFAULT_255_2_778
10
5.4135002
20
84.5740214
11
5.4135002
21
84.5740214
0
LINE
8
DEFAULT_255_2_778
10
4.1384896
20
110.1391812
11
5.4142896
21
110.1391812
0
LINE
8
DEFAULT_255_2_778
10
5.4142896
20
110.1391812
11
5.4142896
21
107.9499812
0
LINE
8
DEFAULT_255_2_778
10
5.4142896
20
107.9499812
11
4.1384896
21
107.9499812
0
LINE
8
DEFAULT_255_2_778
10
4.1384896
20
107.9499812
11
4.1384896
21
110.1391812
0
LINE
8
DEFAULT_255_2_778
10
4.1384896
20
113.0580812
11
5.4142896
21
113.0580812
0
LINE
8
DEFAULT_255_2_778
10
5.4142896
20
113.0580812
11
5.4142896
21
110.8688812
0
LINE
8
DEFAULT_255_2_778
10
5.4142896
20
110.8688812
11
4.1384896
21
110.8688812
0
LINE
8
DEFAULT_255_2_778
10
4.1384896
20
110.8688812
11
4.1384896
21
113.0580812
0
LINE
8
DEFAULT_255_2_778
10
4.1384896
20
116.1594812
11
5.4142896
21
116.1594812
0
LINE
8
DEFAULT_255_2_778
10
5.4142896
20
116.1594812
11
5.4142896
21
113.9702812
0
LINE
8
DEFAULT_255_2_778
10
5.4142896
20
113.9702812
11
4.1384896
21
113.9702812
0
LINE
8
DEFAULT_255_2_778
10
4.1384896
20
113.9702812
11
4.1384896
21
116.1594812
0
LINE
8
DEFAULT_255_2_778
10
13.3980896
20
110.1391812
11
14.6738896
21
110.1391812
0
LINE
8
DEFAULT_255_2_778
10
14.6738896
20
110.1391812
11
14.6738896
21
107.9499812
0
LINE
8
DEFAULT_255_2_778
10
14.6738896
20
107.9499812
11
13.3980896
21
107.9499812
0
LINE
8
DEFAULT_255_2_778
10
13.3980896
20
107.9499812
11
13.3980896
21
110.1391812
0
LINE
8
DEFAULT_255_2_778
10
13.3980896
20
113.0580812
11
14.6738896
21
113.0580812
0
LINE
8
DEFAULT_255_2_778
10
14.6738896
20
113.0580812
11
14.6738896
21
110.8688812
0
LINE
8
DEFAULT_255_2_778
10
14.6738896
20
110.8688812
11
13.3980896
21
110.8688812
0
LINE
8
DEFAULT_255_2_778
10
13.3980896
20
110.8688812
11
13.3980896
21
113.0580812
0
LINE
8
DEFAULT_255_2_778
10
13.3980896
20
116.1594812
11
14.6738896
21
116.1594812
0
LINE
8
DEFAULT_255_2_778
10
14.6738896
20
116.1594812
11
14.6738896
21
113.9702812
0
LINE
8
DEFAULT_255_2_778
10
14.6738896
20
113.9702812
11
13.3980896
21
113.9702812
0
LINE
8
DEFAULT_255_2_778
10
13.3980896
20
113.9702812
11
13.3980896
21
116.1594812
0
LINE
8
DEFAULT_255_2_778
10
58.3320429
20
129.3812157
11
71.5593429
21
129.3812157
0
LINE
8
DEFAULT_255_2_778
10
71.5593429
20
129.3812157
11
71.5593429
21
63.2354157
0
LINE
8
DEFAULT_255_2_778
10
71.5593429
20
63.2354157
11
58.3320429
21
63.2354157
0
LINE
8
DEFAULT_255_2_778
10
58.3320429
20
63.2354157
11
58.3320429
21
129.3812157
0
LINE
8
DEFAULT_255_2_778
10
71.5593501
20
123.8691503
11
79.4968501
21
123.8691503
0
LINE
8
DEFAULT_255_2_778
10
79.4968501
20
123.8691503
11
79.4968501
21
73.7086503
0
LINE
8
DEFAULT_255_2_778
10
79.4968501
20
73.7086503
11
71.5593501
21
73.7086503
0
LINE
8
DEFAULT_255_2_778
10
71.5593501
20
73.7086503
11
71.5593501
21
123.8691503
0
LINE
8
DEFAULT_255_2_778
10
71.6630084
20
119.239
11
79.4968084
21
119.239
0
LINE
8
DEFAULT_255_2_778
10
71.6630084
20
113.9473
11
79.4968084
21
113.9473
0
LINE
8
DEFAULT_255_2_778
10
71.6630084
20
103.8048
11
79.4968084
21
103.8048
0
LINE
8
DEFAULT_255_2_778
10
71.6630084
20
109.0964
11
79.4968084
21
109.0964
0
LINE
8
DEFAULT_255_2_778
10
71.6630084
20
99.1746
11
79.4968084
21
99.1746
0
LINE
8
DEFAULT_255_2_778
10
71.6630084
20
93.8829
11
79.4968084
21
93.8829
0
LINE
8
DEFAULT_255_2_778
10
71.6630084
20
83.7406
11
79.4968084
21
83.7406
0
LINE
8
DEFAULT_255_2_778
10
71.6630084
20
89.0323
11
79.4968084
21
89.0323
0
LINE
8
DEFAULT_255_2_778
10
71.6630084
20
78.89
11
79.4968084
21
78.89
0
LINE
8
DEFAULT_255_2_778
10
71.559349
20
73.708403
11
76.634849
21
73.708403
0
LINE
8
DEFAULT_255_2_778
10
76.634849
20
73.708403
11
76.634849
21
63.676203
0
LINE
8
DEFAULT_255_2_778
10
76.634849
20
63.676203
11
71.559349
21
63.676203
0
LINE
8
DEFAULT_255_2_778
10
71.559349
20
63.676203
11
71.559349
21
73.708403
0
LINE
8
DEFAULT_255_2_778
10
71.6915949
20
69.0782
11
76.4315949
21
69.0782
0
LINE
8
DEFAULT_255_2_778
10
71.6630251
20
128.9402343
11
76.8509251
21
128.9402343
0
LINE
8
DEFAULT_255_2_778
10
76.8509251
20
128.9402343
11
76.8509251
21
123.8689343
0
LINE
8
DEFAULT_255_2_778
10
77.3145167
20
128.0583166
11
78.8597167
21
128.0583166
0
LINE
8
DEFAULT_255_2_778
10
78.8597167
20
128.0583166
11
78.8597167
21
125.4125166
0
LINE
8
DEFAULT_255_2_778
10
78.8597167
20
125.4125166
11
77.3145167
21
125.4125166
0
LINE
8
DEFAULT_255_2_778
10
77.3145167
20
125.4125166
11
77.3145167
21
128.0583166
0
LINE
8
DEFAULT_255_2_778
10
77.3145167
20
123.0974166
11
78.8597167
21
123.0974166
0
LINE
8
DEFAULT_255_2_778
10
78.8597167
20
123.0974166
11
78.8597167
21
120.4516166
0
LINE
8
DEFAULT_255_2_778
10
78.8597167
20
120.4516166
11
77.3145167
21
120.4516166
0
LINE
8
DEFAULT_255_2_778
10
77.3145167
20
120.4516166
11
77.3145167
21
123.0974166
0
LINE
8
DEFAULT_255_2_778
10
77.3145167
20
112.9551166
11
78.8597167
21
112.9551166
0
LINE
8
DEFAULT_255_2_778
10
78.8597167
20
112.9551166
11
78.8597167
21
110.3093166
0
LINE
8
DEFAULT_255_2_778
10
78.8597167
20
110.3093166
11
77.3145167
21
110.3093166
0
LINE
8
DEFAULT_255_2_778
10
77.3145167
20
110.3093166
11
77.3145167
21
112.9551166
0
LINE
8
DEFAULT_255_2_778
10
77.3145167
20
117.9160166
11
78.8597167
21
117.9160166
0
LINE
8
DEFAULT_255_2_778
10
78.8597167
20
117.9160166
11
78.8597167
21
115.2702166
0
LINE
8
DEFAULT_255_2_778
10
78.8597167
20
115.2702166
11
77.3145167
21
115.2702166
0
LINE
8
DEFAULT_255_2_778
10
77.3145167
20
115.2702166
11
77.3145167
21
117.9160166
0
LINE
8
DEFAULT_255_2_778
10
77.3145167
20
107.7735166
11
78.8597167
21
107.7735166
0
LINE
8
DEFAULT_255_2_778
10
78.8597167
20
107.7735166
11
78.8597167
21
105.1277166
0
LINE
8
DEFAULT_255_2_778
10
78.8597167
20
105.1277166
11
77.3145167
21
105.1277166
0
LINE
8
DEFAULT_255_2_778
10
77.3145167
20
105.1277166
11
77.3145167
21
107.7735166
0
LINE
8
DEFAULT_255_2_778
10
77.3145167
20
102.8126166
11
78.8597167
21
102.8126166
0
LINE
8
DEFAULT_255_2_778
10
78.8597167
20
102.8126166
11
78.8597167
21
100.1668166
0
LINE
8
DEFAULT_255_2_778
10
78.8597167
20
100.1668166
11
77.3145167
21
100.1668166
0
LINE
8
DEFAULT_255_2_778
10
77.3145167
20
100.1668166
11
77.3145167
21
102.8126166
0
LINE
8
DEFAULT_255_2_778
10
77.3145167
20
92.6703166
11
78.8597167
21
92.6703166
0
LINE
8
DEFAULT_255_2_778
10
78.8597167
20
92.6703166
11
78.8597167
21
90.0245166
0
LINE
8
DEFAULT_255_2_778
10
78.8597167
20
90.0245166
11
77.3145167
21
90.0245166
0
LINE
8
DEFAULT_255_2_778
10
77.3145167
20
90.0245166
11
77.3145167
21
92.6703166
0
LINE
8
DEFAULT_255_2_778
10
77.3145167
20
97.6312166
11
78.8597167
21
97.6312166
0
LINE
8
DEFAULT_255_2_778
10
78.8597167
20
97.6312166
11
78.8597167
21
94.9854166
0
LINE
8
DEFAULT_255_2_778
10
78.8597167
20
94.9854166
11
77.3145167
21
94.9854166
0
LINE
8
DEFAULT_255_2_778
10
77.3145167
20
94.9854166
11
77.3145167
21
97.6312166
0
LINE
8
DEFAULT_255_2_778
10
77.3145167
20
87.8197166
11
78.8597167
21
87.8197166
0
LINE
8
DEFAULT_255_2_778
10
78.8597167
20
87.8197166
11
78.8597167
21
85.1739166
0
LINE
8
DEFAULT_255_2_778
10
78.8597167
20
85.1739166
11
77.3145167
21
85.1739166
0
LINE
8
DEFAULT_255_2_778
10
77.3145167
20
85.1739166
11
77.3145167
21
87.8197166
0
LINE
8
DEFAULT_255_2_778
10
77.3145167
20
82.8588166
11
78.8597167
21
82.8588166
0
LINE
8
DEFAULT_255_2_778
10
78.8597167
20
82.8588166
11
78.8597167
21
80.2130166
0
LINE
8
DEFAULT_255_2_778
10
78.8597167
20
80.2130166
11
77.3145167
21
80.2130166
0
LINE
8
DEFAULT_255_2_778
10
77.3145167
20
80.2130166
11
77.3145167
21
82.8588166
0
LINE
8
DEFAULT_255_2_778
10
77.3145167
20
72.7162166
11
78.8597167
21
72.7162166
0
LINE
8
DEFAULT_255_2_778
10
78.8597167
20
72.7162166
11
78.8597167
21
70.0704166
0
LINE
8
DEFAULT_255_2_778
10
78.8597167
20
70.0704166
11
77.3145167
21
70.0704166
0
LINE
8
DEFAULT_255_2_778
10
77.3145167
20
70.0704166
11
77.3145167
21
72.7162166
0
LINE
8
DEFAULT_255_2_778
10
77.3145167
20
77.6772166
11
78.8597167
21
77.6772166
0
LINE
8
DEFAULT_255_2_778
10
78.8597167
20
77.6772166
11
78.8597167
21
75.0314166
0
LINE
8
DEFAULT_255_2_778
10
78.8597167
20
75.0314166
11
77.3145167
21
75.0314166
0
LINE
8
DEFAULT_255_2_778
10
77.3145167
20
75.0314166
11
77.3145167
21
77.6772166
0
LINE
8
DEFAULT_255_2_778
10
77.3145167
20
68.0860166
11
78.8597167
21
68.0860166
0
LINE
8
DEFAULT_255_2_778
10
78.8597167
20
68.0860166
11
78.8597167
21
65.4402166
0
LINE
8
DEFAULT_255_2_778
10
78.8597167
20
65.4402166
11
77.3145167
21
65.4402166
0
LINE
8
DEFAULT_255_2_778
10
77.3145167
20
65.4402166
11
77.3145167
21
68.0860166
0
ARC
8
DEFAULT_255_2_778
10
64.0622273
20
76.1734178
40
1.867647
50
126.2931366
51
179.5276147
0
ARC
8
DEFAULT_255_2_778
10
64.2568627
20
75.9539296
40
2.1599306
50
103.2585391
51
127.0082419
0
ARC
8
DEFAULT_255_2_778
10
64.2906503
20
75.826558
40
2.291659
50
89.9401574
51
103.3504177
0
ARC
8
DEFAULT_255_2_778
10
64.2975845
20
75.8491178
40
2.2691025
50
70.919967
51
90.1146537
0
ARC
8
DEFAULT_255_2_778
10
64.3534044
20
75.9996992
40
2.1085497
50
44.7238049
51
71.015887
0
ARC
8
DEFAULT_255_2_778
10
64.5520998
20
76.1816648
40
1.8393579
50
0.2227524
51
45.0518802
0
ARC
8
DEFAULT_255_2_778
10
64.5239675
20
76.2042513
40
1.8675401
50
306.291467
51
359.5264341
0
ARC
8
DEFAULT_255_2_778
10
64.3292141
20
76.4238611
40
2.1599911
50
283.2584561
51
307.007392
0
ARC
8
DEFAULT_255_2_778
10
64.2954382
20
76.5511881
40
2.2916734
50
269.940137
51
283.3503108
0
ARC
8
DEFAULT_255_2_778
10
64.2885043
20
76.5286411
40
2.2691299
50
250.9201759
51
270.114624
0
ARC
8
DEFAULT_255_2_778
10
64.2326908
20
76.378084
40
2.1086021
50
224.7249499
51
251.0161596
0
ARC
8
DEFAULT_255_2_778
10
64.0338475
20
76.1959935
40
1.8392177
50
180.2236047
51
225.0536982
0
ARC
8
DEFAULT_255_2_778
10
64.0621201
20
71.2124802
40
1.8675401
50
126.291467
51
179.5264341
0
ARC
8
DEFAULT_255_2_778
10
64.2568736
20
70.9928703
40
2.1599911
50
103.2584561
51
127.007392
0
ARC
8
DEFAULT_255_2_778
10
64.2906495
20
70.8655434
40
2.2916734
50
89.940137
51
103.3503108
0
ARC
8
DEFAULT_255_2_778
10
64.2975834
20
70.8880904
40
2.2691299
50
70.9201759
51
90.114624
0
ARC
8
DEFAULT_255_2_778
10
64.3533968
20
71.0386475
40
2.1086021
50
44.7249499
51
71.0161596
0
ARC
8
DEFAULT_255_2_778
10
64.5522402
20
71.220738
40
1.8392177
50
0.2236047
51
45.0536982
0
ARC
8
DEFAULT_255_2_778
10
64.5239675
20
71.2433513
40
1.8675401
50
306.291467
51
359.5264341
0
ARC
8
DEFAULT_255_2_778
10
64.3292141
20
71.4629611
40
2.1599911
50
283.2584561
51
307.007392
0
ARC
8
DEFAULT_255_2_778
10
64.2954382
20
71.5902881
40
2.2916734
50
269.940137
51
283.3503108
0
ARC
8
DEFAULT_255_2_778
10
64.2885043
20
71.5677411
40
2.2691299
50
250.9201759
51
270.114624
0
ARC
8
DEFAULT_255_2_778
10
64.2326908
20
71.417184
40
2.1086021
50
224.7249499
51
251.0161596
0
ARC
8
DEFAULT_255_2_778
10
64.0338475
20
71.2350935
40
1.8392177
50
180.2236047
51
225.0536982
0
ARC
8
DEFAULT_255_2_778
10
64.0621201
20
81.1343802
40
1.8675401
50
126.291467
51
179.5264341
0
ARC
8
DEFAULT_255_2_778
10
64.2568736
20
80.9147703
40
2.1599911
50
103.2584561
51
127.007392
0
ARC
8
DEFAULT_255_2_778
10
64.2906495
20
80.7874434
40
2.2916734
50
89.940137
51
103.3503108
0
ARC
8
DEFAULT_255_2_778
10
64.2975834
20
80.8099904
40
2.2691299
50
70.9201759
51
90.114624
0
ARC
8
DEFAULT_255_2_778
10
64.3533968
20
80.9605475
40
2.1086021
50
44.7249499
51
71.0161596
0
ARC
8
DEFAULT_255_2_778
10
64.5522402
20
81.142638
40
1.8392177
50
0.2236047
51
45.0536982
0
ARC
8
DEFAULT_255_2_778
10
64.5238157
20
81.1652691
40
1.8676921
50
306.2938214
51
359.5259268
0
ARC
8
DEFAULT_255_2_778
10
64.3291659
20
81.3847153
40
2.159951
50
283.2600206
51
307.009795
0
ARC
8
DEFAULT_255_2_778
10
64.2954365
20
81.5118576
40
2.291443
50
269.9401728
51
283.351721
0
ARC
8
DEFAULT_255_2_778
10
64.2885088
20
81.4893446
40
2.2689333
50
250.918338
51
270.1145195
0
ARC
8
DEFAULT_255_2_778
10
64.2327745
20
81.339008
40
2.1086397
50
224.7227525
51
251.0141065
0
ARC
8
DEFAULT_255_2_778
10
64.0339944
20
81.1570095
40
1.8393647
50
180.2240857
51
225.0518024
0
ARC
8
DEFAULT_255_2_778
10
64.062272
20
86.0952624
40
1.8676921
50
126.2938214
51
179.5259268
0
ARC
8
DEFAULT_255_2_778
10
64.2569218
20
85.8758162
40
2.159951
50
103.2600206
51
127.009795
0
ARC
8
DEFAULT_255_2_778
10
64.2906511
20
85.7486739
40
2.291443
50
89.9401728
51
103.351721
0
ARC
8
DEFAULT_255_2_778
10
64.2975788
20
85.7711869
40
2.2689333
50
70.918338
51
90.1145195
0
ARC
8
DEFAULT_255_2_778
10
64.3533131
20
85.9215235
40
2.1086397
50
44.7227525
51
71.0141065
0
ARC
8
DEFAULT_255_2_778
10
64.5520932
20
86.1035219
40
1.8393647
50
0.2240857
51
45.0518024
0
ARC
8
DEFAULT_255_2_778
10
64.5239675
20
86.1261513
40
1.8675401
50
306.291467
51
359.5264341
0
ARC
8
DEFAULT_255_2_778
10
64.3292141
20
86.3457611
40
2.1599911
50
283.2584561
51
307.007392
0
ARC
8
DEFAULT_255_2_778
10
64.2954382
20
86.4730881
40
2.2916734
50
269.940137
51
283.3503108
0
ARC
8
DEFAULT_255_2_778
10
64.2885043
20
86.4505411
40
2.2691299
50
250.9201759
51
270.114624
0
ARC
8
DEFAULT_255_2_778
10
64.2326908
20
86.299984
40
2.1086021
50
224.7249499
51
251.0161596
0
ARC
8
DEFAULT_255_2_778
10
64.0338475
20
86.1178935
40
1.8392177
50
180.2236047
51
225.0536982
0
ARC
8
DEFAULT_255_2_778
10
64.0622273
20
65.7004178
40
1.867647
50
126.2931366
51
179.5276147
0
ARC
8
DEFAULT_255_2_778
10
64.2568627
20
65.4809296
40
2.1599306
50
103.2585391
51
127.0082419
0
ARC
8
DEFAULT_255_2_778
10
64.2906503
20
65.353558
40
2.291659
50
89.9401574
51
103.3504177
0
ARC
8
DEFAULT_255_2_778
10
64.2975845
20
65.3761178
40
2.2691025
50
70.919967
51
90.1146537
0
ARC
8
DEFAULT_255_2_778
10
64.3534044
20
65.5266992
40
2.1085497
50
44.7238049
51
71.015887
0
ARC
8
DEFAULT_255_2_778
10
64.5520998
20
65.7086648
40
1.8393579
50
0.2227524
51
45.0518802
0
ARC
8
DEFAULT_255_2_778
10
64.5239675
20
65.7312513
40
1.8675401
50
306.291467
51
359.5264341
0
ARC
8
DEFAULT_255_2_778
10
64.3292141
20
65.9508611
40
2.1599911
50
283.2584561
51
307.007392
0
ARC
8
DEFAULT_255_2_778
10
64.2954382
20
66.0781881
40
2.2916734
50
269.940137
51
283.3503108
0
ARC
8
DEFAULT_255_2_778
10
64.2885043
20
66.0556411
40
2.2691299
50
250.9201759
51
270.114624
0
ARC
8
DEFAULT_255_2_778
10
64.2326908
20
65.905084
40
2.1086021
50
224.7249499
51
251.0161596
0
ARC
8
DEFAULT_255_2_778
10
64.0338475
20
65.7229935
40
1.8392177
50
180.2236047
51
225.0536982
0
ARC
8
DEFAULT_255_2_778
10
64.0621201
20
106.4904802
40
1.8675401
50
126.291467
51
179.5264341
0
ARC
8
DEFAULT_255_2_778
10
64.2568736
20
106.2708703
40
2.1599911
50
103.2584561
51
127.007392
0
ARC
8
DEFAULT_255_2_778
10
64.2906495
20
106.1435434
40
2.2916734
50
89.940137
51
103.3503108
0
ARC
8
DEFAULT_255_2_778
10
64.2975834
20
106.1660904
40
2.2691299
50
70.9201759
51
90.114624
0
ARC
8
DEFAULT_255_2_778
10
64.3533968
20
106.3166475
40
2.1086021
50
44.7249499
51
71.0161596
0
ARC
8
DEFAULT_255_2_778
10
64.5522402
20
106.498738
40
1.8392177
50
0.2236047
51
45.0536982
0
ARC
8
DEFAULT_255_2_778
10
64.5238603
20
106.5213137
40
1.867647
50
306.2931366
51
359.5276147
0
ARC
8
DEFAULT_255_2_778
10
64.3292249
20
106.7408019
40
2.1599306
50
283.2585391
51
307.0082419
0
ARC
8
DEFAULT_255_2_778
10
64.2954373
20
106.8681735
40
2.291659
50
269.9401574
51
283.3504177
0
ARC
8
DEFAULT_255_2_778
10
64.2885032
20
106.8456137
40
2.2691025
50
250.919967
51
270.1146537
0
ARC
8
DEFAULT_255_2_778
10
64.2326833
20
106.6950323
40
2.1085497
50
224.7238049
51
251.015887
0
ARC
8
DEFAULT_255_2_778
10
64.0339879
20
106.5130667
40
1.8393579
50
180.2227524
51
225.0518802
0
ARC
8
DEFAULT_255_2_778
10
64.062272
20
101.5294624
40
1.8676921
50
126.2938214
51
179.5259268
0
ARC
8
DEFAULT_255_2_778
10
64.2569218
20
101.3100162
40
2.159951
50
103.2600206
51
127.009795
0
ARC
8
DEFAULT_255_2_778
10
64.2906511
20
101.1828739
40
2.291443
50
89.9401728
51
103.351721
0
ARC
8
DEFAULT_255_2_778
10
64.2975788
20
101.2053869
40
2.2689333
50
70.918338
51
90.1145195
0
ARC
8
DEFAULT_255_2_778
10
64.3533131
20
101.3557235
40
2.1086397
50
44.7227525
51
71.0141065
0
ARC
8
DEFAULT_255_2_778
10
64.5520932
20
101.5377219
40
1.8393647
50
0.2240857
51
45.0518024
0
ARC
8
DEFAULT_255_2_778
10
64.5239675
20
101.5603513
40
1.8675401
50
306.291467
51
359.5264341
0
ARC
8
DEFAULT_255_2_778
10
64.3292141
20
101.7799611
40
2.1599911
50
283.2584561
51
307.007392
0
ARC
8
DEFAULT_255_2_778
10
64.2954382
20
101.9072881
40
2.2916734
50
269.940137
51
283.3503108
0
ARC
8
DEFAULT_255_2_778
10
64.2885043
20
101.8847411
40
2.2691299
50
250.9201759
51
270.114624
0
ARC
8
DEFAULT_255_2_778
10
64.2326908
20
101.734184
40
2.1086021
50
224.7249499
51
251.0161596
0
ARC
8
DEFAULT_255_2_778
10
64.0338475
20
101.5520935
40
1.8392177
50
180.2236047
51
225.0536982
0
ARC
8
DEFAULT_255_2_778
10
64.0621201
20
96.5685802
40
1.8675401
50
126.291467
51
179.5264341
0
ARC
8
DEFAULT_255_2_778
10
64.2568736
20
96.3489703
40
2.1599911
50
103.2584561
51
127.007392
0
ARC
8
DEFAULT_255_2_778
10
64.2906495
20
96.2216434
40
2.2916734
50
89.940137
51
103.3503108
0
ARC
8
DEFAULT_255_2_778
10
64.2975834
20
96.2441904
40
2.2691299
50
70.9201759
51
90.114624
0
ARC
8
DEFAULT_255_2_778
10
64.3533968
20
96.3947475
40
2.1086021
50
44.7249499
51
71.0161596
0
ARC
8
DEFAULT_255_2_778
10
64.5522402
20
96.576838
40
1.8392177
50
0.2236047
51
45.0536982
0
ARC
8
DEFAULT_255_2_778
10
64.5238157
20
96.5994691
40
1.8676921
50
306.2938214
51
359.5259268
0
ARC
8
DEFAULT_255_2_778
10
64.3291659
20
96.8189153
40
2.159951
50
283.2600206
51
307.009795
0
ARC
8
DEFAULT_255_2_778
10
64.2954365
20
96.9460576
40
2.291443
50
269.9401728
51
283.351721
0
ARC
8
DEFAULT_255_2_778
10
64.2885088
20
96.9235446
40
2.2689333
50
250.918338
51
270.1145195
0
ARC
8
DEFAULT_255_2_778
10
64.2327745
20
96.773208
40
2.1086397
50
224.7227525
51
251.0141065
0
ARC
8
DEFAULT_255_2_778
10
64.0339944
20
96.5912095
40
1.8393647
50
180.2240857
51
225.0518024
0
ARC
8
DEFAULT_255_2_778
10
64.0622273
20
91.6076178
40
1.867647
50
126.2931366
51
179.5276147
0
ARC
8
DEFAULT_255_2_778
10
64.2568627
20
91.3881296
40
2.1599306
50
103.2585391
51
127.0082419
0
ARC
8
DEFAULT_255_2_778
10
64.2906503
20
91.260758
40
2.291659
50
89.9401574
51
103.3504177
0
ARC
8
DEFAULT_255_2_778
10
64.2975845
20
91.2833178
40
2.2691025
50
70.919967
51
90.1146537
0
ARC
8
DEFAULT_255_2_778
10
64.3534044
20
91.4338992
40
2.1085497
50
44.7238049
51
71.015887
0
ARC
8
DEFAULT_255_2_778
10
64.5520998
20
91.6158648
40
1.8393579
50
0.2227524
51
45.0518802
0
ARC
8
DEFAULT_255_2_778
10
64.5239675
20
91.6384513
40
1.8675401
50
306.291467
51
359.5264341
0
ARC
8
DEFAULT_255_2_778
10
64.3292141
20
91.8580611
40
2.1599911
50
283.2584561
51
307.007392
0
ARC
8
DEFAULT_255_2_778
10
64.2954382
20
91.9853881
40
2.2916734
50
269.940137
51
283.3503108
0
ARC
8
DEFAULT_255_2_778
10
64.2885043
20
91.9628411
40
2.2691299
50
250.9201759
51
270.114624
0
ARC
8
DEFAULT_255_2_778
10
64.2326908
20
91.812284
40
2.1086021
50
224.7249499
51
251.0161596
0
ARC
8
DEFAULT_255_2_778
10
64.0338475
20
91.6301935
40
1.8392177
50
180.2236047
51
225.0536982
0
ARC
8
DEFAULT_255_2_778
10
64.0621201
20
116.9634802
40
1.8675401
50
126.291467
51
179.5264341
0
ARC
8
DEFAULT_255_2_778
10
64.2568736
20
116.7438703
40
2.1599911
50
103.2584561
51
127.007392
0
ARC
8
DEFAULT_255_2_778
10
64.2906495
20
116.6165434
40
2.2916734
50
89.940137
51
103.3503108
0
ARC
8
DEFAULT_255_2_778
10
64.2975834
20
116.6390904
40
2.2691299
50
70.9201759
51
90.114624
0
ARC
8
DEFAULT_255_2_778
10
64.3533968
20
116.7896475
40
2.1086021
50
44.7249499
51
71.0161596
0
ARC
8
DEFAULT_255_2_778
10
64.5522402
20
116.971738
40
1.8392177
50
0.2236047
51
45.0536982
0
ARC
8
DEFAULT_255_2_778
10
64.5238603
20
116.9943137
40
1.867647
50
306.2931366
51
359.5276147
0
ARC
8
DEFAULT_255_2_778
10
64.3292249
20
117.2138019
40
2.1599306
50
283.2585391
51
307.0082419
0
ARC
8
DEFAULT_255_2_778
10
64.2954373
20
117.3411735
40
2.291659
50
269.9401574
51
283.3504177
0
ARC
8
DEFAULT_255_2_778
10
64.2885032
20
117.3186137
40
2.2691025
50
250.919967
51
270.1146537
0
ARC
8
DEFAULT_255_2_778
10
64.2326833
20
117.1680323
40
2.1085497
50
224.7238049
51
251.015887
0
ARC
8
DEFAULT_255_2_778
10
64.0339879
20
116.9860667
40
1.8393579
50
180.2227524
51
225.0518802
0
ARC
8
DEFAULT_255_2_778
10
64.062272
20
112.0024624
40
1.8676921
50
126.2938214
51
179.5259268
0
ARC
8
DEFAULT_255_2_778
10
64.2569218
20
111.7830162
40
2.159951
50
103.2600206
51
127.009795
0
ARC
8
DEFAULT_255_2_778
10
64.2906511
20
111.6558739
40
2.291443
50
89.9401728
51
103.351721
0
ARC
8
DEFAULT_255_2_778
10
64.2975788
20
111.6783869
40
2.2689333
50
70.918338
51
90.1145195
0
ARC
8
DEFAULT_255_2_778
10
64.3533131
20
111.8287235
40
2.1086397
50
44.7227525
51
71.0141065
0
ARC
8
DEFAULT_255_2_778
10
64.5520932
20
112.0107219
40
1.8393647
50
0.2240857
51
45.0518024
0
ARC
8
DEFAULT_255_2_778
10
64.5239675
20
112.0333513
40
1.8675401
50
306.291467
51
359.5264341
0
ARC
8
DEFAULT_255_2_778
10
64.3292141
20
112.2529611
40
2.1599911
50
283.2584561
51
307.007392
0
ARC
8
DEFAULT_255_2_778
10
64.2954382
20
112.3802881
40
2.2916734
50
269.940137
51
283.3503108
0
ARC
8
DEFAULT_255_2_778
10
64.2885043
20
112.3577411
40
2.2691299
50
250.9201759
51
270.114624
0
ARC
8
DEFAULT_255_2_778
10
64.2326908
20
112.207184
40
2.1086021
50
224.7249499
51
251.0161596
0
ARC
8
DEFAULT_255_2_778
10
64.0338475
20
112.0250935
40
1.8392177
50
180.2236047
51
225.0536982
0
ARC
8
DEFAULT_255_2_778
10
64.0621201
20
121.9243802
40
1.8675401
50
126.291467
51
179.5264341
0
ARC
8
DEFAULT_255_2_778
10
64.2568736
20
121.7047703
40
2.1599911
50
103.2584561
51
127.007392
0
ARC
8
DEFAULT_255_2_778
10
64.2906495
20
121.5774434
40
2.2916734
50
89.940137
51
103.3503108
0
ARC
8
DEFAULT_255_2_778
10
64.2975834
20
121.5999904
40
2.2691299
50
70.9201759
51
90.114624
0
ARC
8
DEFAULT_255_2_778
10
64.3533968
20
121.7505475
40
2.1086021
50
44.7249499
51
71.0161596
0
ARC
8
DEFAULT_255_2_778
10
64.5522402
20
121.932638
40
1.8392177
50
0.2236047
51
45.0536982
0
ARC
8
DEFAULT_255_2_778
10
64.5239675
20
121.9552513
40
1.8675401
50
306.291467
51
359.5264341
0
ARC
8
DEFAULT_255_2_778
10
64.3292141
20
122.1748611
40
2.1599911
50
283.2584561
51
307.007392
0
ARC
8
DEFAULT_255_2_778
10
64.2954382
20
122.3021881
40
2.2916734
50
269.940137
51
283.3503108
0
ARC
8
DEFAULT_255_2_778
10
64.2885043
20
122.2796411
40
2.2691299
50
250.9201759
51
270.114624
0
ARC
8
DEFAULT_255_2_778
10
64.2326908
20
122.129084
40
2.1086021
50
224.7249499
51
251.0161596
0
ARC
8
DEFAULT_255_2_778
10
64.0338475
20
121.9469935
40
1.8392177
50
180.2236047
51
225.0536982
0
ARC
8
DEFAULT_255_2_778
10
64.062272
20
126.8852624
40
1.8676921
50
126.2938214
51
179.5259268
0
ARC
8
DEFAULT_255_2_778
10
64.2569218
20
126.6658162
40
2.159951
50
103.2600206
51
127.009795
0
ARC
8
DEFAULT_255_2_778
10
64.2906511
20
126.5386739
40
2.291443
50
89.9401728
51
103.351721
0
ARC
8
DEFAULT_255_2_778
10
64.2975788
20
126.5611869
40
2.2689333
50
70.918338
51
90.1145195
0
ARC
8
DEFAULT_255_2_778
10
64.3533131
20
126.7115235
40
2.1086397
50
44.7227525
51
71.0141065
0
ARC
8
DEFAULT_255_2_778
10
64.5520932
20
126.8935219
40
1.8393647
50
0.2240857
51
45.0518024
0
ARC
8
DEFAULT_255_2_778
10
64.5239675
20
126.9161513
40
1.8675401
50
306.291467
51
359.5264341
0
ARC
8
DEFAULT_255_2_778
10
64.3292141
20
127.1357611
40
2.1599911
50
283.2584561
51
307.007392
0
ARC
8
DEFAULT_255_2_778
10
64.2954382
20
127.2630881
40
2.2916734
50
269.940137
51
283.3503108
0
ARC
8
DEFAULT_255_2_778
10
64.2885043
20
127.2405411
40
2.2691299
50
250.9201759
51
270.114624
0
ARC
8
DEFAULT_255_2_778
10
64.2326908
20
127.089984
40
2.1086021
50
224.7249499
51
251.0161596
0
ARC
8
DEFAULT_255_2_778
10
64.0338475
20
126.9078935
40
1.8392177
50
180.2236047
51
225.0536982
0
LINE
8
DEFAULT_255_2_778
10
67.5905438
20
129.3812157
11
67.5905438
21
63.2354157
0
LINE
8
DEFAULT_255_2_778
10
62.1946438
20
76.1888157
11
62.1946438
21
76.1888157
0
LINE
8
DEFAULT_255_2_778
10
62.1946438
20
71.2279157
11
62.1946438
21
71.2279157
0
LINE
8
DEFAULT_255_2_778
10
62.1946438
20
81.1498157
11
62.1946438
21
81.1498157
0
LINE
8
DEFAULT_255_2_778
10
62.1946438
20
86.1107157
11
62.1946438
21
86.1107157
0
LINE
8
DEFAULT_255_2_778
10
62.1946438
20
65.7158157
11
62.1946438
21
65.7158157
0
LINE
8
DEFAULT_255_2_778
10
62.1946438
20
106.5059157
11
62.1946438
21
106.5059157
0
LINE
8
DEFAULT_255_2_778
10
62.1946438
20
101.5449157
11
62.1946438
21
101.5449157
0
LINE
8
DEFAULT_255_2_778
10
62.1946438
20
96.5840157
11
62.1946438
21
96.5840157
0
LINE
8
DEFAULT_255_2_778
10
62.1946438
20
91.6230157
11
62.1946438
21
91.6230157
0
LINE
8
DEFAULT_255_2_778
10
62.1946438
20
116.9789157
11
62.1946438
21
116.9789157
0
LINE
8
DEFAULT_255_2_778
10
62.1946438
20
112.0179157
11
62.1946438
21
112.0179157
0
LINE
8
DEFAULT_255_2_778
10
62.1946438
20
121.9398157
11
62.1946438
21
121.9398157
0
LINE
8
DEFAULT_255_2_778
10
62.1946438
20
126.9007157
11
62.1946438
21
126.9007157
0
LINE
8
DEFAULT_255_2_778
10
69.0759938
20
127.75375
11
69.0759938
21
125.63285
0
LINE
8
DEFAULT_255_2_778
10
69.0759938
20
125.63285
11
68.8060938
21
125.63285
0
LINE
8
DEFAULT_255_2_778
10
68.8060938
20
125.63285
11
68.8060938
21
127.42015
0
LINE
8
DEFAULT_255_2_778
10
68.8060938
20
127.42015
11
68.2647938
21
127.22145
0
LINE
8
DEFAULT_255_2_778
10
68.2647938
20
127.22145
11
68.2647938
21
127.46485
0
LINE
8
DEFAULT_255_2_778
10
68.2647938
20
127.46485
11
69.0338938
21
127.75325
0
LINE
8
DEFAULT_255_2_778
10
69.0338938
20
127.75325
11
69.0759938
21
127.75325
0
LINE
8
DEFAULT_255_2_778
10
69.0759938
20
127.75325
11
69.0759938
21
127.75375
0
ARC
8
DEFAULT_255_2_778
10
66.840506
20
123.4957197
40
2.804469
50
318.3394136
51
322.5149334
0
ARC
8
DEFAULT_255_2_778
10
68.1424191
20
122.504657
40
1.1682844
50
322.2272951
51
329.9258672
0
ARC
8
DEFAULT_255_2_778
10
68.5921383
20
122.2348187
40
0.6439374
50
330.6509345
51
331.832011
0
ARC
8
DEFAULT_255_2_778
10
68.7223972
20
122.1712338
40
0.4991193
50
331.2080421
51
359.7714289
0
ARC
8
DEFAULT_255_2_778
10
68.8426954
20
122.1835974
40
0.379089
50
357.8298918
51
42.6511534
0
ARC
8
DEFAULT_255_2_778
10
68.8703243
20
122.1963412
40
0.3502586
50
44.1802542
51
92.5873884
0
ARC
8
DEFAULT_255_2_778
10
68.8410955
20
122.0684519
40
0.4779791
50
88.3914841
51
115.9078564
0
ARC
8
DEFAULT_255_2_778
10
68.7910338
20
122.190559
40
0.3463707
50
117.2844596
51
135.70622
0
ARC
8
DEFAULT_255_2_778
10
68.8375452
20
122.1571674
40
0.403072
50
136.925934
51
176.3416798
0
ARC
8
DEFAULT_255_2_778
10
69.0954279
20
122.1169645
40
0.6634167
50
174.2973059
51
180.1055217
0
ARC
8
DEFAULT_255_2_778
10
68.8354945
20
122.1303958
40
0.6722417
50
152.4298587
51
181.2489982
0
ARC
8
DEFAULT_255_2_778
10
68.7583921
20
122.1585451
40
0.5909638
50
133.5383642
51
151.3892242
0
ARC
8
DEFAULT_255_2_778
10
68.7958822
20
122.1115428
40
0.6508819
50
95.6806485
51
133.0806117
0
ARC
8
DEFAULT_255_2_778
10
68.8518282
20
121.7861948
40
0.9804508
50
89.8606635
51
97.0521545
0
ARC
8
DEFAULT_255_2_778
10
68.8671595
20
121.9375654
40
0.8291784
50
71.8674246
51
90.8946657
0
ARC
8
DEFAULT_255_2_778
10
68.9465898
20
122.1941392
40
0.5606433
50
48.2088058
51
71.4214005
0
ARC
8
DEFAULT_255_2_778
10
68.9669449
20
122.2243934
40
0.5245451
50
358.3435122
51
47.664216
0
ARC
8
DEFAULT_255_2_778
10
68.7340709
20
122.2012739
40
0.7572416
50
359.9976392
51
0.6020242
0
ARC
8
DEFAULT_255_2_778
10
68.8495128
20
122.2137224
40
0.6419211
50
336.8992554
51
358.8860327
0
ARC
8
DEFAULT_255_2_778
10
68.3061175
20
122.4340696
40
1.2282431
50
325.4956654
51
337.3900818
0
ARC
8
DEFAULT_255_2_778
10
67.4917231
20
122.9830179
40
2.2103521
50
318.3304287
51
325.7276558
0
ARC
8
DEFAULT_255_2_778
10
66.8450799
20
123.5368082
40
3.0616105
50
317.2616681
51
318.6342301
0
LINE
8
DEFAULT_255_2_778
10
69.5890125
20
120.8457427
11
69.5890125
21
120.6269427
0
LINE
8
DEFAULT_255_2_778
10
69.5890125
20
120.6269427
11
68.2044125
21
120.6269427
0
LINE
8
DEFAULT_255_2_778
10
68.2044125
20
120.6269427
11
68.2044125
21
120.8198427
0
LINE
8
DEFAULT_255_2_778
10
68.2044125
20
120.8198427
11
68.9357125
21
121.6315427
0
LINE
8
DEFAULT_255_2_778
10
68.4320125
20
122.1157427
11
68.1634125
21
122.1157427
0
LINE
8
DEFAULT_255_2_778
10
69.0937125
20
121.4590427
11
68.5277125
21
120.8457427
0
LINE
8
DEFAULT_255_2_778
10
68.5277125
20
120.8457427
11
69.5884125
21
120.8457427
0
LINE
8
DEFAULT_255_2_778
10
69.5884125
20
120.8457427
11
69.5890125
21
120.8457427
0
ARC
8
DEFAULT_255_2_778
10
68.7759493
20
117.3303356
40
0.5147005
50
269.4089159
51
294.2508231
0
ARC
8
DEFAULT_255_2_778
10
68.8360032
20
117.178417
40
0.3516048
50
295.4964516
51
311.6429044
0
ARC
8
DEFAULT_255_2_778
10
68.8443857
20
117.1626951
40
0.3343119
50
312.359766
51
2.6518078
0
ARC
8
DEFAULT_255_2_778
10
68.6953006
20
117.1908893
40
0.4832066
50
358.4907502
51
21.2277484
0
ARC
8
DEFAULT_255_2_778
10
68.8769877
20
117.2514431
40
0.2920715
50
23.0601742
51
84.907951
0
ARC
8
DEFAULT_255_2_778
10
68.8113679
20
116.9480337
40
0.6013369
50
81.2436852
51
90.2980648
0
ARC
8
DEFAULT_255_2_778
10
68.7939759
20
117.1404707
40
0.4091405
50
88.0021195
51
122.2416796
0
ARC
8
DEFAULT_255_2_778
10
68.7613611
20
117.2090598
40
0.3338491
50
123.7874706
51
133.7643633
0
ARC
8
DEFAULT_255_2_778
10
68.7732373
20
117.2023521
40
0.3469304
50
134.4146174
51
182.5093831
0
ARC
8
DEFAULT_255_2_778
10
68.6958945
20
117.1990226
40
0.5378857
50
131.1795137
51
181.263451
0
ARC
8
DEFAULT_255_2_778
10
68.7759679
20
117.1144358
40
0.6542879
50
91.3678241
51
131.5800216
0
ARC
8
DEFAULT_255_2_778
10
68.8078925
20
116.8469114
40
0.9228514
50
89.9784501
51
92.9530418
0
ARC
8
DEFAULT_255_2_778
10
68.8211024
20
116.9368165
40
0.8330453
50
72.2628929
51
90.8847199
0
ARC
8
DEFAULT_255_2_778
10
68.9036833
20
117.206526
40
0.5510095
50
47.3447198
51
71.8977468
0
ARC
8
DEFAULT_255_2_778
10
68.9073218
20
117.2233115
40
0.5362699
50
4.5243525
51
46.4154026
0
ARC
8
DEFAULT_255_2_778
10
68.6128428
20
117.1742341
40
0.8340985
50
359.8851693
51
6.2896764
0
ARC
8
DEFAULT_255_2_778
10
68.9833219
20
117.1793564
40
0.4636675
50
323.8536906
51
359.1604415
0
ARC
8
DEFAULT_255_2_778
10
68.9162924
20
117.2128183
40
0.5376779
50
291.6475426
51
325.1875703
0
ARC
8
DEFAULT_255_2_778
10
68.9721962
20
116.213779
40
0.5192053
50
37.5850825
51
74.0767794
0
ARC
8
DEFAULT_255_2_778
10
68.9719262
20
116.2346533
40
0.5069625
50
358.2037596
51
35.6966111
0
ARC
8
DEFAULT_255_2_778
10
68.840239
20
116.2047364
40
0.6385546
50
333.7970932
51
1.2586211
0
ARC
8
DEFAULT_255_2_778
10
68.9361986
20
116.1691057
40
0.5368242
50
311.6470455
51
332.6868214
0
ARC
8
DEFAULT_255_2_778
10
68.8579292
20
116.2639609
40
0.6597336
50
274.4173627
51
311.2520557
0
ARC
8
DEFAULT_255_2_778
10
68.8113559
20
116.5664295
40
0.9651684
50
269.9099876
51
275.7910747
0
ARC
8
DEFAULT_255_2_778
10
68.7962806
20
116.4275685
40
0.8264173
50
249.4846819
51
270.9400943
0
ARC
8
DEFAULT_255_2_778
10
68.7318406
20
116.2337581
40
0.6223613
50
229.2805447
51
248.7878228
0
ARC
8
DEFAULT_255_2_778
10
68.6724283
20
116.1675604
40
0.5334344
50
177.9370727
51
229.478702
0
ARC
8
DEFAULT_255_2_778
10
68.7538289
20
116.1717065
40
0.344918
50
177.4981887
51
226.8508798
0
ARC
8
DEFAULT_255_2_778
10
68.7807133
20
116.219139
40
0.3981166
50
228.6969086
51
268.9145565
0
ARC
8
DEFAULT_255_2_778
10
68.8091712
20
116.4487713
40
0.6287088
50
266.7174749
51
270.0335705
0
ARC
8
DEFAULT_255_2_778
10
68.8224647
20
116.3156772
40
0.4957832
50
268.5061211
51
292.5474349
0
ARC
8
DEFAULT_255_2_778
10
68.885198
20
116.1476262
40
0.3165895
50
293.7240072
51
314.459676
0
ARC
8
DEFAULT_255_2_778
10
68.8479131
20
116.1707322
40
0.3593473
50
316.1226287
51
356.3145132
0
ARC
8
DEFAULT_255_2_778
10
68.5917869
20
116.2116455
40
0.6180541
50
354.0552116
51
0.12209
0
ARC
8
DEFAULT_255_2_778
10
68.8157155
20
116.2267584
40
0.3943655
50
357.995231
51
30.6144341
0
ARC
8
DEFAULT_255_2_778
10
68.8953878
20
116.2632961
40
0.3073271
50
32.3166285
51
49.0920623
0
ARC
8
DEFAULT_255_2_778
10
68.8311642
20
116.1735003
40
0.4173742
50
50.5012932
51
82.184203
0
ARC
8
DEFAULT_255_2_778
10
68.7636729
20
115.8347846
40
0.7624053
50
80.6206472
51
89.5140145
0
LINE
8
DEFAULT_255_2_778
10
68.5690396
20
116.5968625
11
68.5690396
21
116.8156625
0
LINE
8
DEFAULT_255_2_778
10
68.5690396
20
116.8156625
11
68.7706396
21
116.8156625
0
LINE
8
DEFAULT_255_2_778
10
68.4266396
20
117.1871625
11
68.1581396
21
117.1871625
0
LINE
8
DEFAULT_255_2_778
10
68.1393396
20
116.1867625
11
68.4092396
21
116.1867625
0
LINE
8
DEFAULT_255_2_778
10
68.7701396
20
116.5971625
11
68.5685396
21
116.5971625
0
LINE
8
DEFAULT_255_2_778
10
68.5685396
20
116.5971625
11
68.5690396
21
116.5968625
0
LINE
8
DEFAULT_255_2_778
10
69.2209709
20
112.6402906
11
69.2209709
21
111.2384906
0
LINE
8
DEFAULT_255_2_778
10
69.2209709
20
111.2384906
11
69.5141709
21
111.2384906
0
LINE
8
DEFAULT_255_2_778
10
69.5141709
20
111.2384906
11
69.5141709
21
111.0196906
0
LINE
8
DEFAULT_255_2_778
10
69.5141709
20
111.0196906
11
69.2209709
21
111.0196906
0
LINE
8
DEFAULT_255_2_778
10
69.2209709
20
111.0196906
11
69.2209709
21
110.5296906
0
LINE
8
DEFAULT_255_2_778
10
69.2209709
20
110.5296906
11
68.9510709
21
110.5296906
0
LINE
8
DEFAULT_255_2_778
10
68.9510709
20
110.5296906
11
68.9510709
21
111.0196906
0
LINE
8
DEFAULT_255_2_778
10
68.9510709
20
111.0196906
11
67.9890709
21
111.0196906
0
LINE
8
DEFAULT_255_2_778
10
67.9890709
20
111.0196906
11
67.9890709
21
111.1776906
0
LINE
8
DEFAULT_255_2_778
10
67.9890709
20
111.1776906
11
68.9351709
21
112.6402906
0
LINE
8
DEFAULT_255_2_778
10
68.9351709
20
112.6402906
11
69.2212709
21
112.6402906
0
LINE
8
DEFAULT_255_2_778
10
69.2212709
20
112.6402906
11
69.2209709
21
112.6402906
0
LINE
8
DEFAULT_255_2_778
10
68.9190709
20
112.2155906
11
68.2935709
21
111.2384906
0
LINE
8
DEFAULT_255_2_778
10
68.2935709
20
111.2384906
11
68.9510709
21
111.2384906
0
LINE
8
DEFAULT_255_2_778
10
68.9510709
20
111.2384906
11
68.9510709
21
112.2735906
0
LINE
8
DEFAULT_255_2_778
10
68.9510709
20
112.2735906
11
68.9190709
21
112.2155906
0
LINE
8
DEFAULT_255_2_778
10
68.9190709
20
112.2155906
11
68.9190709
21
112.2155906
0
ARC
8
DEFAULT_255_2_778
10
68.8424984
20
106.1383649
40
0.6827738
50
89.0392118
51
119.9868478
0
ARC
8
DEFAULT_255_2_778
10
68.8680506
20
106.1765092
40
0.6446877
50
63.5841074
51
91.2535209
0
ARC
8
DEFAULT_255_2_778
10
68.9016469
20
106.2680274
40
0.5478816
50
41.4271467
51
62.472752
0
ARC
8
DEFAULT_255_2_778
10
68.8080905
20
106.1933951
40
0.6674381
50
8.1338446
51
40.9168762
0
ARC
8
DEFAULT_255_2_778
10
68.4343333
20
106.1198865
40
1.0480246
50
359.7406556
51
9.2211801
0
ARC
8
DEFAULT_255_2_778
10
68.578656
20
106.1021664
40
0.9037844
50
342.5838344
51
0.8226654
0
ARC
8
DEFAULT_255_2_778
10
68.859552
20
106.0174884
40
0.6104297
50
317.0213498
51
342.2760604
0
ARC
8
DEFAULT_255_2_778
10
68.8777814
20
106.0120089
40
0.5934173
50
276.5237389
51
316.2084933
0
ARC
8
DEFAULT_255_2_778
10
68.816463
20
106.3391021
40
0.9256642
50
269.8133313
51
277.9944883
0
ARC
8
DEFAULT_255_2_778
10
68.7996859
20
106.168134
40
0.7548168
50
247.5940303
51
271.0446387
0
ARC
8
DEFAULT_255_2_778
10
68.7441681
20
106.0109103
40
0.5883638
50
228.7518363
51
246.7563315
0
ARC
8
DEFAULT_255_2_778
10
68.754401
20
106.0134769
40
0.5970703
50
187.5491206
51
228.1759109
0
ARC
8
DEFAULT_255_2_778
10
69.024417
20
106.07502
40
0.8732047
50
185.0838173
51
189.2249184
0
ARC
8
DEFAULT_255_2_778
10
68.8991831
20
106.0510717
40
0.493437
50
186.2161393
51
211.3469487
0
ARC
8
DEFAULT_255_2_778
10
68.7592911
20
105.9747671
40
0.3343562
50
212.650737
51
228.5016477
0
ARC
8
DEFAULT_255_2_778
10
68.78881
20
106.0228555
40
0.3900544
50
229.9346479
51
269.7494482
0
ARC
8
DEFAULT_255_2_778
10
68.8132549
20
106.240683
40
0.6084404
50
267.5366836
51
270.0181072
0
ARC
8
DEFAULT_255_2_778
10
68.8309448
20
105.994426
40
0.3626058
50
267.2341157
51
319.6888833
0
ARC
8
DEFAULT_255_2_778
10
68.7417289
20
106.0513518
40
0.4676831
50
321.442131
51
353.6314788
0
ARC
8
DEFAULT_255_2_778
10
68.4157597
20
106.1088437
40
0.7982936
50
352.1255295
51
0.2224197
0
ARC
8
DEFAULT_255_2_778
10
68.6684338
20
106.125569
40
0.5457836
50
358.5693745
51
25.5766413
0
ARC
8
DEFAULT_255_2_778
10
68.7895545
20
106.1738563
40
0.4157769
50
26.7803666
51
41.9772644
0
ARC
8
DEFAULT_255_2_778
10
68.8080914
20
106.1881289
40
0.3924543
50
42.2382799
51
92.3868431
0
ARC
8
DEFAULT_255_2_778
10
68.7789822
20
106.0466785
40
0.5337169
50
88.6295118
51
110.2803548
0
ARC
8
DEFAULT_255_2_778
10
68.7125665
20
106.2448547
40
0.3248682
50
111.4078043
51
127.2230977
0
LINE
8
DEFAULT_255_2_778
10
68.4446472
20
106.4456427
11
68.2298472
21
106.5006427
0
LINE
8
DEFAULT_255_2_778
10
68.2298472
20
106.5006427
11
68.3372472
21
107.5531427
0
LINE
8
DEFAULT_255_2_778
10
68.3372472
20
107.5531427
11
69.4198472
21
107.5531427
0
LINE
8
DEFAULT_255_2_778
10
69.4198472
20
107.5531427
11
69.4198472
21
107.3052427
0
LINE
8
DEFAULT_255_2_778
10
69.4198472
20
107.3052427
11
68.5650472
21
107.3052427
0
LINE
8
DEFAULT_255_2_778
10
68.5650472
20
107.3052427
11
68.5012472
21
106.7297427
0
LINE
8
DEFAULT_255_2_778
10
68.1546472
20
105.9976427
11
68.4086472
21
105.9976427
0
LINE
8
DEFAULT_255_2_778
10
68.5160472
20
106.5035427
11
68.4448472
21
106.4456427
0
LINE
8
DEFAULT_255_2_778
10
68.4448472
20
106.4456427
11
68.4446472
21
106.4456427
0
ARC
8
DEFAULT_255_2_778
10
69.2553605
20
101.4633202
40
0.8376188
50
90.1439382
51
110.9254272
0
ARC
8
DEFAULT_255_2_778
10
69.1829856
20
101.67144
40
0.6174131
50
111.5498871
51
134.017819
0
ARC
8
DEFAULT_255_2_778
10
69.2415843
20
101.6250398
40
0.6915706
50
134.8378103
51
166.8316322
0
ARC
8
DEFAULT_255_2_778
10
69.6103509
20
101.5187272
40
1.0750369
50
165.7919084
51
175.1544049
0
ARC
8
DEFAULT_255_2_778
10
68.9601679
20
101.2387288
40
0.5610251
50
90.9971366
51
138.6278862
0
ARC
8
DEFAULT_255_2_778
10
68.9944047
20
100.9713972
40
0.8294395
50
89.9757141
51
93.0408458
0
ARC
8
DEFAULT_255_2_778
10
69.0161585
20
101.2524782
40
0.5487757
50
40.1927158
51
92.2351028
0
ARC
8
DEFAULT_255_2_778
10
68.8954705
20
101.1595523
40
0.7009713
50
5.3776288
51
39.6284535
0
ARC
8
DEFAULT_255_2_778
10
68.5718264
20
101.1071658
40
1.0283323
50
359.8813568
51
6.5937002
0
ARC
8
DEFAULT_255_2_778
10
68.6966546
20
101.0918371
40
0.9035981
50
341.6501495
51
0.8369791
0
ARC
8
DEFAULT_255_2_778
10
68.9461707
20
101.0144813
40
0.6424367
50
317.835265
51
341.1926348
0
ARC
8
DEFAULT_255_2_778
10
68.9793912
20
100.9892285
40
0.6008724
50
270.7259257
51
317.4937156
0
ARC
8
DEFAULT_255_2_778
10
68.9458443
20
101.2629357
40
0.8754994
50
269.9811496
51
272.6946259
0
ARC
8
DEFAULT_255_2_778
10
68.929871
20
100.9906979
40
0.6034654
50
217.8953851
51
271.4893953
0
ARC
8
DEFAULT_255_2_778
10
69.1140901
20
101.1436638
40
0.8428277
50
187.6468827
51
218.4092687
0
ARC
8
DEFAULT_255_2_778
10
69.5024859
20
101.2151959
40
1.2374374
50
179.7990233
51
188.5365222
0
ARC
8
DEFAULT_255_2_778
10
70.4386733
20
101.3351808
40
2.1736539
50
171.2005579
51
180.3332984
0
ARC
8
DEFAULT_255_2_778
10
69.6400261
20
101.4630157
40
1.3648574
50
157.3245822
51
171.3750338
0
ARC
8
DEFAULT_255_2_778
10
69.2555199
20
101.620343
40
0.9494259
50
141.348555
51
157.1396369
0
ARC
8
DEFAULT_255_2_778
10
69.1495272
20
101.6939485
40
0.8207236
50
101.6207003
51
140.7399259
0
ARC
8
DEFAULT_255_2_778
10
69.2652829
20
101.2361422
40
1.2926362
50
90.4621633
51
102.5589298
0
ARC
8
DEFAULT_255_2_778
10
68.948808
20
101.1485064
40
0.429031
50
89.8733665
51
126.1278129
0
ARC
8
DEFAULT_255_2_778
10
68.9387628
20
101.1397508
40
0.4303852
50
124.3601722
51
159.8745469
0
ARC
8
DEFAULT_255_2_778
10
69.3812685
20
101.1761751
40
0.8467115
50
179.1228921
51
197.0646232
0
ARC
8
DEFAULT_255_2_778
10
69.0997102
20
101.0946464
40
0.5536441
50
197.5493689
51
216.0622124
0
ARC
8
DEFAULT_255_2_778
10
68.947009
20
100.9612893
40
0.3521573
50
213.1464569
51
269.714833
0
ARC
8
DEFAULT_255_2_778
10
68.9594856
20
100.9504873
40
0.3416473
50
267.6129948
51
322.5065166
0
ARC
8
DEFAULT_255_2_778
10
68.8226629
20
101.0467331
40
0.5088346
50
323.2853455
51
355.5705582
0
ARC
8
DEFAULT_255_2_778
10
68.5327124
20
101.0901585
40
0.8015454
50
354.0762471
51
0.1127914
0
ARC
8
DEFAULT_255_2_778
10
68.6969723
20
101.1050115
40
0.6374222
50
358.8066632
51
21.5148702
0
ARC
8
DEFAULT_255_2_778
10
68.875412
20
101.1671654
40
0.4486861
50
22.4877501
51
38.005235
0
ARC
8
DEFAULT_255_2_778
10
68.9594916
20
101.2401192
40
0.3375635
50
37.0353859
51
91.6866026
0
LINE
8
DEFAULT_255_2_778
10
69.2545563
20
102.5284364
11
69.3024563
21
102.5284364
0
LINE
8
DEFAULT_255_2_778
10
69.3024563
20
102.5284364
11
69.3024563
21
102.3009364
0
LINE
8
DEFAULT_255_2_778
10
69.3024563
20
102.3009364
11
69.2532563
21
102.3009364
0
LINE
8
DEFAULT_255_2_778
10
68.2650563
20
101.2195364
11
68.2650563
21
101.3225364
0
LINE
8
DEFAULT_255_2_778
10
69.2548563
20
102.5287364
11
69.2545563
21
102.5284364
0
LINE
8
DEFAULT_255_2_778
10
68.5346563
20
101.2878364
11
68.5346563
21
101.1891364
0
LINE
8
DEFAULT_255_2_778
10
68.9495563
20
101.5775364
11
68.9497563
21
101.5775364
0
LINE
8
DEFAULT_255_2_778
10
69.6927219
20
97.5370906
11
69.6927219
21
97.3862906
0
LINE
8
DEFAULT_255_2_778
10
69.6927219
20
97.3862906
11
68.8177219
21
95.4264906
0
LINE
8
DEFAULT_255_2_778
10
68.8177219
20
95.4264906
11
68.5362219
21
95.4264906
0
LINE
8
DEFAULT_255_2_778
10
68.5362219
20
95.4264906
11
69.4082219
21
97.3166906
0
LINE
8
DEFAULT_255_2_778
10
69.4082219
20
97.3166906
11
68.2647219
21
97.3166906
0
LINE
8
DEFAULT_255_2_778
10
68.2647219
20
97.3166906
11
68.2647219
21
97.5370906
0
LINE
8
DEFAULT_255_2_778
10
68.2647219
20
97.5370906
11
69.6927219
21
97.5370906
0
LINE
8
DEFAULT_255_2_778
10
69.6927219
20
97.5370906
11
69.6927219
21
97.5370906
0
ARC
8
DEFAULT_255_2_778
10
69.04883
20
91.7519758
40
0.4907209
50
326.111791
51
0.897518
0
ARC
8
DEFAULT_255_2_778
10
68.9883001
20
91.7975883
40
0.5664157
50
295.3143659
51
325.6956116
0
ARC
8
DEFAULT_255_2_778
10
69.0009778
20
90.7263388
40
0.6044893
50
35.6159232
51
67.6860985
0
ARC
8
DEFAULT_255_2_778
10
69.0680048
20
90.7760951
40
0.5210268
50
359.2816094
51
35.4602439
0
ARC
8
DEFAULT_255_2_778
10
68.9971142
20
90.7547485
40
0.5920618
50
330.2702964
51
1.4337513
0
ARC
8
DEFAULT_255_2_778
10
69.0561762
20
90.7336316
40
0.5304149
50
310.9901284
51
329.0871677
0
ARC
8
DEFAULT_255_2_778
10
68.9757256
20
90.8343618
40
0.6592399
50
275.9163857
51
310.5254953
0
ARC
8
DEFAULT_255_2_778
10
68.9197273
20
91.1628414
40
0.9919823
50
269.8534842
51
277.1780162
0
ARC
8
DEFAULT_255_2_778
10
68.9038936
20
91.0219717
40
0.8512131
50
251.0555789
51
270.8950731
0
ARC
8
DEFAULT_255_2_778
10
68.8293652
20
90.7870402
40
0.6048389
50
228.5257671
51
250.5081044
0
ARC
8
DEFAULT_255_2_778
10
68.795124
20
90.7440742
40
0.5499762
50
178.6903211
51
228.2340396
0
ARC
8
DEFAULT_255_2_778
10
69.0437798
20
90.7693327
40
0.7985891
50
179.9978636
51
180.9103611
0
ARC
8
DEFAULT_255_2_778
10
68.7811211
20
90.7752614
40
0.5359629
50
145.6000405
51
180.6306259
0
ARC
8
DEFAULT_255_2_778
10
68.8195991
20
90.746816
40
0.5837849
50
112.3199083
51
145.4300566
0
ARC
8
DEFAULT_255_2_778
10
68.8364985
20
91.7856606
40
0.5529315
50
213.5888631
51
244.4351488
0
ARC
8
DEFAULT_255_2_778
10
68.7915895
20
91.7520784
40
0.4969522
50
179.1601635
51
213.2280031
0
ARC
8
DEFAULT_255_2_778
10
68.8971364
20
91.773604
40
0.602614
50
152.8894437
51
181.3541944
0
ARC
8
DEFAULT_255_2_778
10
68.8052963
20
91.8091151
40
0.5047857
50
132.2506952
51
151.7267394
0
ARC
8
DEFAULT_255_2_778
10
68.8689383
20
91.7306777
40
0.6056633
50
94.4397045
51
131.7179983
0
ARC
8
DEFAULT_255_2_778
10
68.9156356
20
91.4322268
40
0.9071368
50
89.9017824
51
95.9212597
0
ARC
8
DEFAULT_255_2_778
10
68.9308881
20
91.6055423
40
0.733948
50
67.6461915
51
91.0693591
0
ARC
8
DEFAULT_255_2_778
10
68.9875986
20
91.7655564
40
0.5644527
50
47.6576764
51
66.7926397
0
ARC
8
DEFAULT_255_2_778
10
69.0065722
20
91.7918701
40
0.5322364
50
0.9142993
51
47.2593813
0
ARC
8
DEFAULT_255_2_778
10
68.7513288
20
91.7596879
40
0.7884619
50
359.9763514
51
2.9570785
0
ARC
8
DEFAULT_255_2_778
10
68.9321819
20
90.7900319
40
0.3885857
50
357.8365164
51
44.7833277
0
ARC
8
DEFAULT_255_2_778
10
68.9308186
20
90.7769782
40
0.3988352
50
45.9764737
51
92.4038118
0
ARC
8
DEFAULT_255_2_778
10
68.8985334
20
90.7728167
40
0.4029463
50
87.7873331
51
127.8091408
0
ARC
8
DEFAULT_255_2_778
10
68.8815963
20
90.8081765
40
0.3647212
50
129.1124344
51
135.1577082
0
ARC
8
DEFAULT_255_2_778
10
68.9059428
20
90.7928929
40
0.3928124
50
136.0812264
51
182.4552323
0
ARC
8
DEFAULT_255_2_778
10
69.1309518
20
90.7751868
40
0.6174614
50
179.9184781
51
179.9836981
0
ARC
8
DEFAULT_255_2_778
10
68.917603
20
90.7613865
40
0.4043539
50
178.0192529
51
211.6673329
0
ARC
8
DEFAULT_255_2_778
10
68.8469025
20
90.7283937
40
0.326984
50
213.2509199
51
226.0804267
0
ARC
8
DEFAULT_255_2_778
10
68.8789359
20
90.7745101
40
0.3825262
50
227.4157653
51
267.0973817
0
ARC
8
DEFAULT_255_2_778
10
68.9160329
20
91.0256558
40
0.635694
50
264.9038063
51
270.0863262
0
ARC
8
DEFAULT_255_2_778
10
68.9304536
20
90.8520653
40
0.4622989
50
268.3312121
51
296.5231413
0
ARC
8
DEFAULT_255_2_778
10
68.9788181
20
90.7362017
40
0.3371382
50
297.9620079
51
313.9945167
0
ARC
8
DEFAULT_255_2_778
10
68.9529868
20
90.7531223
40
0.3673165
50
315.060002
51
0.9341533
0
ARC
8
DEFAULT_255_2_778
10
68.7465434
20
90.7755755
40
0.5739473
50
358.3561422
51
0.0086851
0
ARC
8
DEFAULT_255_2_778
10
68.9025097
20
91.7732233
40
0.3463421
50
87.6037008
51
134.2372653
0
ARC
8
DEFAULT_255_2_778
10
68.9156798
20
91.7777975
40
0.3524789
50
136.2902236
51
180.8864746
0
ARC
8
DEFAULT_255_2_778
10
69.1217691
20
91.7555442
40
0.5587786
50
178.2771094
51
180.0083801
0
ARC
8
DEFAULT_255_2_778
10
68.9198244
20
91.7399005
40
0.3571729
50
177.5028356
51
223.2079951
0
ARC
8
DEFAULT_255_2_778
10
68.9012359
20
91.7390398
40
0.3432483
50
225.2280438
51
272.6641605
0
ARC
8
DEFAULT_255_2_778
10
68.9332254
20
91.7388318
40
0.3430443
50
267.3208689
51
314.7869267
0
ARC
8
DEFAULT_255_2_778
10
68.9148658
20
91.739923
40
0.3569633
50
316.7554315
51
2.4950166
0
ARC
8
DEFAULT_255_2_778
10
68.9135721
20
91.7693155
40
0.3581866
50
357.7835137
51
43.9399297
0
ARC
8
DEFAULT_255_2_778
10
68.9283723
20
91.7783665
40
0.3412695
50
44.569954
51
91.827227
0
LINE
8
DEFAULT_255_2_778
10
69.5397906
20
91.7593625
11
69.5394906
21
91.7596625
0
LINE
8
DEFAULT_255_2_778
10
69.3204906
20
90.7756625
11
69.3204906
21
90.7753625
0
LINE
8
DEFAULT_255_2_778
10
68.9174906
20
92.1194625
11
68.9169906
21
92.1192625
0
ARC
8
DEFAULT_255_2_778
10
68.8160093
20
86.699983
40
0.6571773
50
297.3631299
51
319.9634353
0
ARC
8
DEFAULT_255_2_778
10
68.8673754
20
86.6025223
40
0.5470126
50
269.433461
51
297.2769162
0
ARC
8
DEFAULT_255_2_778
10
68.8490223
20
86.6191616
40
0.5637738
50
237.1691969
51
271.315642
0
ARC
8
DEFAULT_255_2_778
10
68.8713647
20
86.6309167
40
0.5858957
50
203.3779456
51
235.9564275
0
ARC
8
DEFAULT_255_2_778
10
69.1194496
20
86.7478324
40
0.8600521
50
179.2735668
51
203.9694707
0
ARC
8
DEFAULT_255_2_778
10
69.1385979
20
86.7724914
40
0.8792389
50
155.2899536
51
180.8963823
0
ARC
8
DEFAULT_255_2_778
10
68.8781852
20
86.8962579
40
0.590944
50
121.608222
51
155.6365234
0
ARC
8
DEFAULT_255_2_778
10
68.8991241
20
86.8383146
40
0.6513865
50
88.7119354
51
120.5054944
0
ARC
8
DEFAULT_255_2_778
10
68.93678
20
86.899376
40
0.590609
50
37.0635681
51
92.2331186
0
ARC
8
DEFAULT_255_2_778
10
68.7424785
20
86.7561126
40
0.8320049
50
11.9982117
51
36.871696
0
ARC
8
DEFAULT_255_2_778
10
68.2006422
20
86.6304511
40
1.388165
50
359.5526176
51
12.4224687
0
ARC
8
DEFAULT_255_2_778
10
67.8000621
20
86.6170709
40
1.7887045
50
359.9956931
51
0.0813958
0
ARC
8
DEFAULT_255_2_778
10
67.1179223
20
86.5266242
40
2.4708735
50
352.8328903
51
0.2785454
0
ARC
8
DEFAULT_255_2_778
10
68.0849003
20
86.4001365
40
1.4956779
50
341.4040745
51
353.0189001
0
ARC
8
DEFAULT_255_2_778
10
68.6729474
20
86.1965069
40
0.8734134
50
321.1043032
51
341.7632271
0
ARC
8
DEFAULT_255_2_778
10
68.8164373
20
86.0936255
40
0.6972088
50
319.3064746
51
320.280317
0
ARC
8
DEFAULT_255_2_778
10
68.7468049
20
86.1635755
40
0.7956496
50
284.3060025
51
318.7566256
0
ARC
8
DEFAULT_255_2_778
10
68.6076788
20
86.6486463
40
1.3001426
50
271.0805715
51
284.9648717
0
ARC
8
DEFAULT_255_2_778
10
68.5837302
20
87.0501994
40
1.7021547
50
270.8596087
51
271.6316624
0
ARC
8
DEFAULT_255_2_778
10
68.6089438
20
86.5711708
40
0.996746
50
270.2772318
51
285.9803429
0
ARC
8
DEFAULT_255_2_778
10
68.7197629
20
86.1892086
40
0.5990365
50
285.8483951
51
312.5260272
0
ARC
8
DEFAULT_255_2_778
10
68.7279918
20
86.1544439
40
0.5681214
50
314.2845275
51
344.0025949
0
ARC
8
DEFAULT_255_2_778
10
68.2566201
20
86.3034995
40
1.062402
50
343.2811959
51
357.0232485
0
ARC
8
DEFAULT_255_2_778
10
67.8292029
20
86.3429386
40
1.4913898
50
356.3628395
51
357.4942821
0
ARC
8
DEFAULT_255_2_778
10
68.9059052
20
86.6932283
40
0.415992
50
269.9533728
51
306.709307
0
ARC
8
DEFAULT_255_2_778
10
68.8749196
20
86.7564841
40
0.485398
50
305.1780496
51
336.6806354
0
ARC
8
DEFAULT_255_2_778
10
68.4251733
20
86.6844345
40
0.8955877
50
359.1684117
51
16.6023105
0
ARC
8
DEFAULT_255_2_778
10
68.7184185
20
86.7668027
40
0.5910527
50
17.072829
51
34.3892478
0
ARC
8
DEFAULT_255_2_778
10
68.8953137
20
86.9030032
40
0.3683592
50
32.4472667
51
70.6670366
0
ARC
8
DEFAULT_255_2_778
10
68.9177654
20
86.9358291
40
0.3301129
50
72.4582389
51
90.3295472
0
ARC
8
DEFAULT_255_2_778
10
68.9056189
20
86.9210782
40
0.3450104
50
88.2979081
51
142.6193975
0
ARC
8
DEFAULT_255_2_778
10
69.0392038
20
86.8207117
40
0.5120946
50
142.7701131
51
175.2807027
0
ARC
8
DEFAULT_255_2_778
10
69.3369975
20
86.7748118
40
0.8129326
50
173.7832771
51
180.1251297
0
ARC
8
DEFAULT_255_2_778
10
69.1727215
20
86.7597596
40
0.6487907
50
178.8274156
51
202.445486
0
ARC
8
DEFAULT_255_2_778
10
69.015746
20
86.7038893
40
0.482447
50
203.4307935
51
216.4678492
0
ARC
8
DEFAULT_255_2_778
10
68.8967827
20
86.6055584
40
0.3284394
50
215.0078433
51
271.5325325
0
LINE
8
DEFAULT_255_2_778
10
69.5887667
20
86.6169364
11
69.5887667
21
86.5386364
0
LINE
8
DEFAULT_255_2_778
10
68.6092667
20
85.3482364
11
68.5571667
21
85.3482364
0
LINE
8
DEFAULT_255_2_778
10
68.5571667
20
85.3482364
11
68.5571667
21
85.5744364
0
LINE
8
DEFAULT_255_2_778
10
68.5571667
20
85.5744364
11
68.6137667
21
85.5744364
0
LINE
8
DEFAULT_255_2_778
10
69.3191667
20
86.2777364
11
69.3191667
21
86.2772364
0
LINE
8
DEFAULT_255_2_778
10
69.3206667
20
86.5643364
11
69.3206667
21
86.6714364
0
LINE
8
DEFAULT_255_2_778
10
68.9055667
20
86.2772364
11
68.9055667
21
86.2772364
0
LINE
8
DEFAULT_255_2_778
10
68.5239938
20
82.25235
11
68.5239938
21
80.13145
0
LINE
8
DEFAULT_255_2_778
10
68.5239938
20
80.13145
11
68.2540938
21
80.13145
0
LINE
8
DEFAULT_255_2_778
10
68.2540938
20
80.13145
11
68.2540938
21
81.91875
0
LINE
8
DEFAULT_255_2_778
10
68.2540938
20
81.91875
11
67.7127938
21
81.72005
0
LINE
8
DEFAULT_255_2_778
10
67.7127938
20
81.72005
11
67.7127938
21
81.96345
0
LINE
8
DEFAULT_255_2_778
10
67.7127938
20
81.96345
11
68.4818938
21
82.25185
0
LINE
8
DEFAULT_255_2_778
10
68.4818938
20
82.25185
11
68.5239938
21
82.25185
0
LINE
8
DEFAULT_255_2_778
10
68.5239938
20
82.25185
11
68.5239938
21
82.25235
0
ARC
8
DEFAULT_255_2_778
10
68.0814022
20
81.0191675
40
2.1127518
50
352.4704985
51
0.3361426
0
ARC
8
DEFAULT_255_2_778
10
68.9992008
20
80.8931424
40
1.1863623
50
340.1937398
51
352.6961913
0
ARC
8
DEFAULT_255_2_778
10
69.454326
20
80.7310219
40
0.7032295
50
325.3767456
51
340.0564622
0
ARC
8
DEFAULT_255_2_778
10
69.5999401
20
80.6396365
40
0.5315331
50
276.0888583
51
324.564691
0
ARC
8
DEFAULT_255_2_778
10
69.5326252
20
80.9815533
40
0.8791963
50
269.7974918
51
278.0878375
0
ARC
8
DEFAULT_255_2_778
10
69.5164533
20
80.8467061
40
0.7444583
50
250.4423457
51
271.005532
0
ARC
8
DEFAULT_255_2_778
10
69.4420018
20
80.6227686
40
0.5085406
50
215.679419
51
249.9006031
0
ARC
8
DEFAULT_255_2_778
10
69.6641656
20
80.7711039
40
0.7755725
50
195.0698421
51
215.0082363
0
ARC
8
DEFAULT_255_2_778
10
70.2804965
20
80.9475778
40
1.4166266
50
184.333523
51
195.4808163
0
ARC
8
DEFAULT_255_2_778
10
71.029234
20
81.0200714
40
2.1687582
50
180.6554344
51
184.7485674
0
ARC
8
DEFAULT_255_2_778
10
70.9153106
20
81.3657691
40
2.054731
50
172.2756555
51
180.3487471
0
ARC
8
DEFAULT_255_2_778
10
70.0137767
20
81.4930373
40
1.1442825
50
159.4800434
51
172.5230442
0
ARC
8
DEFAULT_255_2_778
10
69.5828857
20
81.6515038
40
0.6851886
50
144.9846088
51
159.2601204
0
ARC
8
DEFAULT_255_2_778
10
69.4509966
20
81.7346191
40
0.5295349
50
97.1481258
51
144.1615912
0
ARC
8
DEFAULT_255_2_778
10
69.5229289
20
81.3886682
40
0.8822028
50
89.7474336
51
98.9880334
0
ARC
8
DEFAULT_255_2_778
10
69.5399439
20
81.4973963
40
0.7735775
50
71.3974034
51
90.9722518
0
ARC
8
DEFAULT_255_2_778
10
69.6234813
20
81.7544313
40
0.5033308
50
36.3215587
51
71.0761757
0
ARC
8
DEFAULT_255_2_778
10
69.4347871
20
81.6299993
40
0.7291568
50
15.6130833
51
35.4170055
0
ARC
8
DEFAULT_255_2_778
10
68.8240409
20
81.4490278
40
1.3661097
50
4.8900139
51
16.0290434
0
ARC
8
DEFAULT_255_2_778
10
67.9999016
20
81.3637141
40
2.1945712
50
0.4059409
51
5.2751336
0
ARC
8
DEFAULT_255_2_778
10
68.1632453
20
81.409988
40
1.7623114
50
359.6187809
51
7.0956042
0
ARC
8
DEFAULT_255_2_778
10
69.0710923
20
81.5288245
40
0.8467577
50
6.7042086
51
20.0519106
0
ARC
8
DEFAULT_255_2_778
10
69.4377313
20
81.6574
40
0.4582851
50
20.6680827
51
31.1793014
0
ARC
8
DEFAULT_255_2_778
10
69.5504315
20
81.722947
40
0.3279373
50
31.5755821
51
93.0344476
0
ARC
8
DEFAULT_255_2_778
10
69.5266144
20
81.504663
40
0.5457997
50
89.3221166
51
89.9996469
0
ARC
8
DEFAULT_255_2_778
10
69.5121522
20
81.6944478
40
0.3563084
50
87.6732501
51
125.2328342
0
ARC
8
DEFAULT_255_2_778
10
69.4980113
20
81.7339815
40
0.3160592
50
127.2738575
51
149.2748812
0
ARC
8
DEFAULT_255_2_778
10
69.7410976
20
81.5989347
40
0.5940766
50
150.0568418
51
168.5349425
0
ARC
8
DEFAULT_255_2_778
10
70.4152295
20
81.4487266
40
1.2846819
50
167.9456217
51
177.6179978
0
ARC
8
DEFAULT_255_2_778
10
71.1399361
20
81.4017064
40
2.0107873
50
177.1375947
51
179.5253933
0
ARC
8
DEFAULT_255_2_778
10
70.8401628
20
80.9769689
40
1.7109892
50
179.5883232
51
187.6457569
0
ARC
8
DEFAULT_255_2_778
10
69.9717454
20
80.8550238
40
0.8340848
50
187.2803171
51
201.2487002
0
ARC
8
DEFAULT_255_2_778
10
69.6394412
20
80.7322083
40
0.4798986
50
201.9610836
51
211.1226193
0
ARC
8
DEFAULT_255_2_778
10
69.5130738
20
80.650019
40
0.3292775
50
210.2449912
51
272.8973537
0
ARC
8
DEFAULT_255_2_778
10
69.5486388
20
80.6453362
40
0.3247254
50
266.6596033
51
328.3332369
0
ARC
8
DEFAULT_255_2_778
10
69.3373253
20
80.7659473
40
0.5679562
50
329.1686513
51
347.5177273
0
ARC
8
DEFAULT_255_2_778
10
68.6758665
20
80.924087
40
1.2480125
50
346.99271
51
357.0066236
0
ARC
8
DEFAULT_255_2_778
10
67.8953533
20
80.9827553
40
2.0306027
50
356.5035397
51
359.3314642
0
LINE
8
DEFAULT_255_2_778
10
70.1941177
20
81.3794625
11
70.1941177
21
81.0315625
0
LINE
8
DEFAULT_255_2_778
10
68.8606177
20
80.9952625
11
68.8606177
21
81.3532625
0
LINE
8
DEFAULT_255_2_778
10
70.1944177
20
81.3792625
11
70.1941177
21
81.3794625
0
LINE
8
DEFAULT_255_2_778
10
69.9255177
20
80.9590625
11
69.9255177
21
81.3982625
0
LINE
8
DEFAULT_255_2_778
10
69.1292177
20
81.4183625
11
69.1292177
21
80.9892625
0
LINE
8
DEFAULT_255_2_778
10
69.9258177
20
80.9590625
11
69.9255177
21
80.9590625
0
LINE
8
DEFAULT_255_2_778
10
68.5239938
20
77.26255
11
68.5239938
21
75.14165
0
LINE
8
DEFAULT_255_2_778
10
68.5239938
20
75.14165
11
68.2540938
21
75.14165
0
LINE
8
DEFAULT_255_2_778
10
68.2540938
20
75.14165
11
68.2540938
21
76.92895
0
LINE
8
DEFAULT_255_2_778
10
68.2540938
20
76.92895
11
67.7127938
21
76.73025
0
LINE
8
DEFAULT_255_2_778
10
67.7127938
20
76.73025
11
67.7127938
21
76.97365
0
LINE
8
DEFAULT_255_2_778
10
67.7127938
20
76.97365
11
68.4818938
21
77.26205
0
LINE
8
DEFAULT_255_2_778
10
68.4818938
20
77.26205
11
68.5239938
21
77.26205
0
LINE
8
DEFAULT_255_2_778
10
68.5239938
20
77.26205
11
68.5239938
21
77.26255
0
LINE
8
DEFAULT_255_2_778
10
69.8617938
20
77.26255
11
69.8617938
21
75.14165
0
LINE
8
DEFAULT_255_2_778
10
69.8617938
20
75.14165
11
69.5918938
21
75.14165
0
LINE
8
DEFAULT_255_2_778
10
69.5918938
20
75.14165
11
69.5918938
21
76.92895
0
LINE
8
DEFAULT_255_2_778
10
69.5918938
20
76.92895
11
69.0505938
21
76.73025
0
LINE
8
DEFAULT_255_2_778
10
69.0505938
20
76.73025
11
69.0505938
21
76.97365
0
LINE
8
DEFAULT_255_2_778
10
69.0505938
20
76.97365
11
69.8196938
21
77.26205
0
LINE
8
DEFAULT_255_2_778
10
69.8196938
20
77.26205
11
69.8617938
21
77.26205
0
LINE
8
DEFAULT_255_2_778
10
69.8617938
20
77.26205
11
69.8617938
21
77.26255
0
LINE
8
DEFAULT_255_2_778
10
68.4136938
20
72.25665
11
68.4136938
21
70.13575
0
LINE
8
DEFAULT_255_2_778
10
68.4136938
20
70.13575
11
68.1437938
21
70.13575
0
LINE
8
DEFAULT_255_2_778
10
68.1437938
20
70.13575
11
68.1437938
21
71.92305
0
LINE
8
DEFAULT_255_2_778
10
68.1437938
20
71.92305
11
67.6024938
21
71.72435
0
LINE
8
DEFAULT_255_2_778
10
67.6024938
20
71.72435
11
67.6024938
21
71.96775
0
LINE
8
DEFAULT_255_2_778
10
67.6024938
20
71.96775
11
68.3715938
21
72.25615
0
LINE
8
DEFAULT_255_2_778
10
68.3715938
20
72.25615
11
68.4136938
21
72.25615
0
LINE
8
DEFAULT_255_2_778
10
68.4136938
20
72.25615
11
68.4136938
21
72.25665
0
ARC
8
DEFAULT_255_2_778
10
67.496954
20
73.0106071
40
2.8146541
50
318.3580168
51
322.5177742
0
ARC
8
DEFAULT_255_2_778
10
68.8028015
20
72.0166157
40
1.1735647
50
322.2319675
51
329.8969501
0
ARC
8
DEFAULT_255_2_778
10
69.2544563
20
71.7453618
40
0.646829
50
330.6178149
51
331.7940149
0
ARC
8
DEFAULT_255_2_778
10
69.3863243
20
71.680015
40
0.4997567
50
331.2506514
51
359.7738736
0
ARC
8
DEFAULT_255_2_778
10
69.50726
20
71.6923974
40
0.379089
50
357.8298918
51
42.6511534
0
ARC
8
DEFAULT_255_2_778
10
69.5350238
20
71.7054668
40
0.3499349
50
44.1574226
51
92.5955166
0
ARC
8
DEFAULT_255_2_778
10
69.505986
20
71.5759103
40
0.4793139
50
88.4229795
51
115.5534665
0
ARC
8
DEFAULT_255_2_778
10
69.4556323
20
71.7000206
40
0.3457184
50
116.8971668
51
135.7539024
0
ARC
8
DEFAULT_255_2_778
10
69.5024097
20
71.6659674
40
0.403072
50
136.925934
51
176.3416798
0
ARC
8
DEFAULT_255_2_778
10
69.7602925
20
71.6257645
40
0.6634167
50
174.2973059
51
180.1055217
0
ARC
8
DEFAULT_255_2_778
10
69.5006591
20
71.6391958
40
0.6722417
50
152.4298587
51
181.2489982
0
ARC
8
DEFAULT_255_2_778
10
69.4235567
20
71.6673451
40
0.5909638
50
133.5383642
51
151.3892242
0
ARC
8
DEFAULT_255_2_778
10
69.4610073
20
71.6204775
40
0.6507565
50
95.6894885
51
133.0861735
0
ARC
8
DEFAULT_255_2_778
10
69.5167968
20
71.2961118
40
0.9793338
50
89.8607431
51
97.056176
0
ARC
8
DEFAULT_255_2_778
10
69.5321167
20
71.4457796
40
0.829764
50
71.8856919
51
90.8935228
0
ARC
8
DEFAULT_255_2_778
10
69.6115967
20
71.7027323
40
0.560852
50
48.2473433
51
71.4413694
0
ARC
8
DEFAULT_255_2_778
10
69.6321631
20
71.7334171
40
0.5242894
50
358.3507049
51
47.6910404
0
ARC
8
DEFAULT_255_2_778
10
69.3996336
20
71.7103739
40
0.7566435
50
359.9976382
51
0.6022661
0
ARC
8
DEFAULT_255_2_778
10
69.5146191
20
71.722824
40
0.6417794
50
336.8937031
51
358.885638
0
ARC
8
DEFAULT_255_2_778
10
68.9712089
20
71.9432321
40
1.2281381
50
325.4887625
51
337.3848856
0
ARC
8
DEFAULT_255_2_778
10
68.1567258
20
72.4923788
40
2.2104316
50
318.3232092
51
325.7208751
0
ARC
8
DEFAULT_255_2_778
10
67.509225
20
73.0470806
40
3.0629346
50
317.2546945
51
318.6268179
0
LINE
8
DEFAULT_255_2_778
10
70.2535771
20
70.3545427
11
70.2535771
21
70.1357427
0
LINE
8
DEFAULT_255_2_778
10
70.2535771
20
70.1357427
11
68.8690771
21
70.1357427
0
LINE
8
DEFAULT_255_2_778
10
68.8690771
20
70.1357427
11
68.8690771
21
70.3286427
0
LINE
8
DEFAULT_255_2_778
10
68.8690771
20
70.3286427
11
69.6003771
21
71.1403427
0
LINE
8
DEFAULT_255_2_778
10
69.0968771
20
71.6245427
11
68.8285771
21
71.6245427
0
LINE
8
DEFAULT_255_2_778
10
69.7585771
20
70.9681427
11
69.1926771
21
70.3548427
0
LINE
8
DEFAULT_255_2_778
10
69.1926771
20
70.3548427
11
70.2533771
21
70.3548427
0
LINE
8
DEFAULT_255_2_778
10
70.2533771
20
70.3548427
11
70.2535771
21
70.3545427
0
LINE
8
DEFAULT_255_2_778
10
68.5239938
20
67.14915
11
68.5239938
21
65.02825
0
LINE
8
DEFAULT_255_2_778
10
68.5239938
20
65.02825
11
68.2540938
21
65.02825
0
LINE
8
DEFAULT_255_2_778
10
68.2540938
20
65.02825
11
68.2540938
21
66.81555
0
LINE
8
DEFAULT_255_2_778
10
68.2540938
20
66.81555
11
67.7127938
21
66.61685
0
LINE
8
DEFAULT_255_2_778
10
67.7127938
20
66.61685
11
67.7127938
21
66.86025
0
LINE
8
DEFAULT_255_2_778
10
67.7127938
20
66.86025
11
68.4818938
21
67.14865
0
LINE
8
DEFAULT_255_2_778
10
68.4818938
20
67.14865
11
68.5239938
21
67.14865
0
LINE
8
DEFAULT_255_2_778
10
68.5239938
20
67.14865
11
68.5239938
21
67.14915
0
ARC
8
DEFAULT_255_2_778
10
69.4665493
20
66.7287356
40
0.5147005
50
269.4089159
51
294.2508231
0
ARC
8
DEFAULT_255_2_778
10
69.5266032
20
66.576817
40
0.3516048
50
295.4964516
51
311.6429044
0
ARC
8
DEFAULT_255_2_778
10
69.5349857
20
66.5610951
40
0.3343119
50
312.359766
51
2.6518078
0
ARC
8
DEFAULT_255_2_778
10
69.3859006
20
66.5892893
40
0.4832066
50
358.4907502
51
21.2277484
0
ARC
8
DEFAULT_255_2_778
10
69.5675877
20
66.6498431
40
0.2920715
50
23.0601742
51
84.907951
0
ARC
8
DEFAULT_255_2_778
10
69.5019679
20
66.3464337
40
0.6013369
50
81.2436852
51
90.2980648
0
ARC
8
DEFAULT_255_2_778
10
69.4845759
20
66.5388707
40
0.4091405
50
88.0021195
51
122.2416796
0
ARC
8
DEFAULT_255_2_778
10
69.4519611
20
66.6074598
40
0.3338491
50
123.7874706
51
133.7643633
0
ARC
8
DEFAULT_255_2_778
10
69.4641112
20
66.6007759
40
0.3471052
50
134.449661
51
182.512043
0
ARC
8
DEFAULT_255_2_778
10
69.3864945
20
66.5974226
40
0.5378857
50
131.1795137
51
181.263451
0
ARC
8
DEFAULT_255_2_778
10
69.4665679
20
66.5128358
40
0.6542879
50
91.3678241
51
131.5800216
0
ARC
8
DEFAULT_255_2_778
10
69.4984925
20
66.2453114
40
0.9228514
50
89.9784501
51
92.9530418
0
ARC
8
DEFAULT_255_2_778
10
69.5117024
20
66.3352165
40
0.8330453
50
72.2628929
51
90.8847199
0
ARC
8
DEFAULT_255_2_778
10
69.5942833
20
66.604926
40
0.5510095
50
47.3447198
51
71.8977468
0
ARC
8
DEFAULT_255_2_778
10
69.5979218
20
66.6217115
40
0.5362699
50
4.5243525
51
46.4154026
0
ARC
8
DEFAULT_255_2_778
10
69.3034428
20
66.5726341
40
0.8340985
50
359.8851693
51
6.2896764
0
ARC
8
DEFAULT_255_2_778
10
69.6739219
20
66.5777564
40
0.4636675
50
323.8536906
51
359.1604415
0
ARC
8
DEFAULT_255_2_778
10
69.6068924
20
66.6112183
40
0.5376779
50
291.6475426
51
325.1875703
0
ARC
8
DEFAULT_255_2_778
10
69.6627962
20
65.612179
40
0.5192053
50
37.5850825
51
74.0767794
0
ARC
8
DEFAULT_255_2_778
10
69.6625262
20
65.6330533
40
0.5069625
50
358.2037596
51
35.6966111
0
ARC
8
DEFAULT_255_2_778
10
69.530839
20
65.6031364
40
0.6385546
50
333.7970932
51
1.2586211
0
ARC
8
DEFAULT_255_2_778
10
69.6267986
20
65.5675057
40
0.5368242
50
311.6470455
51
332.6868214
0
ARC
8
DEFAULT_255_2_778
10
69.5485292
20
65.6623609
40
0.6597336
50
274.4173627
51
311.2520557
0
ARC
8
DEFAULT_255_2_778
10
69.5019559
20
65.9648295
40
0.9651684
50
269.9099876
51
275.7910747
0
ARC
8
DEFAULT_255_2_778
10
69.4868806
20
65.8259685
40
0.8264173
50
249.4846819
51
270.9400943
0
ARC
8
DEFAULT_255_2_778
10
69.4224406
20
65.6321581
40
0.6223613
50
229.2805447
51
248.7878228
0
ARC
8
DEFAULT_255_2_778
10
69.3630283
20
65.5659604
40
0.5334344
50
177.9370727
51
229.478702
0
ARC
8
DEFAULT_255_2_778
10
69.4444289
20
65.5701065
40
0.344918
50
177.4981887
51
226.8508798
0
ARC
8
DEFAULT_255_2_778
10
69.4713133
20
65.617539
40
0.3981166
50
228.6969086
51
268.9145565
0
ARC
8
DEFAULT_255_2_778
10
69.4997712
20
65.8471713
40
0.6287088
50
266.7174749
51
270.0335705
0
ARC
8
DEFAULT_255_2_778
10
69.5130776
20
65.7153639
40
0.4970698
50
268.5085051
51
292.4842703
0
ARC
8
DEFAULT_255_2_778
10
69.5761211
20
65.5461064
40
0.3166351
50
293.6565378
51
314.369768
0
ARC
8
DEFAULT_255_2_778
10
69.5385131
20
65.5688322
40
0.3593473
50
316.1226287
51
356.3145132
0
ARC
8
DEFAULT_255_2_778
10
69.2823869
20
65.6097455
40
0.6180541
50
354.0552116
51
0.12209
0
ARC
8
DEFAULT_255_2_778
10
69.5049091
20
65.6246658
40
0.3957644
50
358.0302228
51
30.2067523
0
ARC
8
DEFAULT_255_2_778
10
69.5865181
20
65.6617552
40
0.3067085
50
31.889407
51
49.123002
0
ARC
8
DEFAULT_255_2_778
10
69.5217642
20
65.5716003
40
0.4173742
50
50.5012932
51
82.184203
0
ARC
8
DEFAULT_255_2_778
10
69.4542729
20
65.2328846
40
0.7624053
50
80.6206472
51
89.5140145
0
LINE
8
DEFAULT_255_2_778
10
69.2596396
20
65.9952625
11
69.2596396
21
66.2140625
0
LINE
8
DEFAULT_255_2_778
10
69.2596396
20
66.2140625
11
69.4612396
21
66.2140625
0
LINE
8
DEFAULT_255_2_778
10
69.1173396
20
66.5855625
11
68.8487396
21
66.5855625
0
LINE
8
DEFAULT_255_2_778
10
68.8299396
20
65.5851625
11
69.0998396
21
65.5851625
0
LINE
8
DEFAULT_255_2_778
10
69.4607396
20
65.9952625
11
69.2591396
21
65.9952625
0
LINE
8
DEFAULT_255_2_778
10
69.2591396
20
65.9952625
11
69.2596396
21
65.9952625
0
ARC
8
DEFAULT_255_2_778
10
35.6151899
20
129.5999278
40
1.5765841
50
35.3392407
51
61.6981278
0
ARC
8
DEFAULT_255_2_778
10
35.7380244
20
131.8183552
40
1.0390358
50
306.9546805
51
359.1462887
0
ARC
8
DEFAULT_255_2_778
10
35.7831424
20
131.8106474
40
0.9938328
50
359.5518531
51
0.0001485
0
ARC
8
DEFAULT_255_2_778
10
35.7302689
20
131.8155686
40
1.0467178
50
359.7307592
51
30.5123936
0
ARC
8
DEFAULT_255_2_778
10
35.8083963
20
131.8680947
40
0.9527571
50
30.1765236
51
89.8930233
0
ARC
8
DEFAULT_255_2_778
10
35.6831295
20
129.5432017
40
1.4865696
50
272.7547392
51
295.5516547
0
ARC
8
DEFAULT_255_2_778
10
35.6638825
20
129.5423393
40
1.4941985
50
296.2317899
51
350.535065
0
ARC
8
DEFAULT_255_2_778
10
35.5114989
20
129.587089
40
1.6519766
50
349.8732258
51
0.0367953
0
ARC
8
DEFAULT_255_2_778
10
35.1287416
20
129.5882461
40
2.0347336
50
359.9972921
51
0.1164438
0
ARC
8
DEFAULT_255_2_778
10
35.5155551
20
129.6144891
40
1.6480639
50
359.23139
51
22.5991324
0
ARC
8
DEFAULT_255_2_778
10
36.0091999
20
129.7942854
40
1.1234811
50
23.8082726
51
29.824902
0
ARC
8
DEFAULT_255_2_778
10
31.8858899
20
129.5999278
40
1.5765841
50
35.3392407
51
61.6981278
0
ARC
8
DEFAULT_255_2_778
10
32.0087244
20
131.8183552
40
1.0390358
50
306.9546805
51
359.1462887
0
ARC
8
DEFAULT_255_2_778
10
32.0538424
20
131.8106474
40
0.9938328
50
359.5518531
51
0.0001485
0
ARC
8
DEFAULT_255_2_778
10
32.0009689
20
131.8155686
40
1.0467178
50
359.7307592
51
30.5123936
0
ARC
8
DEFAULT_255_2_778
10
32.0790963
20
131.8680947
40
0.9527571
50
30.1765236
51
89.8930233
0
ARC
8
DEFAULT_255_2_778
10
31.9538295
20
129.5432017
40
1.4865696
50
272.7547392
51
295.5516547
0
ARC
8
DEFAULT_255_2_778
10
31.9345825
20
129.5423393
40
1.4941985
50
296.2317899
51
350.535065
0
ARC
8
DEFAULT_255_2_778
10
31.7821989
20
129.587089
40
1.6519766
50
349.8732258
51
0.0367953
0
ARC
8
DEFAULT_255_2_778
10
31.3994416
20
129.5882461
40
2.0347336
50
359.9972921
51
0.1164438
0
ARC
8
DEFAULT_255_2_778
10
31.7857138
20
129.6142972
40
1.6486026
50
359.2383089
51
22.6049556
0
ARC
8
DEFAULT_255_2_778
10
32.2781735
20
129.7937405
40
1.1252498
50
23.8083167
51
29.8052574
0
LINE
8
DEFAULT_255_2_778
10
28.9865752
20
130.5118499
11
28.1994752
21
132.8208499
0
LINE
8
DEFAULT_255_2_778
10
28.1994752
20
132.8208499
11
27.6054752
21
132.8208499
0
LINE
8
DEFAULT_255_2_778
10
27.6054752
20
132.8208499
11
27.6054752
21
130.5118499
0
LINE
8
DEFAULT_255_2_778
10
27.6054752
20
130.5118499
11
28.9865752
21
130.5118499
0
LINE
8
DEFAULT_255_2_778
10
27.6054752
20
129.0685499
11
28.3375752
21
129.0685499
0
LINE
8
DEFAULT_255_2_778
10
28.3375752
20
129.0685499
11
28.6690752
21
128.0583499
0
LINE
8
DEFAULT_255_2_778
10
28.6690752
20
128.0583499
11
29.8154752
21
128.0583499
0
LINE
8
DEFAULT_255_2_778
10
29.8154752
20
128.0583499
11
29.0280752
21
130.3673499
0
LINE
8
DEFAULT_255_2_778
10
29.0280752
20
130.3673499
11
27.6054752
21
130.3673499
0
LINE
8
DEFAULT_255_2_778
10
27.6054752
20
130.3673499
11
27.6054752
21
129.0685499
0
LINE
8
DEFAULT_255_2_778
10
27.4673752
20
132.8208499
11
26.8733752
21
132.8208499
0
LINE
8
DEFAULT_255_2_778
10
26.8733752
20
132.8208499
11
26.0859752
21
130.5118499
0
LINE
8
DEFAULT_255_2_778
10
26.0859752
20
130.5118499
11
27.4670752
21
130.5118499
0
LINE
8
DEFAULT_255_2_778
10
27.4670752
20
130.5118499
11
27.4673752
21
132.8208499
0
LINE
8
DEFAULT_255_2_778
10
26.0446752
20
130.3673499
11
25.2572752
21
128.0583499
0
LINE
8
DEFAULT_255_2_778
10
25.2572752
20
128.0583499
11
26.4036752
21
128.0583499
0
LINE
8
DEFAULT_255_2_778
10
26.4036752
20
128.0583499
11
26.7352752
21
129.0685499
0
LINE
8
DEFAULT_255_2_778
10
26.7352752
20
129.0685499
11
27.4673752
21
129.0685499
0
LINE
8
DEFAULT_255_2_778
10
27.4673752
20
129.0685499
11
27.4673752
21
130.3673499
0
LINE
8
DEFAULT_255_2_778
10
27.4673752
20
130.3673499
11
26.0446752
21
130.3673499
0
LINE
8
DEFAULT_255_2_778
10
33.9591752
20
132.8208499
11
35.3402752
21
132.8208499
0
LINE
8
DEFAULT_255_2_778
10
35.3402752
20
132.8208499
11
35.3402752
21
130.5118499
0
LINE
8
DEFAULT_255_2_778
10
35.3402752
20
130.5118499
11
33.9591752
21
130.5118499
0
LINE
8
DEFAULT_255_2_778
10
33.9591752
20
130.5118499
11
33.9591752
21
132.8208499
0
LINE
8
DEFAULT_255_2_778
10
35.8101752
20
132.8208499
11
35.4786752
21
132.8208499
0
LINE
8
DEFAULT_255_2_778
10
35.4786752
20
132.8208499
11
35.4786752
21
130.5118499
0
LINE
8
DEFAULT_255_2_778
10
35.4786752
20
130.5118499
11
36.9012752
21
130.5118499
0
LINE
8
DEFAULT_255_2_778
10
36.9012752
20
130.5118499
11
36.9012752
21
130.5118499
0
LINE
8
DEFAULT_255_2_778
10
33.9591752
20
130.3676499
11
35.3402752
21
130.3676499
0
LINE
8
DEFAULT_255_2_778
10
35.3402752
20
130.3676499
11
35.3402752
21
128.0583499
0
LINE
8
DEFAULT_255_2_778
10
35.3402752
20
128.0583499
11
33.9591752
21
128.0583499
0
LINE
8
DEFAULT_255_2_778
10
33.9591752
20
128.0583499
11
33.9591752
21
130.3676499
0
LINE
8
DEFAULT_255_2_778
10
35.4783752
20
128.0583499
11
35.7545752
21
128.0583499
0
LINE
8
DEFAULT_255_2_778
10
36.9838752
20
130.3530499
11
35.4783752
21
130.3530499
0
LINE
8
DEFAULT_255_2_778
10
35.4783752
20
130.3530499
11
35.4783752
21
128.0583499
0
LINE
8
DEFAULT_255_2_778
10
35.4783752
20
128.0583499
11
35.4783752
21
128.0583499
0
LINE
8
DEFAULT_255_2_778
10
30.2298752
20
132.8208499
11
31.6109752
21
132.8208499
0
LINE
8
DEFAULT_255_2_778
10
31.6109752
20
132.8208499
11
31.6109752
21
130.5118499
0
LINE
8
DEFAULT_255_2_778
10
31.6109752
20
130.5118499
11
30.2298752
21
130.5118499
0
LINE
8
DEFAULT_255_2_778
10
30.2298752
20
130.5118499
11
30.2298752
21
132.8208499
0
LINE
8
DEFAULT_255_2_778
10
32.0808752
20
132.8208499
11
31.7493752
21
132.8208499
0
LINE
8
DEFAULT_255_2_778
10
31.7493752
20
132.8208499
11
31.7493752
21
130.5118499
0
LINE
8
DEFAULT_255_2_778
10
31.7493752
20
130.5118499
11
33.1719752
21
130.5118499
0
LINE
8
DEFAULT_255_2_778
10
33.1719752
20
130.5118499
11
33.1719752
21
130.5118499
0
LINE
8
DEFAULT_255_2_778
10
30.2298752
20
130.3676499
11
31.6109752
21
130.3676499
0
LINE
8
DEFAULT_255_2_778
10
31.6109752
20
130.3676499
11
31.6109752
21
128.0583499
0
LINE
8
DEFAULT_255_2_778
10
31.6109752
20
128.0583499
11
30.2298752
21
128.0583499
0
LINE
8
DEFAULT_255_2_778
10
30.2298752
20
128.0583499
11
30.2298752
21
130.3676499
0
LINE
8
DEFAULT_255_2_778
10
31.7490752
20
128.0583499
11
32.0252752
21
128.0583499
0
LINE
8
DEFAULT_255_2_778
10
33.2545752
20
130.3530499
11
31.7490752
21
130.3530499
0
LINE
8
DEFAULT_255_2_778
10
31.7490752
20
130.3530499
11
31.7490752
21
128.0583499
0
LINE
8
DEFAULT_255_2_778
10
31.7490752
20
128.0583499
11
31.7490752
21
128.0583499
0
ARC
8
DEFAULT_255_2_778
10
40.7298939
20
130.635782
40
1.2252393
50
76.0025065
51
90.6092519
0
ARC
8
DEFAULT_255_2_778
10
40.8440688
20
131.0789694
40
0.7676038
50
48.7916289
51
76.270225
0
ARC
8
DEFAULT_255_2_778
10
40.8934044
20
131.1457038
40
0.6849302
50
359.5821401
51
48.2187327
0
ARC
8
DEFAULT_255_2_778
10
40.6062956
20
131.1146437
40
0.9723701
50
359.9945967
51
1.536027
0
ARC
8
DEFAULT_255_2_778
10
40.7309441
20
131.101538
40
0.8478214
50
341.0246852
51
0.879521
0
ARC
8
DEFAULT_255_2_778
10
40.9612778
20
131.0277821
40
0.6060438
50
310.4867978
51
340.5380254
0
ARC
8
DEFAULT_255_2_778
10
40.8738449
20
131.1440324
40
0.7512802
50
283.7217749
51
309.8018864
0
ARC
8
DEFAULT_255_2_778
10
40.7385932
20
131.6541557
40
1.2789689
50
270.9652684
51
284.1870772
0
ARC
8
DEFAULT_255_2_778
10
40.7137777
20
132.1190448
40
1.7442927
50
269.989749
51
271.5230395
0
ARC
8
DEFAULT_255_2_778
10
40.729423
20
131.4276292
40
0.789377
50
269.0885012
51
285.9857142
0
ARC
8
DEFAULT_255_2_778
10
40.8214007
20
131.1032436
40
0.4522058
50
286.1015379
51
310.6302282
0
ARC
8
DEFAULT_255_2_778
10
40.8367652
20
131.0674223
40
0.4151789
50
312.2402936
51
356.522137
0
ARC
8
DEFAULT_255_2_778
10
40.5723964
20
131.110133
40
0.6821703
50
354.2878745
51
0.1023916
0
ARC
8
DEFAULT_255_2_778
10
40.7747874
20
131.1265536
40
0.480019
50
358.1852225
51
33.8886134
0
ARC
8
DEFAULT_255_2_778
10
40.8197287
20
131.1454238
40
0.4322926
50
35.1337514
51
46.7613849
0
ARC
8
DEFAULT_255_2_778
10
40.7754955
20
131.0856573
40
0.5062094
50
47.7482056
51
83.6721784
0
ARC
8
DEFAULT_255_2_778
10
40.7199419
20
130.7899417
40
0.8065636
50
82.0649483
51
88.882961
0
LINE
8
DEFAULT_255_2_778
10
40.7134656
20
130.375052
11
40.1337656
21
130.375052
0
LINE
8
DEFAULT_255_2_778
10
40.1337656
20
130.375052
11
40.1337656
21
129.418852
0
LINE
8
DEFAULT_255_2_778
10
40.1337656
20
129.418852
11
39.8093656
21
129.418852
0
LINE
8
DEFAULT_255_2_778
10
39.8093656
20
129.418852
11
39.8093656
21
131.860952
0
LINE
8
DEFAULT_255_2_778
10
39.8093656
20
131.860952
11
40.7168656
21
131.860952
0
LINE
8
DEFAULT_255_2_778
10
40.7134656
20
130.374752
11
40.7134656
21
130.375052
0
LINE
8
DEFAULT_255_2_778
10
40.1337656
20
131.596152
11
40.1337656
21
130.638352
0
LINE
8
DEFAULT_255_2_778
10
40.1337656
20
130.638352
11
40.7168656
21
130.638352
0
LINE
8
DEFAULT_255_2_778
10
40.7356656
20
131.596352
11
40.1339656
21
131.596352
0
LINE
8
DEFAULT_255_2_778
10
40.1339656
20
131.596352
11
40.1337656
21
131.596152
0
LINE
8
DEFAULT_255_2_778
10
41.9929761
20
131.861152
11
42.4120761
21
131.861152
0
LINE
8
DEFAULT_255_2_778
10
42.4120761
20
131.861152
11
43.2166761
21
129.868552
0
LINE
8
DEFAULT_255_2_778
10
43.2166761
20
129.868552
11
44.0212761
21
131.861152
0
LINE
8
DEFAULT_255_2_778
10
44.0212761
20
131.861152
11
44.4421761
21
131.861152
0
LINE
8
DEFAULT_255_2_778
10
44.4421761
20
131.861152
11
44.4421761
21
129.419052
0
LINE
8
DEFAULT_255_2_778
10
44.4421761
20
129.419052
11
44.1178761
21
129.419052
0
LINE
8
DEFAULT_255_2_778
10
44.1178761
20
129.419052
11
44.1178761
21
130.370252
0
LINE
8
DEFAULT_255_2_778
10
44.1178761
20
130.370252
11
44.1482761
21
131.396852
0
LINE
8
DEFAULT_255_2_778
10
44.1482761
20
131.396852
11
43.3404761
21
129.419352
0
LINE
8
DEFAULT_255_2_778
10
43.3404761
20
129.419352
11
43.0920761
21
129.419352
0
LINE
8
DEFAULT_255_2_778
10
43.0920761
20
129.419352
11
42.2858761
21
131.391752
0
LINE
8
DEFAULT_255_2_778
10
42.2858761
20
131.391752
11
42.3178761
21
130.370252
0
LINE
8
DEFAULT_255_2_778
10
42.3178761
20
130.370252
11
42.3178761
21
129.419052
0
LINE
8
DEFAULT_255_2_778
10
42.3178761
20
129.419052
11
41.9934761
21
129.419052
0
LINE
8
DEFAULT_255_2_778
10
41.9934761
20
129.419052
11
41.9934761
21
131.861152
0
LINE
8
DEFAULT_255_2_778
10
41.9934761
20
131.861152
11
41.9929761
21
131.861152
0
ARC
8
DEFAULT_255_2_778
10
45.7909774
20
130.2156442
40
0.7987566
50
89.0259981
51
119.8133049
0
ARC
8
DEFAULT_255_2_778
10
45.8183994
20
130.2411863
40
0.773223
50
66.8216484
51
91.0259054
0
ARC
8
DEFAULT_255_2_778
10
45.8633029
20
130.3720285
40
0.6353504
50
41.5675851
51
65.8999971
0
ARC
8
DEFAULT_255_2_778
10
45.7640674
20
130.2908657
40
0.7634646
50
9.5059139
51
41.183406
0
ARC
8
DEFAULT_255_2_778
10
45.3522835
20
130.2038979
40
1.1840902
50
359.6800299
51
10.3656883
0
ARC
8
DEFAULT_255_2_778
10
45.4775673
20
130.1841844
40
1.058869
50
343.9038404
51
0.7089184
0
ARC
8
DEFAULT_255_2_778
10
45.81176
20
130.0890027
40
0.7113893
50
316.8841597
51
343.8068197
0
ARC
8
DEFAULT_255_2_778
10
45.8364908
20
130.0792104
40
0.686713
50
277.9314394
51
316.0702385
0
ARC
8
DEFAULT_255_2_778
10
45.7616699
20
130.4502198
40
1.0647441
50
269.7570592
51
279.1643811
0
ARC
8
DEFAULT_255_2_778
10
45.7435776
20
130.2905357
40
0.9051521
50
250.1545363
51
270.859491
0
ARC
8
DEFAULT_255_2_778
10
45.6771673
20
130.0847933
40
0.6891227
50
228.9772183
51
249.5409246
0
ARC
8
DEFAULT_255_2_778
10
45.6794567
20
130.0784462
40
0.6858624
50
188.6874865
51
228.4849078
0
ARC
8
DEFAULT_255_2_778
10
45.976719
20
130.1498235
40
0.9908276
50
185.1266627
51
190.1713807
0
ARC
8
DEFAULT_255_2_778
10
45.8677657
20
130.1284092
40
0.5859678
50
186.5777896
51
209.283373
0
ARC
8
DEFAULT_255_2_778
10
45.6959014
20
130.0398287
40
0.3927973
50
210.27575
51
228.6224373
0
ARC
8
DEFAULT_255_2_778
10
45.7248727
20
130.0883026
40
0.4484397
50
229.9389226
51
267.9454657
0
ARC
8
DEFAULT_255_2_778
10
45.7568794
20
130.3332714
40
0.6947862
50
266.0316025
51
270.0474863
0
ARC
8
DEFAULT_255_2_778
10
45.7729191
20
130.0816928
40
0.4434771
50
268.0017202
51
306.0739821
0
ARC
8
DEFAULT_255_2_778
10
45.7837467
20
130.0507443
40
0.4121961
50
307.3907064
51
320.0536453
0
ARC
8
DEFAULT_255_2_778
10
45.6855411
20
130.1200585
40
0.5320821
50
321.1214129
51
352.2580753
0
ARC
8
DEFAULT_255_2_778
10
45.3232301
20
130.1893009
40
0.9006362
50
350.9981098
51
0.2852885
0
ARC
8
DEFAULT_255_2_778
10
45.5798883
20
130.207379
40
0.6441104
50
358.7907142
51
23.1781961
0
ARC
8
DEFAULT_255_2_778
10
45.7312168
20
130.263138
40
0.4831214
50
24.1629661
51
42.1399573
0
ARC
8
DEFAULT_255_2_778
10
45.7512382
20
130.2773116
40
0.458775
50
42.50506
51
92.3964336
0
ARC
8
DEFAULT_255_2_778
10
45.719545
20
130.0880061
40
0.6478001
50
88.8934428
51
107.9300378
0
ARC
8
DEFAULT_255_2_778
10
45.6441836
20
130.3363542
40
0.3883423
50
108.6314496
51
126.9294944
0
LINE
8
DEFAULT_255_2_778
10
45.3277552
20
130.5798854
11
45.0776552
21
130.6435854
0
LINE
8
DEFAULT_255_2_778
10
45.0776552
20
130.6435854
11
45.2028552
21
131.8614854
0
LINE
8
DEFAULT_255_2_778
10
45.2028552
20
131.8614854
11
46.4635552
21
131.8614854
0
LINE
8
DEFAULT_255_2_778
10
46.4635552
20
131.8614854
11
46.4635552
21
131.5746854
0
LINE
8
DEFAULT_255_2_778
10
46.4635552
20
131.5746854
11
45.4682552
21
131.5746854
0
LINE
8
DEFAULT_255_2_778
10
45.4682552
20
131.5746854
11
45.3938552
21
130.9086854
0
LINE
8
DEFAULT_255_2_778
10
44.9898552
20
130.0612854
11
45.2856552
21
130.0612854
0
LINE
8
DEFAULT_255_2_778
10
45.4108552
20
130.6467854
11
45.3279552
21
130.5795854
0
LINE
8
DEFAULT_255_2_778
10
45.3279552
20
130.5795854
11
45.3277552
21
130.5798854
0
ARC
8
DEFAULT_255_2_778
10
45.9451505
20
130.4480733
40
2.4753966
50
353.0189365
51
0.2888844
0
ARC
8
DEFAULT_255_2_778
10
46.9560616
20
130.3200078
40
1.4564208
50
342.1464952
51
353.1860775
0
ARC
8
DEFAULT_255_2_778
10
47.5367522
20
130.1301676
40
0.8454965
50
325.4244055
51
342.3272648
0
ARC
8
DEFAULT_255_2_778
10
47.733519
20
130.0068312
40
0.6135739
50
277.7501176
51
324.4801676
0
ARC
8
DEFAULT_255_2_778
10
47.6511118
20
130.3933706
40
1.008128
50
269.7274127
51
279.4285703
0
ARC
8
DEFAULT_255_2_778
10
47.6331556
20
130.277216
40
0.892059
50
252.3432878
51
270.8452811
0
ARC
8
DEFAULT_255_2_778
10
47.5451441
20
129.9939191
40
0.5954164
50
215.9629018
51
252.1448335
0
ARC
8
DEFAULT_255_2_778
10
47.7829273
20
130.1533105
40
0.8815459
50
196.2182989
51
215.271999
0
ARC
8
DEFAULT_255_2_778
10
48.4071904
20
130.34508
40
1.5345581
50
185.8012717
51
196.5835555
0
ARC
8
DEFAULT_255_2_778
10
49.2612232
20
130.4439765
40
2.3942436
50
180.6107778
51
186.090014
0
ARC
8
DEFAULT_255_2_778
10
49.2825995
20
130.8450874
40
2.4155153
50
172.9328196
51
180.2925462
0
ARC
8
DEFAULT_255_2_778
10
48.2883337
20
130.9731531
40
1.413055
50
161.6348807
51
173.126033
0
ARC
8
DEFAULT_255_2_778
10
47.7305842
20
131.1600498
40
0.8248287
50
145.0252606
51
161.7492793
0
ARC
8
DEFAULT_255_2_778
10
47.5495461
20
131.2743789
40
0.6110333
50
98.8131452
51
144.0789047
0
ARC
8
DEFAULT_255_2_778
10
47.6370911
20
130.884124
40
1.0104469
50
89.6697253
51
100.3284016
0
ARC
8
DEFAULT_255_2_778
10
47.6558717
20
130.9636294
40
0.9310149
50
73.4429513
51
90.7973563
0
ARC
8
DEFAULT_255_2_778
10
47.7539001
20
131.2899226
40
0.5903164
50
36.6326714
51
73.5380754
0
ARC
8
DEFAULT_255_2_778
10
47.5571972
20
131.1599688
40
0.8258109
50
16.7135449
51
35.7248352
0
ARC
8
DEFAULT_255_2_778
10
46.9302116
20
130.961866
40
1.4833107
50
6.1679564
51
17.0774521
0
ARC
8
DEFAULT_255_2_778
10
45.9869384
20
130.8485996
40
2.4333194
50
0.3379984
51
6.4331432
0
ARC
8
DEFAULT_255_2_778
10
46.0263663
20
130.8964722
40
2.0813812
50
359.6829324
51
6.4608892
0
ARC
8
DEFAULT_255_2_778
10
47.0244604
20
131.0146087
40
1.0763449
50
6.1906968
51
17.4981921
0
ARC
8
DEFAULT_255_2_778
10
47.5122568
20
131.1670996
40
0.5652717
50
17.6232612
51
31.1323011
0
ARC
8
DEFAULT_255_2_778
10
47.6737226
20
131.260215
40
0.3789376
50
31.7032306
51
91.2779834
0
ARC
8
DEFAULT_255_2_778
10
47.6430488
20
131.0154422
40
0.624012
50
87.9591552
51
90.0122254
0
ARC
8
DEFAULT_255_2_778
10
47.6290009
20
131.2061157
40
0.4335618
50
88.1608354
51
119.9098723
0
ARC
8
DEFAULT_255_2_778
10
47.6022475
20
131.2760214
40
0.3598158
50
121.7680842
51
149.220093
0
ARC
8
DEFAULT_255_2_778
10
47.8698785
20
131.1233398
40
0.6679067
50
149.7161969
51
167.4686156
0
ARC
8
DEFAULT_255_2_778
10
48.5722882
20
130.955078
40
1.390142
50
166.9802662
51
176.729839
0
ARC
8
DEFAULT_255_2_778
10
49.4129957
20
130.890071
40
2.2332532
50
176.2951309
51
179.5360591
0
ARC
8
DEFAULT_255_2_778
10
49.1972549
20
130.3994205
40
2.0174757
50
179.6554057
51
186.9923349
0
ARC
8
DEFAULT_255_2_778
10
48.2402035
20
130.2772243
40
1.0526776
50
186.7322072
51
198.7241855
0
ARC
8
DEFAULT_255_2_778
10
47.8000434
20
130.1312223
40
0.5889524
50
199.0181961
51
211.0948477
0
ARC
8
DEFAULT_255_2_778
10
47.6266073
20
130.021993
40
0.3840449
50
210.5036937
51
272.9415827
0
ARC
8
DEFAULT_255_2_778
10
47.6687418
20
130.0167433
40
0.3789534
50
266.6072997
51
328.0580101
0
ARC
8
DEFAULT_255_2_778
10
47.4372759
20
130.1494879
40
0.6456762
50
328.9289605
51
346.8567134
0
ARC
8
DEFAULT_255_2_778
10
46.7606169
20
130.3209692
40
1.3436665
50
346.2970033
51
355.6991486
0
ARC
8
DEFAULT_255_2_778
10
45.882242
20
130.4009546
40
2.2256098
50
355.3416246
51
359.3666766
0
LINE
8
DEFAULT_255_2_778
10
48.4205156
20
130.8632541
11
48.4205156
21
130.4605541
0
LINE
8
DEFAULT_255_2_778
10
46.8671156
20
130.4184541
11
46.8671156
21
130.8327541
0
LINE
8
DEFAULT_255_2_778
10
48.4202156
20
130.8629541
11
48.4205156
21
130.8632541
0
LINE
8
DEFAULT_255_2_778
10
48.1077156
20
130.3766541
11
48.1077156
21
130.8849541
0
LINE
8
DEFAULT_255_2_778
10
47.1798156
20
130.9081541
11
47.1798156
21
130.4115541
0
LINE
8
DEFAULT_255_2_778
10
48.1077156
20
130.3763541
11
48.1077156
21
130.3766541
0
LINE
8
DEFAULT_255_2_778
10
49.8486865
20
131.8730375
11
49.8486865
21
129.4190375
0
LINE
8
DEFAULT_255_2_778
10
49.8486865
20
129.4190375
11
49.5343865
21
129.4190375
0
LINE
8
DEFAULT_255_2_778
10
49.5343865
20
129.4190375
11
49.5343865
21
131.4873375
0
LINE
8
DEFAULT_255_2_778
10
49.5343865
20
131.4873375
11
48.9038865
21
131.2576375
0
LINE
8
DEFAULT_255_2_778
10
48.9038865
20
131.2576375
11
48.9038865
21
131.5394375
0
LINE
8
DEFAULT_255_2_778
10
48.9038865
20
131.5394375
11
49.7997865
21
131.8733375
0
LINE
8
DEFAULT_255_2_778
10
49.7997865
20
131.8733375
11
49.8486865
21
131.8733375
0
LINE
8
DEFAULT_255_2_778
10
49.8486865
20
131.8733375
11
49.8486865
21
131.8730375
0
ARC
8
DEFAULT_255_2_778
10
49.1252985
20
132.8101268
40
3.3425336
50
318.1800736
51
322.0046871
0
ARC
8
DEFAULT_255_2_778
10
50.5803681
20
131.6806172
40
1.5005377
50
321.7903281
51
328.4804333
0
ARC
8
DEFAULT_255_2_778
10
51.1660009
20
131.3129368
40
0.8091213
50
328.995287
51
331.5640921
0
ARC
8
DEFAULT_255_2_778
10
51.3733973
20
131.205924
40
0.5758093
50
331.1008663
51
359.7740364
0
ARC
8
DEFAULT_255_2_778
10
51.5130881
20
131.2200653
40
0.4364228
50
357.8448125
51
42.9548109
0
ARC
8
DEFAULT_255_2_778
10
51.5405853
20
131.2318991
40
0.4083583
50
44.3687145
51
92.2389749
0
ARC
8
DEFAULT_255_2_778
10
51.5216442
20
131.0370211
40
0.6029319
50
89.7160986
51
90.0040027
0
ARC
8
DEFAULT_255_2_778
10
51.5082922
20
131.0631254
40
0.5769812
50
88.6781746
51
112.881833
0
ARC
8
DEFAULT_255_2_778
10
51.4482105
20
131.2244495
40
0.4050573
50
113.9249651
51
135.5405954
0
ARC
8
DEFAULT_255_2_778
10
51.4930858
20
131.192044
40
0.4598587
50
136.5749797
51
174.9090861
0
ARC
8
DEFAULT_255_2_778
10
51.7764452
20
131.1436932
40
0.7467456
50
173.1428652
51
180.1488602
0
ARC
8
DEFAULT_255_2_778
10
51.5076119
20
131.1561026
40
0.79074
50
155.4826779
51
181.0397969
0
ARC
8
DEFAULT_255_2_778
10
51.4006827
20
131.192789
40
0.6783174
50
133.2626454
51
154.5540346
0
ARC
8
DEFAULT_255_2_778
10
51.449012
20
131.1361514
40
0.7526929
50
97.1793158
51
132.9869454
0
ARC
8
DEFAULT_255_2_778
10
51.5175527
20
130.7699691
40
1.1247902
50
89.8090058
51
98.3122576
0
ARC
8
DEFAULT_255_2_778
10
51.5341606
20
130.8978575
40
0.9969785
50
73.8536915
51
90.7389923
0
ARC
8
DEFAULT_255_2_778
10
51.6266156
20
131.2229056
40
0.659043
50
48.4545494
51
73.7159005
0
ARC
8
DEFAULT_255_2_778
10
51.6612814
20
131.2687471
40
0.6017596
50
359.1987568
51
48.0301017
0
ARC
8
DEFAULT_255_2_778
10
51.3975511
20
131.240817
40
0.8656511
50
359.9957677
51
1.2917778
0
ARC
8
DEFAULT_255_2_778
10
51.5360292
20
131.2536275
40
0.7272869
50
337.7394521
51
358.9856982
0
ARC
8
DEFAULT_255_2_778
10
50.968979
20
131.4740158
40
1.3356068
50
326.7184736
51
338.2047555
0
ARC
8
DEFAULT_255_2_778
10
50.1345481
20
132.0127439
40
2.3288191
50
319.4384111
51
326.903696
0
ARC
8
DEFAULT_255_2_778
10
49.3310256
20
132.6804286
40
3.3734674
50
317.0492989
51
319.6975507
0
LINE
8
DEFAULT_255_2_778
10
52.3770021
20
129.6722531
11
52.3770021
21
129.4190531
0
LINE
8
DEFAULT_255_2_778
10
52.3770021
20
129.4190531
11
50.7647021
21
129.4190531
0
LINE
8
DEFAULT_255_2_778
10
50.7647021
20
129.4190531
11
50.7647021
21
129.6420531
0
LINE
8
DEFAULT_255_2_778
10
50.7647021
20
129.6420531
11
51.6163021
21
130.5813531
0
LINE
8
DEFAULT_255_2_778
10
51.0297021
20
131.1417531
11
50.7170021
21
131.1417531
0
LINE
8
DEFAULT_255_2_778
10
51.8002021
20
130.3818531
11
51.1411021
21
129.6722531
0
LINE
8
DEFAULT_255_2_778
10
51.1411021
20
129.6722531
11
52.3767021
21
129.6722531
0
LINE
8
DEFAULT_255_2_778
10
52.3767021
20
129.6722531
11
52.3770021
21
129.6722531
0
ENDSEC
0
EOF