0
SECTION
2
HEADER
9
$MEASUREMENT
70
1
0
ENDSEC
0
SECTION
2
TABLES
0
TABLE
2
LTYPE
0
LTYPE
72
65
70
64
2
CONTINUOUS
3
______
73
0
40
0
0
ENDTAB
0
TABLE
2
LAYER
0
LAYER
2
DEFAULT_255_2_778
70
0
62
255
6
CONTINUOUS
0
ENDTAB
0
ENDSEC
0
SECTION
2
ENTITIES
0
ARC
8
DEFAULT_255_2_778
10
11.3401234
20
-179.8752189
40
277.3806996
50
89.9975195
51
90.2107958
0
ARC
8
DEFAULT_255_2_778
10
11.1971017
20
-141.6712314
40
239.1764445
50
90.2102052
51
90.4565912
0
ARC
8
DEFAULT_255_2_778
10
10.9192798
20
-106.8941877
40
204.398291
50
90.4564014
51
90.7217273
0
ARC
8
DEFAULT_255_2_778
10
10.5432199
20
-77.037758
40
174.5394931
50
90.7217428
51
90.9981076
0
ARC
8
DEFAULT_255_2_778
10
10.1047783
20
-51.8681316
40
149.3660484
50
90.9981323
51
91.2855625
0
ARC
8
DEFAULT_255_2_778
10
9.6270861
20
-30.5779913
40
128.0705497
50
91.2855989
51
91.584167
0
ARC
8
DEFAULT_255_2_778
10
9.1295801
20
-12.5838073
40
110.0694893
50
91.5842403
51
91.8938734
0
ARC
8
DEFAULT_255_2_778
10
8.6247898
20
2.6862576
40
94.7910831
50
91.8939552
51
92.2146518
0
ARC
8
DEFAULT_255_2_778
10
8.0025145
20
18.596078
40
78.8690996
50
92.2095652
51
92.7193943
0
ARC
8
DEFAULT_255_2_778
10
7.2682099
20
34.0638866
40
63.383871
50
92.7197431
51
93.2542494
0
ARC
8
DEFAULT_255_2_778
10
6.5251812
20
47.0819157
40
50.3446547
50
93.2510193
51
93.9099799
0
ARC
8
DEFAULT_255_2_778
10
5.7408946
20
58.5213752
40
38.8783418
50
93.9064208
51
94.7032715
0
ARC
8
DEFAULT_255_2_778
10
4.9963451
20
67.5790662
40
29.7901011
50
94.7045154
51
95.5371977
0
ARC
8
DEFAULT_255_2_778
10
4.3536507
20
74.2145504
40
23.1235646
50
95.5386236
51
96.401241
0
ARC
8
DEFAULT_255_2_778
10
3.6804697
20
80.1585996
40
17.1415214
50
96.3802523
51
97.7627398
0
ARC
8
DEFAULT_255_2_778
10
2.9432529
20
85.5427215
40
11.7071639
50
97.7469767
51
99.5576445
0
ARC
8
DEFAULT_255_2_778
10
2.2451443
20
89.6661668
40
7.525043
50
99.5289995
51
102.0111411
0
ARC
8
DEFAULT_255_2_778
10
1.6197304
20
92.5920783
40
4.5330393
50
101.9753196
51
105.3253382
0
ARC
8
DEFAULT_255_2_778
10
1.0752955
20
94.5608783
40
2.490359
50
105.2166955
51
110.4362799
0
ARC
8
DEFAULT_255_2_778
10
0.7780007
20
95.3823737
40
1.6167837
50
110.7288033
51
112.3333375
0
ARC
8
DEFAULT_255_2_778
10
11.339981
20
486.5842547
40
382.8025745
50
269.8484671
51
270.0018187
0
ARC
8
DEFAULT_255_2_778
10
11.2042627
20
435.302834
40
331.520974
50
269.6876203
51
269.8484829
0
ARC
8
DEFAULT_255_2_778
10
10.9617361
20
390.8155566
40
287.0330355
50
269.518828
51
269.6876157
0
ARC
8
DEFAULT_255_2_778
10
10.6101816
20
349.3658061
40
245.5817944
50
269.3113783
51
269.5196329
0
ARC
8
DEFAULT_255_2_778
10
10.1349322
20
309.9807316
40
206.1938528
50
269.074882
51
269.3118975
0
ARC
8
DEFAULT_255_2_778
10
9.5655247
20
274.8273044
40
171.0358143
50
268.8058804
51
269.075471
0
ARC
8
DEFAULT_255_2_778
10
8.9389172
20
244.7760101
40
140.977988
50
268.518472
51
268.805965
0
ARC
8
DEFAULT_255_2_778
10
8.2983513
20
220.015862
40
116.2095555
50
268.2119883
51
268.518564
0
ARC
8
DEFAULT_255_2_778
10
7.6619716
20
199.6327474
40
95.816509
50
267.8851818
51
268.2120382
0
ARC
8
DEFAULT_255_2_778
10
7.0410589
20
182.8212252
40
78.9935244
50
267.5367278
51
267.8852603
0
ARC
8
DEFAULT_255_2_778
10
6.4454388
20
168.9778882
40
65.1373796
50
267.1652229
51
267.5368135
0
ARC
8
DEFAULT_255_2_778
10
5.8805658
20
157.5724818
40
53.7179935
50
266.7691941
51
267.1653464
0
ARC
8
DEFAULT_255_2_778
10
5.2257677
20
146.0891535
40
42.2160139
50
266.1239304
51
266.7781194
0
ARC
8
DEFAULT_255_2_778
10
4.4455134
20
134.6279691
40
30.728302
50
265.2759762
51
266.1308472
0
ARC
8
DEFAULT_255_2_778
10
3.6740916
20
125.3246333
40
21.3930387
50
264.2098032
51
265.2829722
0
ARC
8
DEFAULT_255_2_778
10
2.9801459
20
118.4901096
40
14.5233755
50
262.9528322
51
264.2133418
0
ARC
8
DEFAULT_255_2_778
10
2.3394346
20
113.3453127
40
9.3388395
50
261.1304693
51
262.981511
0
ARC
8
DEFAULT_255_2_778
10
1.7320628
20
109.4797522
40
5.4258573
50
258.4813354
51
261.1737373
0
ARC
8
DEFAULT_255_2_778
10
1.2008318
20
106.8969412
40
2.7889889
50
254.3158349
51
258.5794876
0
ARC
8
DEFAULT_255_2_778
10
0.7634526
20
105.3599139
40
1.190965
50
246.899923
51
254.5844124
0
ARC
8
DEFAULT_255_2_778
10
0.4363518
20
104.6106452
40
0.3735016
50
230.1616059
51
247.9595823
0
ARC
8
DEFAULT_255_2_778
10
0.2530496
20
104.3970064
40
0.0921122
50
183.7703652
51
232.580219
0
ARC
8
DEFAULT_255_2_778
10
0.2307838
20
104.3907845
40
0.0696473
50
165.6428369
51
179.864471
0
ARC
8
DEFAULT_255_2_778
10
0.2358039
20
104.3897613
40
0.074765
50
164.866266
51
165.8371661
0
ARC
8
DEFAULT_255_2_778
10
11.3374232
20
-259.2057774
40
277.380458
50
89.9975195
51
90.2107959
0
ARC
8
DEFAULT_255_2_778
10
11.1943997
20
-221.0013078
40
239.1757209
50
90.2102053
51
90.4565918
0
ARC
8
DEFAULT_255_2_778
10
10.916578
20
-186.2242666
40
204.39757
50
90.4564021
51
90.7217286
0
ARC
8
DEFAULT_255_2_778
10
10.5405164
20
-156.3676585
40
174.5385936
50
90.7217444
51
90.9981101
0
ARC
8
DEFAULT_255_2_778
10
10.1020728
20
-131.1978809
40
149.3649976
50
90.9981354
51
91.2855667
0
ARC
8
DEFAULT_255_2_778
10
9.6243603
20
-109.9069209
40
128.068679
50
91.2856029
51
91.5841742
0
ARC
8
DEFAULT_255_2_778
10
9.1268452
20
-91.912532
40
110.0674135
50
91.5842469
51
91.8938844
0
ARC
8
DEFAULT_255_2_778
10
8.6220782
20
-76.6432491
40
94.7897896
50
91.8939663
51
92.2146655
0
ARC
8
DEFAULT_255_2_778
10
7.9997828
20
-60.7330461
40
78.8674231
50
92.2095777
51
92.7194142
0
ARC
8
DEFAULT_255_2_778
10
7.2654694
20
-45.2651582
40
63.3821148
50
92.7197632
51
93.2542799
0
ARC
8
DEFAULT_255_2_778
10
6.5224407
20
-32.2472788
40
50.3430481
50
93.2510479
51
93.910023
0
ARC
8
DEFAULT_255_2_778
10
5.7381306
20
-20.8076563
40
38.876571
50
93.9064584
51
94.7033359
0
ARC
8
DEFAULT_255_2_778
10
4.9936286
20
-11.7506817
40
29.7890481
50
94.7045774
51
95.5372773
0
ARC
8
DEFAULT_255_2_778
10
4.3508968
20
-5.1149016
40
23.1222135
50
95.5387049
51
96.4013584
0
ARC
8
DEFAULT_255_2_778
10
3.6777575
20
0.8286623
40
17.1406572
50
96.3803672
51
97.7628975
0
ARC
8
DEFAULT_255_2_778
10
2.9405097
20
6.2128926
40
11.706188
50
97.747128
51
99.5579038
0
ARC
8
DEFAULT_255_2_778
10
2.2424459
20
10.3359552
40
7.524452
50
99.5292533
51
102.0115173
0
ARC
8
DEFAULT_255_2_778
10
1.6170432
20
13.2617311
40
4.5325832
50
101.975722
51
105.3259554
0
ARC
8
DEFAULT_255_2_778
10
1.0726149
20
15.2304241
40
2.4900078
50
105.2172993
51
110.437378
0
ARC
8
DEFAULT_255_2_778
10
0.7753393
20
16.0518257
40
1.6165273
50
110.7300201
51
112.3347216
0
ARC
8
DEFAULT_255_2_778
10
11.337281
20
407.2465265
40
382.7956463
50
269.8484657
51
270.0018187
0
ARC
8
DEFAULT_255_2_778
10
11.2015649
20
355.9663699
40
331.51531
50
269.6876176
51
269.8484815
0
ARC
8
DEFAULT_255_2_778
10
10.959042
20
311.4800436
40
287.0283225
50
269.5188239
51
269.6876129
0
ARC
8
DEFAULT_255_2_778
10
10.6074847
20
270.030269
40
245.5770574
50
269.311372
51
269.5196287
0
ARC
8
DEFAULT_255_2_778
10
10.1322378
20
230.6458792
40
206.1898004
50
269.0748735
51
269.3118915
0
ARC
8
DEFAULT_255_2_778
10
9.5628335
20
195.4930619
40
171.0323718
50
268.8058694
51
269.075463
0
ARC
8
DEFAULT_255_2_778
10
8.9362474
20
165.4430905
40
140.9758685
50
268.5184594
51
268.8059542
0
ARC
8
DEFAULT_255_2_778
10
8.2957137
20
140.6842168
40
116.2087108
50
268.2119738
51
268.5185491
0
ARC
8
DEFAULT_255_2_778
10
7.6593215
20
120.3007185
40
95.8152804
50
267.8851633
51
268.212021
0
ARC
8
DEFAULT_255_2_778
10
7.0383851
20
103.488693
40
78.9917919
50
267.5367046
51
267.8852416
0
ARC
8
DEFAULT_255_2_778
10
6.4427295
20
89.6447749
40
65.1350652
50
267.1651941
51
267.5367946
0
ARC
8
DEFAULT_255_2_778
10
5.8779487
20
78.2413561
40
53.7176687
50
266.7691669
51
267.1653181
0
ARC
8
DEFAULT_255_2_778
10
5.2231097
20
66.7573887
40
42.2150488
50
266.1238934
51
266.7780916
0
ARC
8
DEFAULT_255_2_778
10
4.4428831
20
55.2967224
40
30.7278556
50
265.2759345
51
266.1308103
0
ARC
8
DEFAULT_255_2_778
10
3.671469
20
45.9935585
40
21.3927643
50
264.2097567
51
265.2829298
0
ARC
8
DEFAULT_255_2_778
10
2.9775312
20
39.1591393
40
14.5232059
50
262.9527704
51
264.2132836
0
ARC
8
DEFAULT_255_2_778
10
2.3368219
20
34.0143997
40
9.338727
50
261.1303982
51
262.9814459
0
ARC
8
DEFAULT_255_2_778
10
1.7294421
20
30.1488166
40
5.4257212
50
258.4812178
51
261.1736637
0
ARC
8
DEFAULT_255_2_778
10
1.1982187
20
27.5660799
40
2.7889272
50
254.3157019
51
258.5794124
0
ARC
8
DEFAULT_255_2_778
10
0.7608496
20
26.0291004
40
1.1909519
50
246.8997473
51
254.5842583
0
ARC
8
DEFAULT_255_2_778
10
0.4337506
20
25.2798414
40
0.3734982
50
230.1613335
51
247.9593492
0
ARC
8
DEFAULT_255_2_778
10
0.25045
20
25.0662064
40
0.0921128
50
183.7704293
51
232.5798719
0
ARC
8
DEFAULT_255_2_778
10
0.2281842
20
25.0599844
40
0.0696478
50
165.6428368
51
179.8644707
0
ARC
8
DEFAULT_255_2_778
10
0.2332044
20
25.0589612
40
0.0747655
50
164.866266
51
165.8371661
0
ARC
8
DEFAULT_255_2_778
10
28.4229195
20
132.696551
40
0.7996864
50
131.4160422
51
178.7224565
0
ARC
8
DEFAULT_255_2_778
10
28.7407202
20
132.3792233
40
1.2482141
50
111.7800353
51
132.7201335
0
ARC
8
DEFAULT_255_2_778
10
28.8773925
20
132.0541334
40
1.6008213
50
93.841484
51
112.0052795
0
ARC
8
DEFAULT_255_2_778
10
28.8944606
20
131.9062475
40
1.7495329
50
89.9911145
51
94.0747216
0
ARC
8
DEFAULT_255_2_778
10
28.9005842
20
131.9929902
40
1.6628005
50
72.3487757
51
90.2016547
0
ARC
8
DEFAULT_255_2_778
10
29.0012423
20
132.295261
40
1.3442456
50
52.8923639
51
72.5305205
0
ARC
8
DEFAULT_255_2_778
10
29.2564501
20
132.6193928
40
0.9318132
50
24.0281631
51
53.3827891
0
ARC
8
DEFAULT_255_2_778
10
29.4422368
20
132.7134604
40
0.7238957
50
0.0728151
51
23.2155433
0
ARC
8
DEFAULT_255_2_778
10
29.3666638
20
132.7322077
40
0.7996668
50
311.4146912
51
358.722578
0
ARC
8
DEFAULT_255_2_778
10
29.0488363
20
133.0495828
40
1.2482472
50
291.7782214
51
312.7187125
0
ARC
8
DEFAULT_255_2_778
10
28.9120919
20
133.3748847
40
1.6010778
50
273.8407327
51
292.003412
0
ARC
8
DEFAULT_255_2_778
10
28.8950039
20
133.5229656
40
1.7499851
50
269.9910948
51
274.0741982
0
ARC
8
DEFAULT_255_2_778
10
28.8888875
20
133.4354418
40
1.6624717
50
252.3470205
51
270.2014208
0
ARC
8
DEFAULT_255_2_778
10
28.7882978
20
133.1334204
40
1.344175
50
232.8907335
51
252.5288045
0
ARC
8
DEFAULT_255_2_778
10
28.5331357
20
132.80937
40
0.9318348
50
204.0277021
51
233.3812028
0
ARC
8
DEFAULT_255_2_778
10
28.3473405
20
132.7153018
40
0.7239093
50
180.0729243
51
203.2152018
0
ARC
8
DEFAULT_255_2_778
10
33.5084039
20
123.2824652
40
0.7995705
50
131.4123239
51
178.7232912
0
ARC
8
DEFAULT_255_2_778
10
33.8262166
20
122.9650681
40
1.2481562
50
111.7759758
51
132.7161177
0
ARC
8
DEFAULT_255_2_778
10
33.962976
20
122.6397042
40
1.6010499
50
93.8403431
51
112.0013373
0
ARC
8
DEFAULT_255_2_778
10
33.9800634
20
122.4915719
40
1.7500085
50
89.991211
51
94.0737066
0
ARC
8
DEFAULT_255_2_778
10
33.9861819
20
122.5788198
40
1.662771
50
72.3505056
51
90.2015794
0
ARC
8
DEFAULT_255_2_778
10
34.0868435
20
122.8811257
40
1.3441815
50
52.8950851
51
72.5323585
0
ARC
8
DEFAULT_255_2_778
10
34.3420745
20
123.2053203
40
0.9316853
50
24.0291833
51
53.3855871
0
ARC
8
DEFAULT_255_2_778
10
34.5277911
20
123.2993634
40
0.7238415
50
0.0725829
51
23.2163076
0
ARC
8
DEFAULT_255_2_778
10
34.4521443
20
123.3181098
40
0.7996864
50
311.4160422
51
358.7224565
0
ARC
8
DEFAULT_255_2_778
10
34.1343436
20
123.6354375
40
1.2482141
50
291.7800353
51
312.7201335
0
ARC
8
DEFAULT_255_2_778
10
33.9976713
20
123.9605274
40
1.6008213
50
273.841484
51
292.0052795
0
ARC
8
DEFAULT_255_2_778
10
33.9806032
20
124.1084134
40
1.7495329
50
269.9911145
51
274.0747216
0
ARC
8
DEFAULT_255_2_778
10
33.9744875
20
124.0213418
40
1.6624717
50
252.3470205
51
270.2014208
0
ARC
8
DEFAULT_255_2_778
10
33.8738978
20
123.7193204
40
1.344175
50
232.8907335
51
252.5288045
0
ARC
8
DEFAULT_255_2_778
10
33.6187357
20
123.39527
40
0.9318348
50
204.0277021
51
233.3812028
0
ARC
8
DEFAULT_255_2_778
10
33.4329405
20
123.3012018
40
0.7239093
50
180.0729243
51
203.2152018
0
ARC
8
DEFAULT_255_2_778
10
32.5022847
20
122.346294
40
1.4885077
50
179.5078189
51
193.5516676
0
ARC
8
DEFAULT_255_2_778
10
32.0402093
20
122.2288319
40
1.0117902
50
193.2165742
51
242.5611206
0
ARC
8
DEFAULT_255_2_778
10
32.3203155
20
122.7207971
40
1.5776362
50
241.7658713
51
254.9752563
0
ARC
8
DEFAULT_255_2_778
10
32.5481681
20
123.546118
40
2.433818
50
254.8314125
51
263.6442854
0
ARC
8
DEFAULT_255_2_778
10
32.6909196
20
124.7766416
40
3.6725855
50
263.5560756
51
269.8342707
0
ARC
8
DEFAULT_255_2_778
10
32.7090022
20
125.6315707
40
4.5275903
50
269.6367337
51
270.0003761
0
LINE
8
DEFAULT_255_2_778
10
32.7090319
20
121.1039804
11
42.8803319
21
121.1039804
0
LINE
8
DEFAULT_255_2_778
10
42.8803319
20
121.1039804
11
42.8803319
21
126.7524804
0
LINE
8
DEFAULT_255_2_778
10
42.8803319
20
126.7524804
11
32.7090319
21
126.7524804
0
ARC
8
DEFAULT_255_2_778
10
67.1398741
20
101.6339623
40
1.5081238
50
342.0028948
51
0.536376
0
ARC
8
DEFAULT_255_2_778
10
67.3128673
20
101.5950043
40
1.3316588
50
309.3308896
51
341.2973544
0
ARC
8
DEFAULT_255_2_778
10
66.9335443
20
102.0341866
40
1.9118392
50
297.3341068
51
309.7820157
0
ARC
8
DEFAULT_255_2_778
10
66.5354758
20
102.7931364
40
2.768837
50
288.8850057
51
297.4402301
0
ARC
8
DEFAULT_255_2_778
10
66.138304
20
103.9410839
40
3.9835454
50
282.5692546
51
288.945934
0
ARC
8
DEFAULT_255_2_778
10
65.7771503
20
105.5415509
40
5.6242508
50
277.7203309
51
282.612095
0
ARC
8
DEFAULT_255_2_778
10
65.4883611
20
107.6418686
40
7.7443267
50
273.9108854
51
277.7500681
0
ARC
8
DEFAULT_255_2_778
10
65.3038376
20
110.2883249
40
10.3972063
50
270.8401735
51
273.9306835
0
ARC
8
DEFAULT_255_2_778
10
65.2590115
20
112.3973986
40
12.5067183
50
269.9932218
51
270.9038313
0
LINE
8
DEFAULT_255_2_778
10
65.2575319
20
99.8906804
11
52.7128319
21
99.8906804
0
ARC
8
DEFAULT_255_2_778
10
52.8711291
20
100.9242382
40
1.0456098
50
245.9683056
51
261.292382
0
ARC
8
DEFAULT_255_2_778
10
52.7177871
20
100.5871794
40
0.6753257
50
191.7902741
51
246.2046628
0
ARC
8
DEFAULT_255_2_778
10
53.2013763
20
100.7151817
40
1.1751655
50
179.4399604
51
193.0819149
0
ARC
8
DEFAULT_255_2_778
10
53.6752394
20
100.7254245
40
1.6489729
50
176.7336325
51
179.9567861
0
ARC
8
DEFAULT_255_2_778
10
53.9252193
20
100.7117734
40
1.8993247
50
174.4707596
51
176.7521669
0
LINE
8
DEFAULT_255_2_778
10
52.0347319
20
100.8947804
11
52.0347319
21
112.1919804
0
ARC
8
DEFAULT_255_2_778
10
53.8922178
20
112.3722997
40
1.8662178
50
182.576868
51
185.5447321
0
ARC
8
DEFAULT_255_2_778
10
53.6462382
20
112.3608333
40
1.6199714
50
180.0261955
51
182.5628733
0
ARC
8
DEFAULT_255_2_778
10
53.2008646
20
112.371615
40
1.1746542
50
166.8922809
51
180.5620316
0
ARC
8
DEFAULT_255_2_778
10
52.7490133
20
112.4836918
40
0.7091903
50
137.7025864
51
167.432353
0
ARC
8
DEFAULT_255_2_778
10
52.7478474
20
112.4594398
40
0.7248909
50
108.65539
51
136.2225518
0
ARC
8
DEFAULT_255_2_778
10
52.8890837
20
112.0861281
40
1.1238589
50
99.0227927
51
109.3896656
0
LINE
8
DEFAULT_255_2_778
10
52.7128319
20
113.1960804
11
64.9183319
21
113.1960804
0
ARC
8
DEFAULT_255_2_778
10
64.9292793
20
100.9000497
40
12.2960356
50
87.4407952
51
90.0510117
0
ARC
8
DEFAULT_255_2_778
10
65.0594384
20
103.7217845
40
9.4713043
50
84.0286995
51
87.4651983
0
ARC
8
DEFAULT_255_2_778
10
65.3116163
20
106.1079967
40
7.0718056
50
79.7920198
51
84.0495319
0
ARC
8
DEFAULT_255_2_778
10
65.6507717
20
107.9762998
40
5.1729709
50
74.4350821
51
79.8217344
0
ARC
8
DEFAULT_255_2_778
10
66.0405405
20
109.3671912
40
3.7285017
50
67.6297319
51
74.4697649
0
ARC
8
DEFAULT_255_2_778
10
66.4582158
20
110.3710313
40
2.6412469
50
57.9058445
51
67.7206345
0
ARC
8
DEFAULT_255_2_778
10
66.874535
20
111.0268737
40
1.8644423
50
42.8384384
51
58.0361007
0
ARC
8
DEFAULT_255_2_778
10
67.1116334
20
111.260428
40
1.5318159
50
4.8351636
51
42.4625976
0
ARC
8
DEFAULT_255_2_778
10
66.6395702
20
111.190025
40
2.008363
50
359.9302607
51
5.7013984
0
LINE
8
DEFAULT_255_2_778
10
68.6479319
20
115.2042804
11
68.6479319
21
97.8819804
0
LINE
8
DEFAULT_255_2_778
10
72.0382319
20
115.2042804
11
50.0005319
21
115.2042804
0
ARC
8
DEFAULT_255_2_778
10
49.9876906
20
109.7596521
40
5.4446435
50
89.8648667
51
94.9485453
0
ARC
8
DEFAULT_255_2_778
10
49.849283
20
111.3241934
40
3.8739958
50
94.905172
51
101.5310693
0
ARC
8
DEFAULT_255_2_778
10
49.6107546
20
112.4749775
40
2.6987595
50
101.4530873
51
110.663372
0
ARC
8
DEFAULT_255_2_778
10
49.3135753
20
113.251658
40
1.8671794
50
110.5409585
51
124.3593756
0
ARC
8
DEFAULT_255_2_778
10
49.0539065
20
113.6322766
40
1.4064211
50
124.3778698
51
168.1880158
0
ARC
8
DEFAULT_255_2_778
10
49.7097357
20
113.4674184
40
2.0822861
50
167.4418098
51
179.474267
0
ARC
8
DEFAULT_255_2_778
10
50.1876892
20
113.4469792
40
2.5604573
50
179.1150483
51
180.0022112
0
LINE
8
DEFAULT_255_2_778
10
47.6272319
20
113.4468804
11
47.6272319
21
99.8904804
0
ARC
8
DEFAULT_255_2_778
10
50.9566715
20
99.8779185
40
3.3294633
50
179.7838243
51
187.4308459
0
ARC
8
DEFAULT_255_2_778
10
49.9728825
20
99.7459961
40
2.3368778
50
187.3430336
51
198.1743736
0
ARC
8
DEFAULT_255_2_778
10
49.3275592
20
99.5287893
40
1.6560073
50
197.9983392
51
216.3448377
0
ARC
8
DEFAULT_255_2_778
10
49.1837523
20
99.4441066
40
1.4900865
50
216.9991904
51
246.9933922
0
ARC
8
DEFAULT_255_2_778
10
49.4314569
20
99.9936579
40
2.0927803
50
246.6315364
51
259.0511864
0
ARC
8
DEFAULT_255_2_778
10
49.6073159
20
100.8736638
40
2.9901739
50
258.945481
51
267.4337642
0
ARC
8
DEFAULT_255_2_778
10
49.6594289
20
101.7207123
40
3.8387324
50
267.2227915
51
270.0328804
0
LINE
8
DEFAULT_255_2_778
10
49.6616319
20
97.8819804
11
72.0385319
21
97.8819804
0
LINE
8
DEFAULT_255_2_778
10
72.0385319
20
41.7730804
11
74.2422319
21
41.7730804
0
LINE
8
DEFAULT_255_2_778
10
74.0726319
20
127.0033804
11
72.0382319
21
127.0033804
0
LINE
8
DEFAULT_255_2_778
10
72.0382319
20
127.0033804
11
72.0382319
21
-0.0263196
0
LINE
8
DEFAULT_255_2_778
10
45.4233319
20
134.9114804
11
45.4233319
21
21.9404804
0
LINE
8
DEFAULT_255_2_778
10
45.4233319
20
21.9404804
11
32.7092319
21
21.9404804
0
LINE
8
DEFAULT_255_2_778
10
32.7092319
20
21.9404804
11
32.7092319
21
8.2583804
0
LINE
8
DEFAULT_255_2_778
10
32.7092319
20
8.2583804
11
16.7742319
21
8.2583804
0
LINE
8
DEFAULT_255_2_778
10
16.7742319
20
8.2583804
11
16.7742319
21
-0.0263196
0
LINE
8
DEFAULT_255_2_778
10
11.3494319
20
134.7860804
11
11.3494319
21
-0.0260196
0
ARC
8
DEFAULT_255_2_778
10
70.0610947
20
100.0866788
40
69.9174929
50
176.3462557
51
178.7206068
0
ARC
8
DEFAULT_255_2_778
10
73.836109
20
99.8477799
40
73.7000583
50
174.2704613
51
176.3479316
0
ARC
8
DEFAULT_255_2_778
10
77.6485321
20
99.4673248
40
77.5314174
50
172.451828
51
174.2719765
0
ARC
8
DEFAULT_255_2_778
10
81.747282
20
98.9228769
40
81.6661691
50
170.591987
51
172.4509023
0
ARC
8
DEFAULT_255_2_778
10
86.3913746
20
98.1529269
40
86.3736545
50
168.7689667
51
170.5916872
0
ARC
8
DEFAULT_255_2_778
10
91.1603072
20
97.2093508
40
91.2350375
50
167.233356
51
168.7710502
0
ARC
8
DEFAULT_255_2_778
10
96.1819089
20
96.0694247
40
96.3843977
50
165.6107132
51
167.2321268
0
ARC
8
DEFAULT_255_2_778
10
101.7309882
20
94.6468052
40
102.1129338
50
164.0974053
51
165.6112763
0
ARC
8
DEFAULT_255_2_778
10
107.5790008
20
92.9809468
40
108.1935863
50
162.6429261
51
164.097547
0
ARC
8
DEFAULT_255_2_778
10
113.4658018
20
91.144189
40
114.3602789
50
161.3928142
51
162.6444618
0
ARC
8
DEFAULT_255_2_778
10
118.5953281
20
89.4225732
40
119.7710067
50
160.4850197
51
161.3952519
0
ARC
8
DEFAULT_255_2_778
10
124.1397101
20
87.4509818
40
125.655504
50
159.242435
51
160.4821869
0
ARC
8
DEFAULT_255_2_778
10
130.9278181
20
84.8787699
40
132.9146146
50
158.0584363
51
159.2426756
0
ARC
8
DEFAULT_255_2_778
10
134.922606
20
83.2835275
40
137.2161218
50
157.898234
51
158.0638661
0
LINE
8
DEFAULT_255_2_778
10
14.9094319
20
25.0784804
11
19.1475319
21
25.0784804
0
LINE
8
DEFAULT_255_2_778
10
19.1475319
20
25.0784804
11
19.1475319
21
18.1746804
0
LINE
8
DEFAULT_255_2_778
10
19.1475319
20
18.1746804
11
14.9094319
21
18.1746804
0
LINE
8
DEFAULT_255_2_778
10
14.9094319
20
18.1746804
11
14.9094319
21
25.0784804
0
LINE
8
DEFAULT_255_2_778
10
36.0996319
20
105.7898804
11
38.6425319
21
105.7898804
0
LINE
8
DEFAULT_255_2_778
10
38.6425319
20
105.7898804
11
38.6425319
21
102.6515804
0
LINE
8
DEFAULT_255_2_778
10
38.6425319
20
102.6515804
11
36.0996319
21
102.6515804
0
LINE
8
DEFAULT_255_2_778
10
36.0996319
20
102.6515804
11
36.0996319
21
105.7898804
0
LINE
8
DEFAULT_255_2_778
10
14.9094319
20
104.1578804
11
19.1475319
21
104.1578804
0
LINE
8
DEFAULT_255_2_778
10
19.1475319
20
104.1578804
11
19.1475319
21
97.2540804
0
LINE
8
DEFAULT_255_2_778
10
19.1475319
20
97.2540804
11
14.9094319
21
97.2540804
0
LINE
8
DEFAULT_255_2_778
10
14.9094319
20
97.2540804
11
14.9094319
21
104.1578804
0
LINE
8
DEFAULT_255_2_778
10
27.6234319
20
132.7143804
11
27.6234319
21
132.7143804
0
LINE
8
DEFAULT_255_2_778
10
32.7090319
20
123.3002804
11
32.7090319
21
123.3002804
0
LINE
8
DEFAULT_255_2_778
10
32.7090319
20
134.9111804
11
32.7090319
21
126.7522804
0
LINE
8
DEFAULT_255_2_778
10
32.7090319
20
126.7522804
11
31.0138319
21
124.8694804
0
LINE
8
DEFAULT_255_2_778
10
31.0138319
20
124.8694804
11
31.0138319
21
122.3590804
0
LINE
8
DEFAULT_255_2_778
10
63.9010319
20
113.1960804
11
63.9010319
21
99.8906804
0
LINE
8
DEFAULT_255_2_778
10
60.8495319
20
113.1960804
11
60.8495319
21
99.8906804
0
LINE
8
DEFAULT_255_2_778
10
57.7981319
20
113.1960804
11
57.7981319
21
99.8906804
0
LINE
8
DEFAULT_255_2_778
10
55.0861319
20
113.1960804
11
55.0861319
21
99.8906804
0
LINE
8
DEFAULT_255_2_778
10
7.7895319
20
134.9114804
11
74.2419319
21
134.9114804
0
LINE
8
DEFAULT_255_2_778
10
74.2419319
20
134.9114804
11
74.2419319
21
-0.0260196
0
LINE
8
DEFAULT_255_2_778
10
74.2419319
20
-0.0260196
11
0.1610319
21
-0.0260196
0
LINE
8
DEFAULT_255_2_778
10
0.1610319
20
-0.0260196
11
0.1610319
21
56.9614804
0
LINE
8
DEFAULT_255_2_778
10
0.1610319
20
56.9614804
11
8.2980319
21
56.9614804
0
LINE
8
DEFAULT_255_2_778
10
8.2980319
20
56.9614804
11
8.2980319
21
90.3505804
0
LINE
8
DEFAULT_255_2_778
10
8.2980319
20
90.3505804
11
0.1610319
21
90.3505804
0
LINE
8
DEFAULT_255_2_778
10
0.1610319
20
90.3505804
11
0.1610319
21
101.6477804
0
LINE
8
DEFAULT_255_2_778
10
7.7895319
20
134.9114804
11
7.7895319
21
134.9114804
0
ENDSEC
0
EOF