0
SECTION
2
HEADER
9
$MEASUREMENT
70
1
0
ENDSEC
0
SECTION
2
TABLES
0
TABLE
2
LTYPE
0
LTYPE
72
65
70
64
2
CONTINUOUS
3
______
73
0
40
0
0
ENDTAB
0
TABLE
2
LAYER
0
LAYER
2
DEFAULT_255_2_778
70
0
62
255
6
CONTINUOUS
0
ENDTAB
0
ENDSEC
0
SECTION
2
ENTITIES
0
ARC
8
DEFAULT_255_2_778
10
1.3033256
20
0.850245
40
1.1008432
50
90.4982153
51
178.990148
0
ARC
8
DEFAULT_255_2_778
10
1.3089836
20
0.8848769
40
1.1064351
50
180.7887094
51
269.2112906
0
ARC
8
DEFAULT_255_2_778
10
1.274748
20
0.8788262
40
1.1004437
50
270.9895824
51
359.5220516
0
ARC
8
DEFAULT_255_2_778
10
1.279258
20
0.8551514
40
1.0959912
50
0.7578006
51
89.2421955
0
ARC
8
DEFAULT_255_2_778
10
15.5810866
20
2.1199339
40
1.8380968
50
46.8179617
51
64.6648739
0
ARC
8
DEFAULT_255_2_778
10
15.799459
20
2.6087027
40
1.3029466
50
64.1468242
51
89.9738195
0
ARC
8
DEFAULT_255_2_778
10
15.799989
20
2.6284988
40
1.2831504
50
89.9970816
51
90.1722976
0
ARC
8
DEFAULT_255_2_778
10
15.7859099
20
2.9111131
40
1.0005823
50
89.4147428
51
90.0010445
0
ARC
8
DEFAULT_255_2_778
10
15.7859948
20
2.9075388
40
1.0041567
50
90.0058831
51
114.4778917
0
ARC
8
DEFAULT_255_2_778
10
15.4905858
20
3.5283389
40
0.3169666
50
112.3743462
51
183.254704
0
ARC
8
DEFAULT_255_2_778
10
15.4824563
20
3.5042387
40
0.3083863
50
178.865759
51
251.195605
0
ARC
8
DEFAULT_255_2_778
10
15.6068691
20
3.7240257
40
0.5585199
50
246.3759738
51
247.1216843
0
ARC
8
DEFAULT_255_2_778
10
16.1567292
20
5.065212
40
2.0080251
50
247.5444403
51
252.4273257
0
ARC
8
DEFAULT_255_2_778
10
16.892486
20
7.3484306
40
4.4068496
50
252.270215
51
255.0320022
0
ARC
8
DEFAULT_255_2_778
10
17.8773897
20
10.9993946
40
8.188322
50
254.9724061
51
256.7191608
0
ARC
8
DEFAULT_255_2_778
10
18.6970645
20
14.4103032
40
11.6963162
50
256.6496754
51
257.1053762
0
ARC
8
DEFAULT_255_2_778
10
15.2844558
20
-0.6811918
40
3.7763822
50
68.7423475
51
77.7312034
0
ARC
8
DEFAULT_255_2_778
10
15.9401776
20
0.9640655
40
2.005382
50
52.1587681
51
69.159418
0
ARC
8
DEFAULT_255_2_778
10
16.3107485
20
1.4478533
40
1.3959981
50
28.149249
51
51.9885633
0
ARC
8
DEFAULT_255_2_778
10
16.4967685
20
1.5581779
40
1.1799709
50
6.9273554
51
27.6871272
0
ARC
8
DEFAULT_255_2_778
10
16.0451158
20
1.4890865
40
1.6367206
50
359.8444578
51
7.4214028
0
ARC
8
DEFAULT_255_2_778
10
15.7732803
20
1.4718464
40
1.9085929
50
348.3740279
51
0.3841625
0
ARC
8
DEFAULT_255_2_778
10
16.3302265
20
1.3551748
40
1.3395626
50
330.0863855
51
348.4613317
0
ARC
8
DEFAULT_255_2_778
10
16.1111428
20
1.4849545
40
1.5941834
50
303.6595661
51
329.9701308
0
ARC
8
DEFAULT_255_2_778
10
15.8287645
20
1.9533591
40
2.1407091
50
282.9316424
51
303.0016634
0
ARC
8
DEFAULT_255_2_778
10
15.5415091
20
3.0769808
40
3.3002409
50
270.0802304
51
283.426725
0
LINE
8
DEFAULT_255_2_778
10
15.5461304
20
-0.2232568
11
15.5452052
21
-0.2232569
0
ARC
8
DEFAULT_255_2_778
10
15.5451251
20
3.5475109
40
3.7707678
50
251.4693523
51
270.0012172
0
ARC
8
DEFAULT_255_2_778
10
15.2150437
20
2.6133762
40
2.780207
50
239.6439626
51
251.8009202
0
ARC
8
DEFAULT_255_2_778
10
15.0135389
20
2.2587808
40
2.3723973
50
226.1105935
51
239.5153915
0
ARC
8
DEFAULT_255_2_778
10
15.640888
20
2.776479
40
1.8423046
50
222.9187072
51
243.9846229
0
ARC
8
DEFAULT_255_2_778
10
15.5086881
20
2.462508
40
1.502281
50
243.26352
51
270.0025533
0
ARC
8
DEFAULT_255_2_778
10
15.5087972
20
2.4437672
40
1.4835402
50
269.9983736
51
270.2677676
0
ARC
8
DEFAULT_255_2_778
10
15.5107462
20
1.8534532
40
0.8932239
50
270.3197111
51
296.6958154
0
ARC
8
DEFAULT_255_2_778
10
15.7670648
20
1.3646868
40
0.3415357
50
295.1159958
51
3.8784086
0
ARC
8
DEFAULT_255_2_778
10
15.5216364
20
1.3915388
40
0.5861939
50
359.6333893
51
0.0004291
0
ARC
8
DEFAULT_255_2_778
10
15.7530737
20
1.3951536
40
0.354775
50
359.4169161
51
66.4298233
0
ARC
8
DEFAULT_255_2_778
10
15.6024761
20
1.1628086
40
0.6295747
50
62.3195859
51
64.8809984
0
ARC
8
DEFAULT_255_2_778
10
15.0865522
20
0.0277144
40
1.8763881
50
65.3303343
51
71.1131161
0
ARC
8
DEFAULT_255_2_778
10
14.4054493
20
-1.9264161
40
3.9457986
50
70.9406344
51
74.2978931
0
ARC
8
DEFAULT_255_2_778
10
13.5526407
20
-4.9292585
40
7.0673858
50
74.2305514
51
76.4043015
0
ARC
8
DEFAULT_255_2_778
10
12.8855118
20
-7.6284562
40
9.8477798
50
76.3232144
51
76.8999618
0
ARC
8
DEFAULT_255_2_778
10
15.9803723
20
5.694455
40
3.8298733
50
248.8053653
51
256.9799183
0
ARC
8
DEFAULT_255_2_778
10
15.1798848
20
3.6666944
40
1.6499222
50
230.4471074
51
249.264788
0
ARC
8
DEFAULT_255_2_778
10
14.9933986
20
3.4285251
40
1.3475552
50
207.0479461
51
230.1122261
0
ARC
8
DEFAULT_255_2_778
10
14.8133003
20
3.3353637
40
1.1447917
50
186.8960955
51
206.9941506
0
ARC
8
DEFAULT_255_2_778
10
15.3203971
20
3.412642
40
1.6575744
50
179.8271255
51
187.4433719
0
ARC
8
DEFAULT_255_2_778
10
15.4146326
20
3.4301795
40
1.7518471
50
167.4431774
51
180.4100127
0
ARC
8
DEFAULT_255_2_778
10
14.9447928
20
3.534541
40
1.2705563
50
149.2092936
51
167.4304817
0
ARC
8
DEFAULT_255_2_778
10
15.238969
20
3.3588243
40
1.6132163
50
123.6681811
51
149.1965686
0
ARC
8
DEFAULT_255_2_778
10
15.5535575
20
2.8757073
40
2.189707
50
104.334342
51
123.5108857
0
ARC
8
DEFAULT_255_2_778
10
15.745271
20
2.2197273
40
2.8728239
50
90.1344358
51
104.799793
0
LINE
8
DEFAULT_255_2_778
10
15.7385304
20
5.0925432
11
15.7394739
21
5.0925434
0
ARC
8
DEFAULT_255_2_778
10
15.7396526
20
1.5757911
40
3.5167523
50
71.8227522
51
90.0029114
0
ARC
8
DEFAULT_255_2_778
10
16.0555245
20
2.4907775
40
2.5489307
50
57.7578133
51
72.1525478
0
ARC
8
DEFAULT_255_2_778
10
16.2366062
20
2.7933837
40
2.1963949
50
46.6499338
51
57.5417885
0
ARC
8
DEFAULT_255_2_778
10
21.086519
20
2.8865164
40
2.1877603
50
89.6828101
51
103.2022377
0
ARC
8
DEFAULT_255_2_778
10
20.9601844
20
3.395692
40
1.6632025
50
102.9712391
51
129.115022
0
ARC
8
DEFAULT_255_2_778
10
20.9096822
20
3.4723884
40
1.5718612
50
129.4504617
51
131.2573537
0
ARC
8
DEFAULT_255_2_778
10
21.1775886
20
2.6746702
40
1.3047868
50
168.2183989
51
180.3788292
0
ARC
8
DEFAULT_255_2_778
10
20.7955614
20
2.7563382
40
0.9141347
50
150.2755274
51
168.3402802
0
ARC
8
DEFAULT_255_2_778
10
20.6524369
20
2.8343848
40
0.7511515
50
118.1916167
51
150.0323389
0
ARC
8
DEFAULT_255_2_778
10
20.7227848
20
2.690649
40
0.9110893
50
93.7086595
51
117.8205053
0
ARC
8
DEFAULT_255_2_778
10
20.7405555
20
2.5554278
40
1.0472153
50
89.9904338
51
94.2003663
0
ARC
8
DEFAULT_255_2_778
10
20.7489741
20
2.5863544
40
1.0163223
50
77.3319312
51
90.4647483
0
ARC
8
DEFAULT_255_2_778
10
20.8222823
20
2.9047029
40
0.6896488
50
56.3019125
51
77.4739205
0
ARC
8
DEFAULT_255_2_778
10
20.7315091
20
2.8532628
40
0.7842166
50
5.0851491
51
52.8673736
0
ARC
8
DEFAULT_255_2_778
10
20.0935316
20
2.706711
40
1.4354611
50
5.9281836
51
8.6569019
0
ARC
8
DEFAULT_255_2_778
10
19.798493
20
2.6794451
40
1.7317413
50
359.880831
51
5.8172814
0
ARC
8
DEFAULT_255_2_778
10
20.7988104
20
3.0959549
40
2.2818385
50
359.7686992
51
14.2176586
0
ARC
8
DEFAULT_255_2_778
10
21.157518
20
3.1897346
40
1.9110876
50
14.1335201
51
36.2212662
0
ARC
8
DEFAULT_255_2_778
10
21.2405371
20
3.2356594
40
1.8170151
50
36.5998849
51
71.1260856
0
ARC
8
DEFAULT_255_2_778
10
21.1239039
20
2.9160835
40
2.1571487
50
70.9405952
51
86.8140786
0
ARC
8
DEFAULT_255_2_778
10
21.0982589
20
2.6349143
40
2.439329
50
86.5796858
51
90.014763
0
ARC
8
DEFAULT_255_2_778
10
10.441891
20
2.1555931
40
2.8830183
50
109.5061012
51
133.673453
0
ARC
8
DEFAULT_255_2_778
10
10.6778348
20
1.5592198
40
3.5240235
50
90.0000725
51
109.8844204
0
ARC
8
DEFAULT_255_2_778
10
10.6904977
20
0.7763266
40
4.3069353
50
84.2205236
51
90.1685159
0
ARC
8
DEFAULT_255_2_778
10
10.8247925
20
2.0746361
40
3.0017032
50
76.3983551
51
84.2753525
0
ARC
8
DEFAULT_255_2_778
10
10.9959772
20
2.8070054
40
2.2496238
50
70.5266567
51
76.2494224
0
ARC
8
DEFAULT_255_2_778
10
11.1981004
20
3.3421008
40
1.6778003
50
51.2429088
51
70.9425064
0
ARC
8
DEFAULT_255_2_778
10
11.337027
20
3.5317898
40
1.4429465
50
39.3317533
51
50.8294224
0
ARC
8
DEFAULT_255_2_778
10
10.9868808
20
3.2584677
40
1.8870443
50
23.106695
51
39.0125085
0
ARC
8
DEFAULT_255_2_778
10
10.4658735
20
3.0284903
40
2.4565175
50
14.0184515
51
23.2713874
0
ARC
8
DEFAULT_255_2_778
10
9.228741
20
2.7207212
40
3.7313578
50
7.2153138
51
14.0019767
0
ARC
8
DEFAULT_255_2_778
10
7.7140985
20
2.5234117
40
5.2587908
50
2.3548703
51
7.2753499
0
ARC
8
DEFAULT_255_2_778
10
6.177039
20
2.4496125
40
6.7975928
50
359.9614867
51
2.4440577
0
ARC
8
DEFAULT_255_2_778
10
10.0586297
20
1.5753157
40
1.7872521
50
308.9566268
51
321.3859525
0
ARC
8
DEFAULT_255_2_778
10
10.0518799
20
1.5868496
40
1.800466
50
292.1310595
51
308.8928891
0
ARC
8
DEFAULT_255_2_778
10
10.0162142
20
1.676517
40
1.8969634
50
273.4186181
51
292.1086476
0
ARC
8
DEFAULT_255_2_778
10
10.0125001
20
1.7054774
40
1.9260949
50
270.00041
51
273.4775332
0
ARC
8
DEFAULT_255_2_778
10
10.0022521
20
1.6003667
40
1.8210132
50
241.0133086
51
270.3228745
0
ARC
8
DEFAULT_255_2_778
10
9.8447037
20
1.3152316
40
1.4952474
50
207.717975
51
240.9992967
0
ARC
8
DEFAULT_255_2_778
10
9.8661672
20
1.3157089
40
1.5144999
50
192.3506675
51
207.3562818
0
ARC
8
DEFAULT_255_2_778
10
10.0879134
20
1.364065
40
1.7414572
50
180.9574486
51
192.3443092
0
ARC
8
DEFAULT_255_2_778
10
10.272803
20
1.3726697
40
1.9264726
50
179.9978124
51
181.1214433
0
ARC
8
DEFAULT_255_2_778
10
9.2208147
20
1.368742
40
0.8744935
50
174.8588245
51
179.737845
0
ARC
8
DEFAULT_255_2_778
10
9.6407525
20
1.3329077
40
1.2959544
50
170.2935374
51
174.9446159
0
ARC
8
DEFAULT_255_2_778
10
9.8971946
20
1.2900569
40
1.5559504
50
165.2023335
51
170.3303204
0
ARC
8
DEFAULT_255_2_778
10
10.0071838
20
1.2617125
40
1.6695311
50
159.2123961
51
165.2259333
0
ARC
8
DEFAULT_255_2_778
10
10.0222455
20
1.2564981
40
1.6854632
50
152.0958738
51
159.2283899
0
ARC
8
DEFAULT_255_2_778
10
10.0065335
20
1.264759
40
1.6677119
50
146.7120299
51
152.0940614
0
ARC
8
DEFAULT_255_2_778
10
9.9999865
20
1.2688785
40
1.6599782
50
137.1993965
51
146.7068628
0
ARC
8
DEFAULT_255_2_778
10
10.0371221
20
1.2333
40
1.7113993
50
127.6774596
51
137.1701709
0
ARC
8
DEFAULT_255_2_778
10
10.1255461
20
1.1178006
40
1.8568593
50
119.0990047
51
127.6586166
0
ARC
8
DEFAULT_255_2_778
10
10.2428765
20
0.9068742
40
2.0982229
50
111.735382
51
119.0974576
0
ARC
8
DEFAULT_255_2_778
10
10.3699877
20
0.5876997
40
2.4417773
50
105.1024678
51
111.7325015
0
ARC
8
DEFAULT_255_2_778
10
10.4880839
20
0.1526139
40
2.8926055
50
99.5513884
51
105.1154898
0
ARC
8
DEFAULT_255_2_778
10
10.578014
20
-0.3756457
40
3.4284644
50
95.024716
51
99.5685713
0
ARC
8
DEFAULT_255_2_778
10
10.6645092
20
-1.2303358
40
4.2874606
50
93.0321511
51
95.1757816
0
ARC
8
DEFAULT_255_2_778
10
10.7404857
20
-2.8595309
40
5.9184027
50
90.3654752
51
92.9323576
0
ARC
8
DEFAULT_255_2_778
10
10.7923227
20
-7.4675557
40
10.5266882
50
89.9835333
51
90.4876288
0
ARC
8
DEFAULT_255_2_778
10
10.7848165
20
-16.0994135
40
19.1585486
50
89.5544392
51
89.9685043
0
ARC
8
DEFAULT_255_2_778
10
10.2496086
20
-85.7882241
40
88.8494143
50
89.4629968
51
89.5587843
0
ARC
8
DEFAULT_255_2_778
10
11.6206597
20
61.1848378
40
58.1300428
50
269.4693938
51
269.6231621
0
ARC
8
DEFAULT_255_2_778
10
11.4321795
20
33.2161161
40
30.1606866
50
269.6317591
51
269.8877179
0
ARC
8
DEFAULT_255_2_778
10
11.4203652
20
28.4696585
40
25.4142152
50
269.8933829
51
269.9996962
0
ARC
8
DEFAULT_255_2_778
10
10.6447612
20
3.1488328
40
0.7755814
50
359.0255798
51
19.9733007
0
ARC
8
DEFAULT_255_2_778
10
10.8521308
20
3.2171534
40
0.5573869
50
20.6540704
51
56.5545779
0
ARC
8
DEFAULT_255_2_778
10
10.5945528
20
2.8268657
40
1.0250095
50
56.5645348
51
82.6165126
0
ARC
8
DEFAULT_255_2_778
10
10.5236862
20
2.4129185
40
1.4447323
50
81.9390225
51
90.1710375
0
ARC
8
DEFAULT_255_2_778
10
10.5188877
20
2.6775827
40
1.1800618
50
89.9764141
51
90.0707572
0
ARC
8
DEFAULT_255_2_778
10
10.5175652
20
2.2548531
40
1.6027901
50
90.0048204
51
115.0026223
0
ARC
8
DEFAULT_255_2_778
10
11.2540608
20
0.6485511
40
3.3698695
50
114.8080851
51
116.6405491
0
ARC
8
DEFAULT_255_2_778
10
10.9102484
20
1.339765
40
2.5978755
50
116.6983851
51
117.4443941
0
ARC
8
DEFAULT_255_2_778
10
10.4687838
20
2.1535504
40
1.6722928
50
116.8715957
51
129.3862928
0
ARC
8
DEFAULT_255_2_778
10
10.6389045
20
1.9546976
40
1.9339399
50
129.5433896
51
132.5089668
0
ARC
8
DEFAULT_255_2_778
10
10.8572982
20
0.4859038
40
1.6186422
50
89.8926687
51
97.6052284
0
ARC
8
DEFAULT_255_2_778
10
10.8262967
20
0.7170843
40
1.3853924
50
97.5997382
51
106.1258432
0
ARC
8
DEFAULT_255_2_778
10
10.7757484
20
0.8922817
40
1.2030486
50
106.1306673
51
114.5918944
0
ARC
8
DEFAULT_255_2_778
10
10.7183237
20
1.0198937
40
1.0631145
50
114.6398596
51
120.1811309
0
ARC
8
DEFAULT_255_2_778
10
10.6497719
20
1.1368844
40
0.9275196
50
120.1537281
51
126.01465
0
ARC
8
DEFAULT_255_2_778
10
10.5394469
20
1.2877798
40
0.7405954
50
125.9749655
51
131.6525296
0
ARC
8
DEFAULT_255_2_778
10
10.3826793
20
1.4635573
40
0.5050669
50
131.617216
51
136.7620465
0
ARC
8
DEFAULT_255_2_778
10
10.3418849
20
1.4955945
40
0.4534246
50
136.1800418
51
180.0330384
0
ARC
8
DEFAULT_255_2_778
10
10.3422486
20
1.4953136
40
0.4537882
50
179.9975409
51
181.0063962
0
ARC
8
DEFAULT_255_2_778
10
10.2637587
20
1.4746509
40
0.3754429
50
178.0626705
51
179.9998974
0
ARC
8
DEFAULT_255_2_778
10
10.2792678
20
1.4761149
40
0.3909548
50
180.2144595
51
211.9476882
0
ARC
8
DEFAULT_255_2_778
10
10.330644
20
1.5146215
40
0.4549578
50
212.6389178
51
239.1478262
0
ARC
8
DEFAULT_255_2_778
10
10.4171779
20
1.6676396
40
0.6307134
50
239.5277981
51
259.8777231
0
ARC
8
DEFAULT_255_2_778
10
10.5415142
20
2.251929
40
1.2279186
50
258.9578882
51
269.5808053
0
ARC
8
DEFAULT_255_2_778
10
10.5451954
20
2.3031886
40
1.2792081
50
269.4327255
51
283.4538903
0
ARC
8
DEFAULT_255_2_778
10
10.6677685
20
1.8240912
40
0.7847783
50
282.8886973
51
315.4498598
0
ARC
8
DEFAULT_255_2_778
10
10.6136886
20
1.8552842
40
0.8453465
50
316.5146836
51
350.8428335
0
ARC
8
DEFAULT_255_2_778
10
10.1923761
20
1.9434084
40
1.27547
50
349.9465226
51
0.2845698
0
ARC
8
DEFAULT_255_2_778
10
5.0818704
20
3.2445994
40
1.8372638
50
50.4346394
51
82.9445783
0
ARC
8
DEFAULT_255_2_778
10
4.9964238
20
2.7286297
40
2.3599191
50
82.4244381
51
90.1236607
0
ARC
8
DEFAULT_255_2_778
10
4.9843338
20
2.6861042
40
2.4024493
50
89.8331386
51
108.3002631
0
ARC
8
DEFAULT_255_2_778
10
4.9947192
20
2.7141202
40
2.3791844
50
108.7495699
51
152.9498525
0
ARC
8
DEFAULT_255_2_778
10
5.3226448
20
2.5221753
40
2.7586148
50
152.4967131
51
169.2182784
0
ARC
8
DEFAULT_255_2_778
10
5.629671
20
2.4595213
40
3.0719445
50
169.1415614
51
180.0909825
0
ARC
8
DEFAULT_255_2_778
10
5.6209174
20
2.4478621
40
3.0631945
50
179.8731615
51
194.3228878
0
ARC
8
DEFAULT_255_2_778
10
5.3209404
20
2.3687458
40
2.7529705
50
194.2719594
51
212.7197949
0
ARC
8
DEFAULT_255_2_778
10
4.9963735
20
2.1332459
40
2.3527191
50
212.1671382
51
260.9619807
0
ARC
8
DEFAULT_255_2_778
10
4.9899197
20
2.1765984
40
2.3945558
50
261.2774413
51
270.0409331
0
ARC
8
DEFAULT_255_2_778
10
5.0020618
20
1.8311009
40
2.0490843
50
269.7083195
51
290.0756147
0
ARC
8
DEFAULT_255_2_778
10
5.1597937
20
1.4137839
40
1.6029876
50
289.9004755
51
314.2593445
0
ARC
8
DEFAULT_255_2_778
10
5.1214358
20
2.4261586
40
1.3718961
50
319.3713433
51
339.9066696
0
ARC
8
DEFAULT_255_2_778
10
5.2332851
20
2.335239
40
1.2278117
50
296.281118
51
319.1927051
0
ARC
8
DEFAULT_255_2_778
10
5.2908841
20
2.2342265
40
1.1117587
50
271.7603191
51
295.9245273
0
ARC
8
DEFAULT_255_2_778
10
5.2631765
20
2.540152
40
1.4185089
50
269.9860208
51
272.4993826
0
ARC
8
DEFAULT_255_2_778
10
5.2496295
20
2.3796169
40
1.2580429
50
253.2142569
51
270.601225
0
ARC
8
DEFAULT_255_2_778
10
5.1833419
20
2.1304486
40
1.000384
50
243.5420727
51
252.7277098
0
ARC
8
DEFAULT_255_2_778
10
5.2504227
20
2.2825156
40
1.1664361
50
219.9808684
51
243.9201636
0
ARC
8
DEFAULT_255_2_778
10
5.3107758
20
2.3265061
40
1.240958
50
197.1710803
51
219.746752
0
ARC
8
DEFAULT_255_2_778
10
5.6468622
20
2.4486901
40
1.598232
50
180.0339439
51
197.7990517
0
ARC
8
DEFAULT_255_2_778
10
5.5986724
20
2.4479574
40
1.5500421
50
161.8290437
51
180.0079163
0
ARC
8
DEFAULT_255_2_778
10
5.254437
20
2.5775197
40
1.1826742
50
115.8845103
51
162.5920961
0
ARC
8
DEFAULT_255_2_778
10
5.2198255
20
2.6518353
40
1.1007052
50
93.9022836
51
115.9523862
0
ARC
8
DEFAULT_255_2_778
10
5.2634004
20
2.2760159
40
1.4787271
50
90.0027117
51
94.595767
0
ARC
8
DEFAULT_255_2_778
10
5.2773112
20
2.5736325
40
1.1811935
50
69.8929364
51
90.6781768
0
ARC
8
DEFAULT_255_2_778
10
5.3277624
20
2.739598
40
1.0080457
50
63.4758523
51
69.3428131
0
ARC
8
DEFAULT_255_2_778
10
5.2333042
20
2.5390684
40
1.2296619
50
40.8300681
51
63.7104753
0
ARC
8
DEFAULT_255_2_778
10
5.1376794
20
2.4589001
40
1.3544334
50
19.9504731
51
40.7513151
0
ARC
8
DEFAULT_255_2_778
10
5.1172939
20
2.4374243
40
1.3809866
50
359.9987115
51
20.4994348
0
ARC
8
DEFAULT_255_2_778
10
5.1172891
20
2.437363
40
1.3809913
50
339.5006016
51
0.001254
0
LINE
8
DEFAULT_255_2_778
10
13.3688304
20
0.5490432
11
14.2917304
21
1.5219432
0
LINE
8
DEFAULT_255_2_778
10
17.7443304
20
4.3905432
11
16.8415304
21
3.4576432
0
LINE
8
DEFAULT_255_2_778
10
16.8415304
20
3.4576432
11
16.8389304
21
3.4602432
0
LINE
8
DEFAULT_255_2_778
10
19.8731304
20
4.6540432
11
19.8731304
21
7.2591432
0
LINE
8
DEFAULT_255_2_778
10
19.8731304
20
7.2591432
11
18.3232304
21
7.2591432
0
LINE
8
DEFAULT_255_2_778
10
18.3232304
20
7.2591432
11
18.3232304
21
-0.0708568
0
LINE
8
DEFAULT_255_2_778
10
18.3232304
20
-0.0708568
11
19.8728304
21
-0.0708568
0
LINE
8
DEFAULT_255_2_778
10
19.8728304
20
-0.0708568
11
19.8728304
21
2.6660432
0
LINE
8
DEFAULT_255_2_778
10
21.5302304
20
2.6758432
11
21.5302304
21
-0.0705568
0
LINE
8
DEFAULT_255_2_778
10
21.5302304
20
-0.0705568
11
23.0806304
21
-0.0705568
0
LINE
8
DEFAULT_255_2_778
10
23.0806304
20
-0.0705568
11
23.0806304
21
3.0867432
0
LINE
8
DEFAULT_255_2_778
10
12.9746304
20
2.4450432
11
12.9746304
21
-0.0605568
0
LINE
8
DEFAULT_255_2_778
10
12.9746304
20
-0.0605568
11
11.4551304
21
-0.0605568
0
LINE
8
DEFAULT_255_2_778
10
11.4551304
20
-0.0605568
11
11.4551304
21
0.4599432
0
LINE
8
DEFAULT_255_2_778
10
11.4202304
20
3.0554432
11
11.4202304
21
3.1356432
0
LINE
8
DEFAULT_255_2_778
10
9.3321304
20
3.3803432
11
8.4510304
21
4.2408432
0
LINE
8
DEFAULT_255_2_778
10
11.4673304
20
2.1045432
11
10.8603304
21
2.1045432
0
LINE
8
DEFAULT_255_2_778
10
11.4678304
20
1.9497432
11
11.4678304
21
2.1043432
0
LINE
8
DEFAULT_255_2_778
10
11.4678304
20
2.1043432
11
11.4673304
21
2.1045432
0
LINE
8
DEFAULT_255_2_778
10
6.2521304
20
7.2676432
11
6.2521304
21
4.6609432
0
LINE
8
DEFAULT_255_2_778
10
6.2785304
20
0.2657432
11
6.2785304
21
-0.0602568
0
LINE
8
DEFAULT_255_2_778
10
6.2785304
20
-0.0602568
11
7.8020304
21
-0.0602568
0
LINE
8
DEFAULT_255_2_778
10
7.8020304
20
-0.0602568
11
7.8020304
21
7.2676432
0
LINE
8
DEFAULT_255_2_778
10
7.8020304
20
7.2676432
11
6.2521304
21
7.2676432
0
LINE
8
DEFAULT_255_2_778
10
6.4108304
20
1.9537432
11
6.4098304
21
1.9548432
0
ENDSEC
0
EOF