0
SECTION
2
HEADER
9
$MEASUREMENT
70
1
0
ENDSEC
0
SECTION
2
TABLES
0
TABLE
2
LTYPE
0
LTYPE
72
65
70
64
2
CONTINUOUS
3
______
73
0
40
0
0
ENDTAB
0
TABLE
2
LAYER
0
LAYER
2
DEFAULT_255_2_778
70
0
62
255
6
CONTINUOUS
0
ENDTAB
0
ENDSEC
0
SECTION
2
ENTITIES
0
ARC
8
DEFAULT_255_2_778
10
8.7702769
20
8.5532306
40
8.2453405
50
90.0030806
51
102.3632954
0
ARC
8
DEFAULT_255_2_778
10
8.8344333
20
8.3047992
40
8.5017524
50
102.4271643
51
121.2282151
0
ARC
8
DEFAULT_255_2_778
10
8.8894499
20
8.1507266
40
8.6620868
50
121.0110355
51
164.3328869
0
ARC
8
DEFAULT_255_2_778
10
8.3160067
20
8.3676192
40
8.0515584
50
164.716998
51
178.0401138
0
ARC
8
DEFAULT_255_2_778
10
8.2874849
20
8.3706066
40
8.0229513
50
178.0544696
51
180.0002532
0
ARC
8
DEFAULT_255_2_778
10
8.4350054
20
8.3711897
40
8.1704718
50
180.0043378
51
192.5692765
0
ARC
8
DEFAULT_255_2_778
10
8.733358
20
8.4512158
40
8.4790996
50
192.6583429
51
213.3211513
0
ARC
8
DEFAULT_255_2_778
10
8.9741936
20
8.5807125
40
8.7515127
50
213.1634315
51
251.4320633
0
ARC
8
DEFAULT_255_2_778
10
8.7778378
20
8.0963603
40
8.2299091
50
251.65417
51
265.8773255
0
ARC
8
DEFAULT_255_2_778
10
8.769705
20
8.0329506
40
8.1660795
50
265.902255
51
270.0009019
0
ARC
8
DEFAULT_255_2_778
10
8.7692665
20
7.9126273
40
8.0457562
50
270.0040379
51
282.7503072
0
ARC
8
DEFAULT_255_2_778
10
8.6739803
20
8.2517814
40
8.3975966
50
282.8736948
51
305.9751586
0
ARC
8
DEFAULT_255_2_778
10
8.4834873
20
8.5491418
40
8.7501681
50
305.8408
51
337.3625465
0
ARC
8
DEFAULT_255_2_778
10
8.8381399
20
8.3890777
40
8.3612376
50
337.4394817
51
352.5709684
0
ARC
8
DEFAULT_255_2_778
10
8.9438572
20
8.370262
40
8.2539764
50
352.6055977
51
0.0021454
0
ARC
8
DEFAULT_255_2_778
10
9.091426
20
8.3701452
40
8.1064076
50
0.0030102
51
12.4702352
0
ARC
8
DEFAULT_255_2_778
10
8.8134885
20
8.2963071
40
8.3937409
50
12.5526967
51
32.6623348
0
ARC
8
DEFAULT_255_2_778
10
8.5700518
20
8.1663261
40
8.6688586
50
32.5172383
51
71.6854771
0
ARC
8
DEFAULT_255_2_778
10
8.7624686
20
8.6434175
40
8.155536
50
71.9155744
51
85.9397012
0
ARC
8
DEFAULT_255_2_778
10
8.7699639
20
8.7022812
40
8.0962898
50
85.9631153
51
90.0009224
0
ENDSEC
0
EOF