0
SECTION
2
HEADER
9
$MEASUREMENT
70
1
0
ENDSEC
0
SECTION
2
TABLES
0
TABLE
2
LTYPE
0
LTYPE
72
65
70
64
2
CONTINUOUS
3
______
73
0
40
0
0
ENDTAB
0
TABLE
2
LAYER
0
LAYER
2
DEFAULT_255_2_778
70
0
62
255
6
CONTINUOUS
0
ENDTAB
0
ENDSEC
0
SECTION
2
ENTITIES
0
ARC
8
DEFAULT_255_2_778
10
8.7349057
20
8.2873356
40
7.9508593
50
79.5368633
51
90.0267753
0
ARC
8
DEFAULT_255_2_778
10
8.7532608
20
8.3977723
40
7.8389257
50
65.6628301
51
79.5222028
0
ARC
8
DEFAULT_255_2_778
10
8.7136556
20
8.3241491
40
7.9223302
50
23.2930387
51
65.6212798
0
ARC
8
DEFAULT_255_2_778
10
8.7797935
20
8.3590497
40
7.8477842
50
9.7144401
51
23.2499431
0
ARC
8
DEFAULT_255_2_778
10
8.6651154
20
8.340931
40
7.9638754
50
359.9767109
51
9.7037083
0
ARC
8
DEFAULT_255_2_778
10
8.6699663
20
8.3340613
40
7.9590246
50
349.3701015
51
0.0261512
0
ARC
8
DEFAULT_255_2_778
10
8.7703397
20
8.3173608
40
7.8572934
50
335.5567382
51
349.3547775
0
ARC
8
DEFAULT_255_2_778
10
8.7052475
20
8.3509024
40
7.9304317
50
293.1898615
51
335.5307245
0
ARC
8
DEFAULT_255_2_778
10
8.751736
20
8.2636462
40
7.8319238
50
279.5293691
51
293.1286085
0
ARC
8
DEFAULT_255_2_778
10
8.7343193
20
8.3762952
40
7.9459019
50
269.9774366
51
279.5187479
0
ARC
8
DEFAULT_255_2_778
10
8.7274746
20
8.3812523
40
7.9508593
50
259.5368633
51
270.0267753
0
ARC
8
DEFAULT_255_2_778
10
8.7091195
20
8.2708156
40
7.8389257
50
245.6628301
51
259.5222028
0
ARC
8
DEFAULT_255_2_778
10
8.7487247
20
8.3444388
40
7.9223302
50
203.2930387
51
245.6212798
0
ARC
8
DEFAULT_255_2_778
10
8.6825868
20
8.3095382
40
7.8477842
50
189.7144401
51
203.2499431
0
ARC
8
DEFAULT_255_2_778
10
8.7972649
20
8.3276569
40
7.9638754
50
179.9767109
51
189.7037083
0
ARC
8
DEFAULT_255_2_778
10
8.7924139
20
8.3345266
40
7.9590246
50
169.3701015
51
180.0261512
0
ARC
8
DEFAULT_255_2_778
10
8.6920406
20
8.3512271
40
7.8572934
50
155.5567382
51
169.3547775
0
ARC
8
DEFAULT_255_2_778
10
8.7571328
20
8.3176855
40
7.9304317
50
113.1898615
51
155.5307245
0
ARC
8
DEFAULT_255_2_778
10
8.7106442
20
8.4049417
40
7.8319238
50
99.5293691
51
113.1286085
0
ARC
8
DEFAULT_255_2_778
10
8.728061
20
8.2922927
40
7.9459019
50
89.9774366
51
99.5187479
0
LINE
8
DEFAULT_255_2_778
10
8.7311901
20
16.238194
11
8.7311901
21
16.238194
0
ARC
8
DEFAULT_255_2_778
10
8.7278554
20
8.362812
40
8.4951462
50
259.8725492
51
270.0227845
0
ARC
8
DEFAULT_255_2_778
10
8.7131464
20
8.2685266
40
8.3997439
50
246.5582633
51
259.8582305
0
ARC
8
DEFAULT_255_2_778
10
8.7647153
20
8.3693085
40
8.5127258
50
204.5886682
51
246.5096683
0
ARC
8
DEFAULT_255_2_778
10
8.6577602
20
8.3132959
40
8.3921652
50
190.8608187
51
204.5447743
0
ARC
8
DEFAULT_255_2_778
10
8.7367869
20
8.3261983
40
8.4722076
50
180.6604486
51
190.8458102
0
ARC
8
DEFAULT_255_2_778
10
8.8636665
20
8.3308304
40
8.5991328
50
179.9997601
51
180.6815658
0
ARC
8
DEFAULT_255_2_778
10
8.7711417
20
8.3343546
40
8.5066089
50
169.8765239
51
180.0234946
0
ARC
8
DEFAULT_255_2_778
10
8.6697127
20
8.3503708
40
8.403944
50
156.5597421
51
169.8624702
0
ARC
8
DEFAULT_255_2_778
10
8.765974
20
8.3006505
40
8.512043
50
114.6043207
51
156.5104358
0
ARC
8
DEFAULT_255_2_778
10
8.713074
20
8.4017236
40
8.3981241
50
100.8669881
51
114.5632819
0
ARC
8
DEFAULT_255_2_778
10
8.7265236
20
8.3201197
40
8.4808006
50
90.660629
51
100.852285
0
ARC
8
DEFAULT_255_2_778
10
8.7312141
20
8.19064
40
8.6103264
50
89.9998708
51
90.6819052
0
ARC
8
DEFAULT_255_2_778
10
8.7346134
20
8.3060786
40
8.4948885
50
79.8722728
51
90.0227963
0
ARC
8
DEFAULT_255_2_778
10
8.7493155
20
8.40033
40
8.3995208
50
66.5576854
51
79.857945
0
ARC
8
DEFAULT_255_2_778
10
8.6976318
20
8.2993473
40
8.5127327
50
24.5881584
51
66.5089269
0
ARC
8
DEFAULT_255_2_778
10
8.8045302
20
8.3553114
40
8.3922437
50
10.8607028
51
24.5443979
0
ARC
8
DEFAULT_255_2_778
10
8.7256487
20
8.3424336
40
8.4721392
50
0.6604462
51
10.8457173
0
ARC
8
DEFAULT_255_2_778
10
8.5990507
20
8.3378024
40
8.5987828
50
359.9997601
51
0.6815792
0
ARC
8
DEFAULT_255_2_778
10
8.7085745
20
8.334491
40
8.4892597
50
349.8662917
51
0.0221064
0
ARC
8
DEFAULT_255_2_778
10
8.7950195
20
8.3212554
40
8.4018347
50
336.2398362
51
349.8514221
0
ARC
8
DEFAULT_255_2_778
10
8.6886254
20
8.3754597
40
8.5210529
50
294.0426426
51
336.1944974
0
ARC
8
DEFAULT_255_2_778
10
8.7480237
20
8.2608733
40
8.3922113
50
280.6144351
51
293.9910241
0
ARC
8
DEFAULT_255_2_778
10
8.7350236
20
8.3432377
40
8.4755614
50
270.1434533
51
280.598253
0
ARC
8
DEFAULT_255_2_778
10
8.7313064
20
8.4572604
40
8.5895938
50
269.9995141
51
270.1663441
0
ARC
8
DEFAULT_255_2_778
10
15.0111028
20
4.5282236
40
2.7855272
50
72.0766423
51
72.9140367
0
ARC
8
DEFAULT_255_2_778
10
14.514858
20
2.9191872
40
4.4693488
50
72.893548
51
73.5915212
0
ARC
8
DEFAULT_255_2_778
10
14.1448211
20
1.665577
40
5.7764315
50
73.5831693
51
74.1778668
0
ARC
8
DEFAULT_255_2_778
10
13.8199345
20
0.5178688
40
6.9692372
50
74.180722
51
74.9651429
0
ARC
8
DEFAULT_255_2_778
10
13.5253639
20
-0.5776218
40
8.1036407
50
74.9629551
51
75.7792712
0
ARC
8
DEFAULT_255_2_778
10
13.317149
20
-1.3967967
40
8.9488628
50
75.7754456
51
76.463677
0
ARC
8
DEFAULT_255_2_778
10
13.1607533
20
-2.0465865
40
9.6172087
50
76.4639132
51
77.2648098
0
ARC
8
DEFAULT_255_2_778
10
13.0453193
20
-2.5559496
40
10.1394881
50
77.263072
51
77.9549878
0
ARC
8
DEFAULT_255_2_778
10
12.9663081
20
-2.9260274
40
10.5179062
50
77.9547489
51
78.6709747
0
ARC
8
DEFAULT_255_2_778
10
12.8949271
20
-3.2837021
40
10.8826341
50
78.6724093
51
79.8144819
0
ARC
8
DEFAULT_255_2_778
10
12.8419939
20
-3.5775958
40
11.1812566
50
79.813826
51
81.1387413
0
ARC
8
DEFAULT_255_2_778
10
12.8191113
20
-3.7229866
40
11.3284369
50
81.1376634
51
82.5673786
0
ARC
8
DEFAULT_255_2_778
10
12.8192137
20
-3.7204032
40
11.325862
50
82.5662015
51
84.2249673
0
ARC
8
DEFAULT_255_2_778
10
12.8335851
20
-3.5749926
40
11.1797433
50
84.22326
51
86.1518334
0
ARC
8
DEFAULT_255_2_778
10
12.8507237
20
-3.3188786
40
10.9230565
50
86.1513691
51
88.0046316
0
ARC
8
DEFAULT_255_2_778
10
12.8616592
20
-2.9993377
40
10.6033285
50
88.003566
51
89.9943864
0
ARC
8
DEFAULT_255_2_778
10
12.861648
20
-2.6387025
40
10.2426934
50
89.9941262
51
92.0122215
0
ARC
8
DEFAULT_255_2_778
10
12.8473035
20
-2.2401358
40
9.8438688
50
92.0102372
51
94.3452966
0
ARC
8
DEFAULT_255_2_778
10
12.813473
20
-1.7996197
40
9.4020556
50
94.3431233
51
97.0064514
0
ARC
8
DEFAULT_255_2_778
10
12.7677008
20
-1.4202043
40
9.0198903
50
97.0118576
51
98.9539898
0
ARC
8
DEFAULT_255_2_778
10
-18.4756101
20
-3.3927491
40
31.7619512
50
18.4467338
51
20.037032
0
ARC
8
DEFAULT_255_2_778
10
-19.3374542
20
-3.6814093
40
32.6708508
50
17.0603059
51
18.4486999
0
ARC
8
DEFAULT_255_2_778
10
-19.7061281
20
-3.7954763
40
33.0567666
50
15.8572715
51
17.0618431
0
ARC
8
DEFAULT_255_2_778
10
-19.5646333
20
-3.7558646
40
32.9098329
50
14.8777857
51
15.8582429
0
ARC
8
DEFAULT_255_2_778
10
-18.9938571
20
-3.6044442
40
32.319313
50
14.0714937
51
14.8781532
0
ARC
8
DEFAULT_255_2_778
10
-18.0998014
20
-3.380396
40
31.3976118
50
13.4019138
51
14.0715827
0
ARC
8
DEFAULT_255_2_778
10
-16.9816548
20
-3.1139068
40
30.2481476
50
12.8416759
51
13.4017855
0
ARC
8
DEFAULT_255_2_778
10
-15.3677744
20
-2.7471088
40
28.59311
50
12.1426542
51
12.8438275
0
ARC
8
DEFAULT_255_2_778
10
-12.9234231
20
-2.2219919
40
26.09299
50
11.4467653
51
12.1443938
0
ARC
8
DEFAULT_255_2_778
10
-10.091175
20
-1.6478462
40
23.2031331
50
10.9240571
51
11.4451722
0
ARC
8
DEFAULT_255_2_778
10
-6.8854019
20
-1.0302113
40
19.9384044
50
10.3642637
51
10.9271487
0
ARC
8
DEFAULT_255_2_778
10
-3.157134
20
-0.3480863
40
16.1482492
50
9.9090969
51
10.3633448
0
ARC
8
DEFAULT_255_2_778
10
0.8003426
20
0.3424712
40
12.1309753
50
9.4660342
51
9.9127274
0
ARC
8
DEFAULT_255_2_778
10
8.7434621
20
8.337105
40
7.2233198
50
303.8417271
51
338.8122757
0
ARC
8
DEFAULT_255_2_778
10
8.8484519
20
8.2848513
40
7.1065495
50
338.8991517
51
351.0426439
0
ARC
8
DEFAULT_255_2_778
10
-1.9373196
20
-0.5804254
40
13.6791484
50
9.4642489
51
10.0482127
0
ARC
8
DEFAULT_255_2_778
10
-5.7524552
20
-1.2548148
40
17.5534299
50
10.0429654
51
10.5766568
0
ARC
8
DEFAULT_255_2_778
10
-8.7570782
20
-1.8149229
40
20.6098134
50
10.5741294
51
11.0771294
0
ARC
8
DEFAULT_255_2_778
10
-11.6789064
20
-2.3882188
40
23.5873536
50
11.0801499
51
11.8031178
0
ARC
8
DEFAULT_255_2_778
10
-14.4662844
20
-2.9702058
40
26.4348411
50
11.8020889
51
12.5967762
0
ARC
8
DEFAULT_255_2_778
10
-16.6454138
20
-3.4565603
40
28.667585
50
12.5955866
51
13.4441566
0
ARC
8
DEFAULT_255_2_778
10
-18.1242392
20
-3.8090475
40
30.1878386
50
13.4422676
51
14.2227862
0
ARC
8
DEFAULT_255_2_778
10
-19.0188172
20
-4.0351953
40
31.1105585
50
14.2217262
51
14.9368614
0
ARC
8
DEFAULT_255_2_778
10
-19.6110208
20
-4.1932587
40
31.7234933
50
14.9370048
51
15.9254014
0
ARC
8
DEFAULT_255_2_778
10
-19.8854313
20
-4.2711151
40
32.0087344
50
15.9246388
51
17.0654447
0
ARC
8
DEFAULT_255_2_778
10
-19.7287385
20
-4.222267
40
31.8446057
50
17.0641607
51
18.4442
0
ARC
8
DEFAULT_255_2_778
10
-19.1272954
20
-4.0207243
40
31.210293
50
18.4425391
51
20.0013193
0
ARC
8
DEFAULT_255_2_778
10
-18.3790111
20
-3.7494776
40
30.414364
50
20.0033126
51
21.0042593
0
ARC
8
DEFAULT_255_2_778
10
9.965398
20
7.2502084
40
0.1096208
50
296.2295634
51
296.5718952
0
ARC
8
DEFAULT_255_2_778
10
9.9470736
20
7.2891958
40
0.1526945
50
286.8299445
51
295.9317361
0
ARC
8
DEFAULT_255_2_778
10
9.964713
20
7.2241034
40
0.0853056
50
272.2980747
51
288.1481782
0
ARC
8
DEFAULT_255_2_778
10
14.1127012
20
-4.7486614
40
12.5893112
50
109.2210278
51
111.4654465
0
ARC
8
DEFAULT_255_2_778
10
13.9707037
20
-4.3874037
40
12.2011484
50
111.4656828
51
113.7389822
0
ARC
8
DEFAULT_255_2_778
10
13.8407464
20
-4.0910386
40
11.877542
50
113.7406533
51
115.7150974
0
ARC
8
DEFAULT_255_2_778
10
13.7137776
20
-3.8279719
40
11.5854372
50
115.713859
51
118.0645629
0
ARC
8
DEFAULT_255_2_778
10
13.5879496
20
-3.5914218
40
11.3175035
50
118.0658584
51
120.1604366
0
ARC
8
DEFAULT_255_2_778
10
13.4701148
20
-3.38878
40
11.0830921
50
120.1600716
51
122.3922549
0
ARC
8
DEFAULT_255_2_778
10
13.3522557
20
-3.2030188
40
10.8630966
50
122.3922251
51
124.6478458
0
ARC
8
DEFAULT_255_2_778
10
13.2397686
20
-3.0400666
40
10.6650896
50
124.6484075
51
126.7526479
0
ARC
8
DEFAULT_255_2_778
10
13.1311857
20
-2.8946182
40
10.4835807
50
126.7528186
51
128.8054708
0
ARC
8
DEFAULT_255_2_778
10
12.9961557
20
-2.7275841
40
10.2687943
50
128.8024061
51
131.6844212
0
ARC
8
DEFAULT_255_2_778
10
12.8270233
20
-2.537542
40
10.0143895
50
131.6848322
51
134.3080724
0
ARC
8
DEFAULT_255_2_778
10
12.6463403
20
-2.3522981
40
9.7556201
50
134.308661
51
136.5865966
0
ARC
8
DEFAULT_255_2_778
10
12.4344865
20
-2.1521498
40
9.4641731
50
136.5853393
51
138.8891044
0
ARC
8
DEFAULT_255_2_778
10
12.1623811
20
-1.9149546
40
9.1031984
50
138.8878306
51
141.1216829
0
ARC
8
DEFAULT_255_2_778
10
11.8393889
20
-1.6543319
40
8.6881704
50
141.122723
51
142.9859925
0
ARC
8
DEFAULT_255_2_778
10
11.4455434
20
-1.3579454
40
8.1952615
50
142.9829315
51
144.9241737
0
ARC
8
DEFAULT_255_2_778
10
10.9427334
20
-1.0050948
40
7.5809967
50
144.9228542
51
146.7106428
0
ARC
8
DEFAULT_255_2_778
10
10.3792768
20
-0.634849
40
6.9067823
50
146.7125417
51
148.1682748
0
ARC
8
DEFAULT_255_2_778
10
9.7316106
20
-0.2333767
40
6.1447774
50
148.1635655
51
149.6613085
0
ARC
8
DEFAULT_255_2_778
10
8.9659438
20
0.2146322
40
5.257671
50
149.6603257
51
150.9836316
0
ARC
8
DEFAULT_255_2_778
10
8.0957075
20
0.6967546
40
4.2628078
50
150.9767839
51
152.2783502
0
ARC
8
DEFAULT_255_2_778
10
7.2215351
20
1.1564471
40
3.2751367
50
152.2833105
51
153.3075696
0
ARC
8
DEFAULT_255_2_778
10
6.8885465
20
1.3247378
40
2.9020381
50
153.3229161
51
153.4372067
0
ARC
8
DEFAULT_255_2_778
10
8.7275684
20
8.3096199
40
7.2118366
50
232.0535675
51
251.2852052
0
ARC
8
DEFAULT_255_2_778
10
8.7174928
20
8.2895857
40
7.1896296
50
251.3100273
51
264.120655
0
ARC
8
DEFAULT_255_2_778
10
8.7300758
20
8.4035208
40
7.3042544
50
264.1140185
51
270.0090814
0
ARC
8
DEFAULT_255_2_778
10
8.7779974
20
8.1718318
40
7.0727199
50
269.6211654
51
270.0001251
0
ARC
8
DEFAULT_255_2_778
10
8.7786934
20
8.1513998
40
7.052288
50
269.9944713
51
282.2953624
0
ARC
8
DEFAULT_255_2_778
10
8.7781729
20
8.1528705
40
7.0538357
50
282.2969491
51
293.1881516
0
ARC
8
DEFAULT_255_2_778
10
7.9738764
20
0.7460406
40
5.3693089
50
148.7013856
51
149.2359019
0
ARC
8
DEFAULT_255_2_778
10
8.7762617
20
0.2574763
40
6.3087326
50
148.0418917
51
148.6956974
0
ARC
8
DEFAULT_255_2_778
10
9.7836192
20
-0.3706829
40
7.4958945
50
147.3672493
51
148.0437338
0
ARC
8
DEFAULT_255_2_778
10
10.6585946
20
-0.930638
40
8.5347071
50
146.6934459
51
147.3690579
0
ARC
8
DEFAULT_255_2_778
10
11.5417506
20
-1.5117456
40
9.5918968
50
145.6794944
51
146.6892631
0
ARC
8
DEFAULT_255_2_778
10
12.3436652
20
-2.058516
40
10.5624762
50
144.7088028
51
145.6825379
0
ARC
8
DEFAULT_255_2_778
10
12.9823899
20
-2.5107803
40
11.3451077
50
143.496412
51
144.7081049
0
ARC
8
DEFAULT_255_2_778
10
13.4617125
20
-2.864918
40
11.9410636
50
142.3293506
51
143.4986827
0
ARC
8
DEFAULT_255_2_778
10
13.7793826
20
-3.1100644
40
12.3423254
50
140.9699884
51
142.3297809
0
ARC
8
DEFAULT_255_2_778
10
13.9702838
20
-3.2645263
40
12.5878894
50
139.5026197
51
140.9710226
0
ARC
8
DEFAULT_255_2_778
10
14.0370863
20
-3.3212793
40
12.6755446
50
137.8009623
51
139.5036386
0
ARC
8
DEFAULT_255_2_778
10
13.9889279
20
-3.2771049
40
12.6101958
50
135.7372751
51
137.8026741
0
ARC
8
DEFAULT_255_2_778
10
13.8302925
20
-3.121901
40
12.388265
50
133.4046187
51
135.7392607
0
ARC
8
DEFAULT_255_2_778
10
13.6471364
20
-2.9290761
40
12.1223191
50
131.9046519
51
133.4019361
0
ARC
8
DEFAULT_255_2_778
10
13.4473344
20
-2.7053125
40
11.8223351
50
129.5746819
51
131.9082672
0
ARC
8
DEFAULT_255_2_778
10
13.1837756
20
-2.3856772
40
11.4080528
50
126.8243978
51
129.5771161
0
ARC
8
DEFAULT_255_2_778
10
12.9090649
20
-2.0183719
40
10.9493819
50
123.8130853
51
126.8257078
0
ARC
8
DEFAULT_255_2_778
10
12.6446422
20
-1.6227064
40
10.4734928
50
120.2919884
51
123.8157359
0
ARC
8
DEFAULT_255_2_778
10
12.4191122
20
-1.2371393
40
10.0268097
50
116.720219
51
120.2905326
0
ARC
8
DEFAULT_255_2_778
10
12.2432579
20
-0.8873079
40
9.6352657
50
112.5753748
51
116.7215321
0
ARC
8
DEFAULT_255_2_778
10
12.1222008
20
-0.5972614
40
9.3209705
50
108.2982628
51
112.5727149
0
ARC
8
DEFAULT_255_2_778
10
12.08876
20
-0.5011222
40
9.2191934
50
107.9956805
51
108.2885323
0
ARC
8
DEFAULT_255_2_778
10
10.1001122
20
5.8262819
40
2.5877219
50
106.0945932
51
109.4008915
0
ARC
8
DEFAULT_255_2_778
10
14.7382616
20
-10.2270738
40
19.2976787
50
105.6733783
51
106.1123581
0
ARC
8
DEFAULT_255_2_778
10
-7.7149065
20
0.8220481
40
18.8129828
50
23.5975368
51
27.7376819
0
ARC
8
DEFAULT_255_2_778
10
2.7392405
20
30.3572178
40
21.6835388
50
283.3568679
51
286.6062267
0
ARC
8
DEFAULT_255_2_778
10
2.1612503
20
32.7672725
40
24.1619272
50
280.9118553
51
283.3701368
0
ARC
8
DEFAULT_255_2_778
10
1.7946682
20
34.6508936
40
26.0808853
50
279.016205
51
280.9192966
0
ARC
8
DEFAULT_255_2_778
10
1.5804229
20
35.9883895
40
27.4354304
50
277.5185827
51
279.0203693
0
ARC
8
DEFAULT_255_2_778
10
1.469984
20
36.816417
40
28.2707896
50
276.3168347
51
277.520901
0
ARC
8
DEFAULT_255_2_778
10
1.4263722
20
37.2046471
40
28.6614612
50
275.3400222
51
276.318097
0
ARC
8
DEFAULT_255_2_778
10
1.4239587
20
37.2271202
40
28.6840614
50
274.5373104
51
275.3406447
0
ARC
8
DEFAULT_255_2_778
10
1.4444483
20
36.9671915
40
28.4233263
50
273.8717177
51
274.5375868
0
ARC
8
DEFAULT_255_2_778
10
1.4856099
20
36.3495741
40
27.8043391
50
273.0476976
51
273.8730274
0
ARC
8
DEFAULT_255_2_778
10
1.5494369
20
35.1394826
40
26.5925656
50
272.2372881
51
273.0489917
0
ARC
8
DEFAULT_255_2_778
10
1.6134721
20
33.5098846
40
24.96171
50
271.6369551
51
272.2364389
0
ARC
8
DEFAULT_255_2_778
10
1.6703716
20
31.4900836
40
22.9411079
50
270.9992509
51
271.6390083
0
ARC
8
DEFAULT_255_2_778
10
1.7139582
20
29.0071458
40
20.4577874
50
270.4910357
51
270.998469
0
ARC
8
DEFAULT_255_2_778
10
1.7369104
20
26.2802503
40
17.7307954
50
270.0070189
51
270.4923875
0
ARC
8
DEFAULT_255_2_778
10
1.7387302
20
24.1162145
40
15.5667596
50
269.833151
51
270.0012966
0
ARC
8
DEFAULT_255_2_778
10
1.7349317
20
22.8582855
40
14.3088247
50
269.6650692
51
269.8336928
0
ARC
8
DEFAULT_255_2_778
10
1.728324
20
21.7274222
40
13.177942
50
269.5296798
51
269.6650561
0
ARC
8
DEFAULT_255_2_778
10
1.71871
20
20.558071
40
12.0085512
50
269.3795645
51
269.5297515
0
ARC
8
DEFAULT_255_2_778
10
1.7060571
20
19.3818173
40
10.8322296
50
269.2557685
51
269.3791159
0
ARC
8
DEFAULT_255_2_778
10
1.6899399
20
18.136707
40
9.5870149
50
269.1320881
51
269.2554289
0
ARC
8
DEFAULT_255_2_778
10
1.6770944
20
17.287474
40
8.7376848
50
269.0476666
51
269.1319596
0
ARC
8
DEFAULT_255_2_778
10
1.6618699
20
16.3562935
40
7.8063798
50
268.9514726
51
269.0457996
0
ARC
8
DEFAULT_255_2_778
10
1.6495708
20
15.6655896
40
7.1155665
50
268.8730547
51
268.9487167
0
ARC
8
DEFAULT_255_2_778
10
1.6294296
20
14.6284017
40
6.0781832
50
268.7933609
51
268.8705873
0
ARC
8
DEFAULT_255_2_778
10
-0.913129
20
8.569855
40
2.4146319
50
356.9728771
51
359.5660349
0
ARC
8
DEFAULT_255_2_778
10
3.9116147
20
8.314786
40
2.4168495
50
176.9746624
51
179.5689957
0
ARC
8
DEFAULT_255_2_778
10
8.829513
20
8.3549669
40
7.3347124
50
180.1718588
51
191.1947762
0
ARC
8
DEFAULT_255_2_778
10
8.7123021
20
8.3338499
40
7.2156322
50
191.2109805
51
206.3266736
0
ARC
8
DEFAULT_255_2_778
10
8.7595891
20
8.3591885
40
7.2692521
50
206.3403818
51
222.0312226
0
ARC
8
DEFAULT_255_2_778
10
1.7334818
20
13.7441851
40
3.9369285
50
268.8378556
51
268.8908721
0
ARC
8
DEFAULT_255_2_778
10
1.7300076
20
13.5751399
40
3.7678478
50
268.8939341
51
268.9525218
0
ARC
8
DEFAULT_255_2_778
10
1.7504786
20
14.7127229
40
4.905615
50
268.9563582
51
269.1821287
0
ARC
8
DEFAULT_255_2_778
10
1.7745255
20
16.3839455
40
6.5770107
50
269.1804794
51
269.3980513
0
ARC
8
DEFAULT_255_2_778
10
1.7906897
20
17.8878624
40
8.0810144
50
269.3954749
51
269.5523915
0
ARC
8
DEFAULT_255_2_778
10
1.8013294
20
19.2646535
40
9.4578465
50
269.5530958
51
269.7526926
0
ARC
8
DEFAULT_255_2_778
10
1.8080206
20
20.7946403
40
10.9878478
50
269.7522381
51
269.9394686
0
ARC
8
DEFAULT_255_2_778
10
1.8093459
20
21.7549458
40
11.9481541
50
269.9379785
51
269.9996486
0
ARC
8
DEFAULT_255_2_778
10
1.8051476
20
24.0963439
40
14.2895527
50
270.0165395
51
270.6517178
0
ARC
8
DEFAULT_255_2_778
10
1.7656779
20
27.707531
40
17.9009552
50
270.6465718
51
271.2522958
0
ARC
8
DEFAULT_255_2_778
10
1.7059018
20
30.4853448
40
20.679412
50
271.2496714
51
271.8354208
0
ARC
8
DEFAULT_255_2_778
10
1.6383016
20
32.6141071
40
22.8092473
50
271.8338739
51
272.4030669
0
ARC
8
DEFAULT_255_2_778
10
1.5705167
20
34.2396315
40
24.4361842
50
272.4020551
51
272.9558265
0
ARC
8
DEFAULT_255_2_778
10
1.4928326
20
35.7307897
40
25.9293643
50
272.9573459
51
273.7724563
0
ARC
8
DEFAULT_255_2_778
10
1.4084199
20
37.01585
40
27.2171941
50
273.7717832
51
274.6848523
0
ARC
8
DEFAULT_255_2_778
10
1.3419866
20
37.8320917
40
28.0361349
50
274.6839221
51
275.6732299
0
ARC
8
DEFAULT_255_2_778
10
1.3074517
20
38.1847708
40
28.3905003
50
275.6722242
51
276.5925214
0
ARC
8
DEFAULT_255_2_778
10
1.3094866
20
38.1712978
40
28.376883
50
276.591563
51
277.8843957
0
ARC
8
DEFAULT_255_2_778
10
1.3725685
20
37.7221931
40
27.9233705
50
277.8825905
51
279.4041974
0
ARC
8
DEFAULT_255_2_778
10
1.523795
20
36.8166639
40
27.0053014
50
279.4015832
51
281.2008579
0
ARC
8
DEFAULT_255_2_778
10
1.7962853
20
35.4510472
40
25.6127656
50
281.1963161
51
283.4219352
0
ARC
8
DEFAULT_255_2_778
10
2.1140606
20
34.1067151
40
24.2313892
50
283.4289125
51
284.8906734
0
ARC
8
DEFAULT_255_2_778
10
-23.1020155
20
-6.9704371
40
36.0626831
50
29.3201503
51
29.7959084
0
ARC
8
DEFAULT_255_2_778
10
-24.6302959
20
-7.8453933
40
37.8237025
50
29.7957069
51
30.2444858
0
ARC
8
DEFAULT_255_2_778
10
-27.3190641
20
-9.4205791
40
40.9398934
50
30.2535404
51
31.3820495
0
ARC
8
DEFAULT_255_2_778
10
-30.5704748
20
-11.3999069
40
44.7463877
50
31.3777383
51
32.2349507
0
ARC
8
DEFAULT_255_2_778
10
-32.7377809
20
-12.7643881
40
47.3074463
50
32.2327057
51
32.8988603
0
ARC
8
DEFAULT_255_2_778
10
-33.9888518
20
-13.5724955
40
48.7968136
50
32.8976661
51
33.4241952
0
ARC
8
DEFAULT_255_2_778
10
-34.4990872
20
-13.9086704
40
49.4078401
50
33.423641
51
33.8452213
0
ARC
8
DEFAULT_255_2_778
10
-34.4590387
20
-13.8815437
40
49.3594698
50
33.8449603
51
34.1857041
0
ARC
8
DEFAULT_255_2_778
10
-33.8806108
20
-13.4881871
40
48.6599642
50
34.1852479
51
34.593801
0
ARC
8
DEFAULT_255_2_778
10
-32.7254286
20
-12.6913347
40
47.2566042
50
34.5936712
51
34.9391501
0
ARC
8
DEFAULT_255_2_778
10
-31.5398587
20
-11.8634199
40
45.8105687
50
34.9395141
51
35.2084421
0
ARC
8
DEFAULT_255_2_778
10
-31.4686255
20
-11.8139357
40
45.7238367
50
35.2092419
51
35.3785669
0
ARC
8
DEFAULT_255_2_778
10
-37.3027143
20
-15.9614113
40
52.8819184
50
35.3827084
51
35.5448319
0
ARC
8
DEFAULT_255_2_778
10
-157.0551087
20
-101.4945148
40
200.0435563
50
35.5385619
51
35.5410637
0
ARC
8
DEFAULT_255_2_778
10
-411.2125987
20
-283.1026123
40
512.4175792
50
35.5450988
51
35.5459888
0
ARC
8
DEFAULT_255_2_778
10
44.2370559
20
42.3548848
40
47.3653965
50
215.4730983
51
215.5819464
0
ARC
8
DEFAULT_255_2_778
10
22.8175549
20
27.0658742
40
21.0490922
50
215.410236
51
215.4159106
0
ARC
8
DEFAULT_255_2_778
10
8.7623465
20
8.2925338
40
7.2710373
50
115.2388114
51
158.7607818
0
ARC
8
DEFAULT_255_2_778
10
8.6762248
20
8.334758
40
7.1754738
50
158.8259188
51
168.1514404
0
ARC
8
DEFAULT_255_2_778
10
-23.6559428
20
-7.1942716
40
38.0878496
50
28.750189
51
36.3058409
0
ARC
8
DEFAULT_255_2_778
10
5.7476358
20
21.7450692
40
11.3438891
50
290.5878335
51
292.3638026
0
ARC
8
DEFAULT_255_2_778
10
5.8901365
20
21.3986738
40
10.9693276
50
292.3638862
51
294.151174
0
ARC
8
DEFAULT_255_2_778
10
6.0364668
20
21.0723296
40
10.6116782
50
294.1511762
51
295.9518813
0
ARC
8
DEFAULT_255_2_778
10
6.1869931
20
20.7630948
40
10.2677534
50
295.951762
51
297.7713364
0
ARC
8
DEFAULT_255_2_778
10
6.3386685
20
20.4749132
40
9.9420938
50
297.7717508
51
299.5021966
0
ARC
8
DEFAULT_255_2_778
10
6.487721
20
20.2113626
40
9.639314
50
299.5025622
51
301.1491122
0
ARC
8
DEFAULT_255_2_778
10
6.5897374
20
20.0414217
40
9.4411048
50
301.1527336
51
301.6965527
0
ARC
8
DEFAULT_255_2_778
10
6.7351054
20
19.8091694
40
9.1671155
50
301.6862074
51
304.2520813
0
ARC
8
DEFAULT_255_2_778
10
7.0023754
20
19.4170907
40
8.6926064
50
304.2504892
51
306.8859793
0
ARC
8
DEFAULT_255_2_778
10
7.3074091
20
19.0108834
40
8.1846202
50
306.884859
51
309.4779263
0
ARC
8
DEFAULT_255_2_778
10
7.653488
20
18.5908876
40
7.6404079
50
309.4771582
51
311.9356346
0
ARC
8
DEFAULT_255_2_778
10
8.0404811
20
18.1601636
40
7.0613684
50
311.9353767
51
314.1912314
0
ARC
8
DEFAULT_255_2_778
10
8.4853474
20
17.7029908
40
6.4234711
50
314.1885367
51
316.378074
0
ARC
8
DEFAULT_255_2_778
10
8.9983631
20
17.214216
40
5.7148911
50
316.3770734
51
318.3618419
0
ARC
8
DEFAULT_255_2_778
10
9.5514023
20
16.7223954
40
4.9747966
50
318.3631358
51
320.0572005
0
ARC
8
DEFAULT_255_2_778
10
10.191156
20
16.1877496
40
4.141052
50
320.0457034
51
321.8533672
0
ARC
8
DEFAULT_255_2_778
10
10.9005171
20
15.630222
40
3.2388158
50
321.8587175
51
323.2662585
0
ARC
8
DEFAULT_255_2_778
10
11.5715907
20
15.1295413
40
2.4015459
50
323.2636346
51
324.5002905
0
ARC
8
DEFAULT_255_2_778
10
8.7389374
20
8.3510272
40
7.2048451
50
48.3541427
51
89.0134837
0
ARC
8
DEFAULT_255_2_778
10
8.7389772
20
8.3438931
40
7.2119776
50
89.0147758
51
89.9999368
0
ARC
8
DEFAULT_255_2_778
10
8.7388092
20
8.7276156
40
6.828255
50
89.9985233
51
90.0635667
0
ARC
8
DEFAULT_255_2_778
10
8.7529672
20
8.0480241
40
7.5078738
50
90.1658591
51
103.2055196
0
ARC
8
DEFAULT_255_2_778
10
12.1093895
20
14.5465636
40
2.7618879
50
322.1344474
51
323.4157369
0
ARC
8
DEFAULT_255_2_778
10
11.1227766
20
15.3132922
40
4.0113989
50
320.6165229
51
322.1386915
0
ARC
8
DEFAULT_255_2_778
10
10.2550061
20
16.0241801
40
5.1331769
50
319.1679237
51
320.6293596
0
ARC
8
DEFAULT_255_2_778
10
9.4968014
20
16.679551
40
6.1353672
50
317.4333442
51
319.1667565
0
ARC
8
DEFAULT_255_2_778
10
8.8328485
20
17.2883958
40
7.036214
50
315.7329426
51
317.4392123
0
ARC
8
DEFAULT_255_2_778
10
8.2656289
20
17.8413778
40
7.8283801
50
313.7842421
51
315.7324613
0
ARC
8
DEFAULT_255_2_778
10
7.7671237
20
18.3611297
40
8.5485534
50
311.7259831
51
313.7859611
0
ARC
8
DEFAULT_255_2_778
10
7.3391177
20
18.8409762
40
9.1915478
50
309.4702626
51
311.7263924
0
ARC
8
DEFAULT_255_2_778
10
6.9757652
20
19.2817589
40
9.7627871
50
307.1740081
51
309.4719992
0
ARC
8
DEFAULT_255_2_778
10
6.6659838
20
19.6902005
40
10.2754166
50
304.7116704
51
307.1742268
0
ARC
8
DEFAULT_255_2_778
10
6.3935399
20
20.083256
40
10.7536617
50
302.1814774
51
304.7123753
0
ARC
8
DEFAULT_255_2_778
10
6.2523414
20
20.3044779
40
11.016099
50
301.8218096
51
302.1902262
0
ARC
8
DEFAULT_255_2_778
10
6.1641913
20
20.4476721
40
11.1842497
50
300.2344551
51
301.8187214
0
ARC
8
DEFAULT_255_2_778
10
6.0327544
20
20.6729684
40
11.4450832
50
298.7791562
51
300.2350168
0
ARC
8
DEFAULT_255_2_778
10
5.907639
20
20.900982
40
11.7051678
50
297.1766088
51
298.7786062
0
ARC
8
DEFAULT_255_2_778
10
5.7788391
20
21.1519597
40
11.9872659
50
295.4994181
51
297.1763726
0
ARC
8
DEFAULT_255_2_778
10
5.6541949
20
21.4131833
40
12.2767031
50
293.877366
51
295.4996295
0
ARC
8
DEFAULT_255_2_778
10
5.5339902
20
21.6848205
40
12.5737483
50
292.2362691
51
293.8771994
0
ARC
8
DEFAULT_255_2_778
10
12.450926
20
-3.4542427
40
12.1778766
50
93.6672911
51
97.156372
0
ARC
8
DEFAULT_255_2_778
10
12.5575635
20
-5.0105444
40
13.7378139
50
91.744081
51
93.6959601
0
ARC
8
DEFAULT_255_2_778
10
12.5941469
20
-6.1929014
40
14.9207368
50
89.9889911
51
91.7463125
0
ARC
8
DEFAULT_255_2_778
10
12.5936493
20
-7.384679
40
16.1125146
50
88.1646192
51
89.9880361
0
ARC
8
DEFAULT_255_2_778
10
12.5623184
20
-8.4117788
40
17.1400911
50
86.8340202
51
88.1699044
0
ARC
8
DEFAULT_255_2_778
10
12.5207871
20
-9.1688949
40
17.8983454
50
85.5960857
51
86.8351298
0
ARC
8
DEFAULT_255_2_778
10
12.4818127
20
-9.6829797
40
18.4139052
50
84.6649606
51
85.5980015
0
ARC
8
DEFAULT_255_2_778
10
12.4577484
20
-9.9437948
40
18.675828
50
84.008743
51
84.6658517
0
ARC
8
DEFAULT_255_2_778
10
12.4471951
20
-10.0445947
40
18.7771789
50
83.1419405
51
84.0088208
0
ARC
8
DEFAULT_255_2_778
10
12.4587588
20
-9.949723
40
18.6816051
50
82.4543223
51
83.1424076
0
ARC
8
DEFAULT_255_2_778
10
12.4812673
20
-9.7788458
40
18.509252
50
82.234013
51
82.453934
0
ARC
8
DEFAULT_255_2_778
10
12.5161696
20
-9.5255513
40
18.2535643
50
81.6215033
51
82.235128
0
ARC
8
DEFAULT_255_2_778
10
12.5915711
20
-9.0134404
40
17.7359321
50
81.1156884
51
81.6214261
0
ARC
8
DEFAULT_255_2_778
10
12.686418
20
-8.4063253
40
17.1214529
50
80.6965132
51
81.1155082
0
ARC
8
DEFAULT_255_2_778
10
12.7917978
20
-7.7629478
40
16.4695024
50
80.3482595
51
80.6964532
0
ARC
8
DEFAULT_255_2_778
10
12.9248368
20
-6.9822604
40
15.6775604
50
79.9205166
51
80.3492337
0
ARC
8
DEFAULT_255_2_778
10
13.1022249
20
-5.9844856
40
14.6641399
50
79.5099447
51
79.9206162
0
ARC
8
DEFAULT_255_2_778
10
13.2547438
20
-5.159082
40
13.8247633
50
79.2237569
51
79.5086714
0
ARC
8
DEFAULT_255_2_778
10
13.2770876
20
-5.0400943
40
13.7036963
50
78.960917
51
79.2225118
0
ARC
8
DEFAULT_255_2_778
10
12.4839545
20
-9.0994245
40
17.8397838
50
78.8295282
51
78.9571177
0
ARC
8
DEFAULT_255_2_778
10
20.0302074
20
29.0808106
40
21.0790591
50
258.8113715
51
258.8875573
0
ARC
8
DEFAULT_255_2_778
10
8.7609478
20
8.3221703
40
7.2069739
50
0.5946437
51
39.4361201
0
LINE
8
DEFAULT_255_2_778
10
8.7312336
20
-0.1323336
11
8.7312336
21
-0.1323336
0
LINE
8
DEFAULT_255_2_778
10
15.8683336
20
7.1783664
11
15.8683336
21
7.1785664
0
LINE
8
DEFAULT_255_2_778
10
11.5556336
20
1.6688664
11
11.5556336
21
1.6688664
0
LINE
8
DEFAULT_255_2_778
10
3.3601336
20
3.4921664
11
3.3601336
21
3.4924664
0
LINE
8
DEFAULT_255_2_778
10
1.6536336
20
9.8080664
11
1.6536336
21
9.8080664
0
LINE
8
DEFAULT_255_2_778
10
7.0378336
20
15.3573664
11
7.0378336
21
15.3573664
0
LINE
8
DEFAULT_255_2_778
10
10.2922336
20
10.0461664
11
10.7751336
21
8.9997664
0
LINE
8
DEFAULT_255_2_778
10
10.7751336
20
8.9997664
11
10.9338336
21
8.6287664
0
LINE
8
DEFAULT_255_2_778
10
14.3271336
20
12.9001664
11
14.3271336
21
12.9004664
0
ENDSEC
0
EOF