0
SECTION
2
HEADER
9
$MEASUREMENT
70
1
0
ENDSEC
0
SECTION
2
TABLES
0
TABLE
2
LTYPE
0
LTYPE
72
65
70
64
2
CONTINUOUS
3
______
73
0
40
0
0
ENDTAB
0
TABLE
2
LAYER
0
LAYER
2
DEFAULT_255_2_778
70
0
62
255
6
CONTINUOUS
0
ENDTAB
0
ENDSEC
0
SECTION
2
ENTITIES
0
ARC
8
DEFAULT_255_2_778
10
1.9614249
20
5.8365202
40
0.7318013
50
91.9498868
51
95.3471475
0
ARC
8
DEFAULT_255_2_778
10
1.9549308
20
6.003918
40
0.5642801
50
90.0264528
51
91.8692096
0
ARC
8
DEFAULT_255_2_778
10
1.9658369
20
6.2941215
40
0.2743039
50
67.5582483
51
92.3330996
0
ARC
8
DEFAULT_255_2_778
10
1.9925189
20
6.3978198
40
0.1689338
50
3.9055726
51
62.4897105
0
ARC
8
DEFAULT_255_2_778
10
1.4049591
20
6.2890882
40
0.7656018
50
359.4722905
51
9.0357292
0
ARC
8
DEFAULT_255_2_778
10
6.7657303
20
6.3096536
40
4.5952849
50
180.3443373
51
195.7145036
0
ARC
8
DEFAULT_255_2_778
10
6.6725743
20
6.2831351
40
4.4984284
50
195.7107267
51
242.2297831
0
ARC
8
DEFAULT_255_2_778
10
6.7005956
20
6.3407316
40
4.5624475
50
242.2554249
51
255.5036108
0
ARC
8
DEFAULT_255_2_778
10
6.5855174
20
5.8836991
40
4.09116
50
255.4617445
51
259.5207959
0
ARC
8
DEFAULT_255_2_778
10
6.5863737
20
5.8886528
40
4.0961867
50
259.52162
51
262.6441615
0
ARC
8
DEFAULT_255_2_778
10
6.589615
20
5.915702
40
4.1234283
50
262.6476156
51
267.7311045
0
ARC
8
DEFAULT_255_2_778
10
6.5914612
20
5.9554062
40
4.1631746
50
267.7273488
51
270.001269
0
ARC
8
DEFAULT_255_2_778
10
6.5353506
20
6.3467888
40
4.5549038
50
270.7069885
51
335.9995707
0
ARC
8
DEFAULT_255_2_778
10
6.9060261
20
6.140797
40
4.1326595
50
336.5182689
51
352.6825936
0
ARC
8
DEFAULT_255_2_778
10
3.637918
20
6.6114247
40
7.4342653
50
352.2930091
51
355.4782137
0
ARC
8
DEFAULT_255_2_778
10
7.7623126
20
6.2695878
40
3.2957953
50
355.7496434
51
359.8550718
0
ARC
8
DEFAULT_255_2_778
10
8.4979858
20
6.2620419
40
2.5601116
50
359.9823017
51
1.8040293
0
ARC
8
DEFAULT_255_2_778
10
11.7209899
20
6.3641922
40
0.6645113
50
180.0305066
51
181.8588729
0
ARC
8
DEFAULT_255_2_778
10
11.3709758
20
6.3744468
40
0.3146759
50
162.014901
51
181.9319267
0
ARC
8
DEFAULT_255_2_778
10
11.2070769
20
6.4168678
40
0.146048
50
85.7238808
51
157.9869914
0
ARC
8
DEFAULT_255_2_778
10
11.2705499
20
5.8955007
40
0.6690781
50
89.6984742
51
94.5075505
0
ARC
8
DEFAULT_255_2_778
10
11.2733823
20
5.3544006
40
1.2101692
50
88.8756646
51
89.9673949
0
ARC
8
DEFAULT_255_2_778
10
12.4570977
20
65.4839058
40
58.9309862
50
268.8721444
51
269.31475
0
ARC
8
DEFAULT_255_2_778
10
12.0775698
20
34.7869347
40
28.2316741
50
269.3398705
51
269.9775677
0
ARC
8
DEFAULT_255_2_778
10
12.0953643
20
23.7390772
40
17.1838387
50
269.9038138
51
272.1142953
0
ARC
8
DEFAULT_255_2_778
10
12.7605545
20
5.7766717
40
0.790882
50
90.0489308
51
92.2627799
0
ARC
8
DEFAULT_255_2_778
10
12.7711544
20
6.1979131
40
0.3698122
50
73.182227
51
91.7471812
0
ARC
8
DEFAULT_255_2_778
10
12.825063
20
6.4003853
40
0.1605542
50
358.4109603
51
70.6911996
0
ARC
8
DEFAULT_255_2_778
10
12.3654022
20
6.3310028
40
0.623543
50
359.6183741
51
5.9771059
0
ARC
8
DEFAULT_255_2_778
10
11.9121353
20
6.3275965
40
1.0767962
50
358.4322754
51
359.9602609
0
ARC
8
DEFAULT_255_2_778
10
4.7990513
20
6.4977392
40
8.1919091
50
351.845342
51
358.6038057
0
ARC
8
DEFAULT_255_2_778
10
6.0479295
20
6.3158446
40
6.9298582
50
342.9785162
51
351.8693808
0
ARC
8
DEFAULT_255_2_778
10
7.0272426
20
5.9975794
40
5.9003044
50
315.4018241
51
343.1499002
0
ARC
8
DEFAULT_255_2_778
10
6.5606639
20
6.4594419
40
6.5568189
50
306.2113385
51
315.3907317
0
ARC
8
DEFAULT_255_2_778
10
5.9450393
20
7.2958467
40
7.5953567
50
299.3056637
51
306.2309042
0
ARC
8
DEFAULT_255_2_778
10
6.5090401
20
6.2686167
40
6.4235394
50
295.217237
51
299.4035699
0
ARC
8
DEFAULT_255_2_778
10
6.5701155
20
6.1391316
40
6.2803732
50
290.6721815
51
295.2164385
0
ARC
8
DEFAULT_255_2_778
10
6.6058892
20
6.0446504
40
6.1793462
50
285.6001508
51
290.6710994
0
ARC
8
DEFAULT_255_2_778
10
6.6206181
20
5.9927505
40
6.1253972
50
279.9212459
51
285.598007
0
ARC
8
DEFAULT_255_2_778
10
6.622107
20
5.985382
40
6.1178824
50
277.1743513
51
279.9194001
0
ARC
8
DEFAULT_255_2_778
10
6.6206694
20
5.9974449
40
6.1300304
50
273.5664053
51
277.1736017
0
ARC
8
DEFAULT_255_2_778
10
6.6189904
20
6.0251309
40
6.1577674
50
269.9982871
51
273.5659729
0
ARC
8
DEFAULT_255_2_778
10
6.6485156
20
6.2912451
40
6.4239502
50
225.572329
51
269.7350189
0
ARC
8
DEFAULT_255_2_778
10
6.5712251
20
6.2263029
40
6.3234762
50
209.7509575
51
225.6605423
0
ARC
8
DEFAULT_255_2_778
10
6.5214337
20
6.1939133
40
6.2641759
50
198.4072679
51
209.719747
0
ARC
8
DEFAULT_255_2_778
10
6.6459066
20
6.2337736
40
6.3948672
50
189.1575659
51
198.3939729
0
ARC
8
DEFAULT_255_2_778
10
6.8158589
20
6.2642761
40
6.5675084
50
186.9442875
51
189.1843125
0
ARC
8
DEFAULT_255_2_778
10
7.9157895
20
6.3069848
40
7.6650693
50
181.8565361
51
186.267113
0
LINE
8
DEFAULT_255_2_778
10
0.2547439
20
6.0586596
11
0.2543326
21
6.0678419
0
ARC
8
DEFAULT_255_2_778
10
-17.6287512
20
5.310006
40
17.8991341
50
2.4265857
51
3.2537805
0
ARC
8
DEFAULT_255_2_778
10
0.9430013
20
6.3682661
40
0.7027489
50
180.5466006
51
183.4532284
0
ARC
8
DEFAULT_255_2_778
10
0.8335839
20
6.3664093
40
0.5933195
50
180.0040971
51
180.4681035
0
ARC
8
DEFAULT_255_2_778
10
0.5489284
20
6.3764702
40
0.3088293
50
161.6889947
51
181.8747608
0
ARC
8
DEFAULT_255_2_778
10
0.3909239
20
6.4200417
40
0.1453721
50
87.0966012
51
158.4254672
0
ARC
8
DEFAULT_255_2_778
10
0.4399079
20
6.0714181
40
0.49556
50
89.7910925
51
94.8177768
0
ARC
8
DEFAULT_255_2_778
10
0.4395657
20
5.7294507
40
0.8375268
50
86.6605556
51
89.8529794
0
ARC
8
DEFAULT_255_2_778
10
0.4235192
20
5.4091119
40
1.1582593
50
86.4405703
51
86.7911937
0
ARC
8
DEFAULT_255_2_778
10
0.7664572
20
11.1545177
40
4.5973767
50
266.6202865
51
270.2399822
0
ARC
8
DEFAULT_255_2_778
10
0.7510188
20
21.5375792
40
14.980438
50
270.1326958
51
270.960058
0
LINE
8
DEFAULT_255_2_778
10
1.0020218
20
6.5592441
11
1.0065229
21
6.5593092
0
ARC
8
DEFAULT_255_2_778
10
1.2642135
20
-8.7239404
40
15.2854219
50
90.1382603
51
90.9659717
0
ARC
8
DEFAULT_255_2_778
10
25.8153579
20
-4.1639208
40
28.425117
50
140.4657947
51
143.9651281
0
ARC
8
DEFAULT_255_2_778
10
29.200343
20
-7.0053528
40
32.844471
50
136.0760914
51
140.4016594
0
ARC
8
DEFAULT_255_2_778
10
26.4471164
20
-4.4393313
40
29.0814374
50
134.505567
51
135.9545053
0
LINE
8
DEFAULT_255_2_778
10
6.0616523
20
16.3010363
11
6.0679652
21
16.3072931
0
ARC
8
DEFAULT_255_2_778
10
-20.6378769
20
43.3829212
40
38.0301412
50
314.6060568
51
315.449059
0
ARC
8
DEFAULT_255_2_778
10
7.0937732
20
16.1058644
40
0.8683715
50
131.0950986
51
136.5431886
0
ARC
8
DEFAULT_255_2_778
10
6.6973228
20
16.5537121
40
0.2703094
50
124.69988
51
130.1629142
0
ARC
8
DEFAULT_255_2_778
10
6.6152647
20
16.681157
40
0.1189261
50
91.8865375
51
127.1518187
0
ARC
8
DEFAULT_255_2_778
10
6.6077125
20
16.6745015
40
0.1255697
50
58.2700755
51
88.3402104
0
ARC
8
DEFAULT_255_2_778
10
6.5173945
20
16.5168953
40
0.3071792
50
47.0388526
51
59.4021284
0
ARC
8
DEFAULT_255_2_778
10
6.375945
20
16.3542913
40
0.5226247
50
45.8110675
51
47.8391814
0
ARC
8
DEFAULT_255_2_778
10
-17.1191328
20
-7.9497734
40
34.326561
50
39.6324482
51
45.9672083
0
ARC
8
DEFAULT_255_2_778
10
-14.8566425
20
-6.0156385
40
31.3504259
50
36.3315504
51
39.5476013
0
ARC
8
DEFAULT_255_2_778
10
10.4460086
20
1412.034823
40
1399.4766868
50
269.9776811
51
269.9980889
0
ARC
8
DEFAULT_255_2_778
10
12.0970332
20
6131.8616294
40
6119.3037813
50
269.9779028
51
269.9794369
0
ARC
8
DEFAULT_255_2_778
10
8.9770485
20
-1684.0954532
40
1696.6539267
50
89.9743364
51
89.9961666
0
ARC
8
DEFAULT_255_2_778
10
9.0118968
20
-432.4602018
40
445.0186784
50
89.9898717
51
90.1218737
0
ARC
8
DEFAULT_255_2_778
10
8.6427666
20
-238.4601648
40
251.0182989
50
90.131809
51
90.1350436
0
LINE
8
DEFAULT_255_2_778
10
8.0511284
20
12.5574369
11
8.0506106
21
12.5574363
0
ARC
8
DEFAULT_255_2_778
10
8.0467285
20
12.7292715
40
0.171879
50
219.98494
51
271.2942187
0
ARC
8
DEFAULT_255_2_778
10
8.3105214
20
12.956386
40
0.5199607
50
210.6612517
51
220.4817419
0
ARC
8
DEFAULT_255_2_778
10
43.9750286
20
35.3523181
40
42.6331498
50
212.0941437
51
212.1093555
0
ARC
8
DEFAULT_255_2_778
10
7.2373121
20
12.3223129
40
0.7263408
50
31.4065696
51
36.174884
0
ARC
8
DEFAULT_255_2_778
10
6.2046217
20
13.8286942
40
0.6595532
50
34.9192932
51
42.18139
0
ARC
8
DEFAULT_255_2_778
10
6.5600519
20
14.156324
40
0.1762225
50
40.8427352
51
62.2530878
0
ARC
8
DEFAULT_255_2_778
10
6.6103109
20
14.2469928
40
0.0726159
50
64.0424673
51
87.0573858
0
ARC
8
DEFAULT_255_2_778
10
6.6114758
20
14.2561357
40
0.0634291
50
87.684265
51
89.9953246
0
ARC
8
DEFAULT_255_2_778
10
6.6169165
20
14.228079
40
0.091647
50
93.4001744
51
134.2090148
0
ARC
8
DEFAULT_255_2_778
10
6.7798828
20
14.037146
40
0.3425298
50
131.4782755
51
143.3467028
0
ARC
8
DEFAULT_255_2_778
10
7.1555458
20
13.7407915
40
0.8209362
50
142.4048689
51
145.2742425
0
ARC
8
DEFAULT_255_2_778
10
4.4830121
20
13.4058805
40
1.1315792
50
322.6131059
51
323.117689
0
ARC
8
DEFAULT_255_2_778
10
5.0916809
20
12.8965984
40
0.3405371
50
272.6946811
51
328.5244701
0
ARC
8
DEFAULT_255_2_778
10
5.0874643
20
13.0119544
40
0.4559654
50
269.9762029
51
272.5424576
0
ARC
8
DEFAULT_255_2_778
10
5.0873006
20
13.0479637
40
0.4919747
50
269.1996278
51
269.9970117
0
ARC
8
DEFAULT_255_2_778
10
2.8059571
20
9.4730815
40
1.3121579
50
64.4688011
51
90.110417
0
ARC
8
DEFAULT_255_2_778
10
2.8359814
20
9.5438255
40
1.2353861
50
8.1465155
51
64.3111883
0
ARC
8
DEFAULT_255_2_778
10
2.7353579
20
9.5222475
40
1.3380708
50
359.9610111
51
8.4505977
0
ARC
8
DEFAULT_255_2_778
10
2.7640941
20
9.5168941
40
1.3093417
50
331.8777919
51
0.1944154
0
ARC
8
DEFAULT_255_2_778
10
2.792384
20
9.5031845
40
1.2779301
50
275.9546825
51
331.8220444
0
ARC
8
DEFAULT_255_2_778
10
2.7860349
20
9.5480797
40
1.3232427
50
269.9867245
51
276.0264414
0
ARC
8
DEFAULT_255_2_778
10
2.7888447
20
9.5093877
40
1.2845545
50
243.1418446
51
269.8610016
0
ARC
8
DEFAULT_255_2_778
10
2.7847463
20
9.4818718
40
1.2581858
50
193.0116243
51
242.7422425
0
ARC
8
DEFAULT_255_2_778
10
2.9167455
20
9.5216003
40
1.3957696
50
179.9012292
51
193.3806216
0
ARC
8
DEFAULT_255_2_778
10
2.9826529
20
9.5239987
40
1.4616749
50
179.5241933
51
179.9996988
0
ARC
8
DEFAULT_255_2_778
10
2.8062264
20
9.5338761
40
1.2852
50
154.9191095
51
179.8992107
0
ARC
8
DEFAULT_255_2_778
10
2.742194
20
9.5546165
40
1.2184421
50
102.659525
51
154.5260617
0
ARC
8
DEFAULT_255_2_778
10
2.7901953
20
9.3923199
40
1.3873589
50
89.8831399
51
103.1247931
0
ARC
8
DEFAULT_255_2_778
10
2.7929908
20
9.3015072
40
1.4781687
50
89.583794
51
89.9986774
0
ARC
8
DEFAULT_255_2_778
10
6.6099716
20
9.3231015
40
1.4621449
50
90.0022662
51
90.205463
0
ARC
8
DEFAULT_255_2_778
10
6.6162726
20
9.4449159
40
1.3403455
50
65.5925551
51
90.2718202
0
ARC
8
DEFAULT_255_2_778
10
6.6616397
20
9.5437131
40
1.2316311
50
5.8577377
51
65.6152288
0
ARC
8
DEFAULT_255_2_778
10
6.5717279
20
9.5283082
40
1.3226598
50
0.5427352
51
6.1240694
0
ARC
8
DEFAULT_255_2_778
10
6.4832777
20
9.5270656
40
1.4111179
50
0.0003778
51
0.5591674
0
ARC
8
DEFAULT_255_2_778
10
6.5638136
20
9.5216269
40
1.330593
50
333.1957981
51
0.2345942
0
ARC
8
DEFAULT_255_2_778
10
6.6238727
20
9.4920937
40
1.2636694
50
277.3086447
51
333.1630037
0
ARC
8
DEFAULT_255_2_778
10
6.612263
20
9.5583592
40
1.3308769
50
270.5194339
51
277.4414758
0
ARC
8
DEFAULT_255_2_778
10
6.6113621
20
9.5789791
40
1.3515043
50
270.0012476
51
270.5497022
0
ARC
8
DEFAULT_255_2_778
10
6.6062286
20
9.500443
40
1.2729785
50
241.2392476
51
270.2323797
0
ARC
8
DEFAULT_255_2_778
10
6.6082985
20
9.4911461
40
1.26584
50
191.6106619
51
240.9546436
0
ARC
8
DEFAULT_255_2_778
10
6.6975065
20
9.5152237
40
1.3580803
50
179.937302
51
191.8482258
0
ARC
8
DEFAULT_255_2_778
10
6.8870771
20
9.516549
40
1.5476501
50
179.9227026
51
179.9940448
0
ARC
8
DEFAULT_255_2_778
10
6.6650203
20
9.5241481
40
1.3256034
50
156.6778188
51
180.2382054
0
ARC
8
DEFAULT_255_2_778
10
6.5641064
20
9.561832
40
1.2180274
50
100.1904399
51
156.426294
0
ARC
8
DEFAULT_255_2_778
10
6.6056184
20
9.4020741
40
1.3826668
50
90.1363347
51
100.7122706
0
ARC
8
DEFAULT_255_2_778
10
10.4417614
20
9.4646115
40
1.3208388
50
64.6472851
51
90.2573648
0
ARC
8
DEFAULT_255_2_778
10
10.4762326
20
9.5420311
40
1.236117
50
6.9503493
51
64.5546276
0
ARC
8
DEFAULT_255_2_778
10
10.3840575
20
9.5242808
40
1.3297783
50
0.1920017
51
7.2289433
0
ARC
8
DEFAULT_255_2_778
10
10.3169358
20
9.5237786
40
1.3969013
50
0.0000491
51
0.2033723
0
ARC
8
DEFAULT_255_2_778
10
10.3979262
20
9.5192368
40
1.3159189
50
331.7458744
51
0.1978049
0
ARC
8
DEFAULT_255_2_778
10
10.439757
20
9.4961327
40
1.2681351
50
275.4471051
51
331.7706962
0
ARC
8
DEFAULT_255_2_778
10
10.4349832
20
9.5385828
40
1.3108468
50
269.9882513
51
275.4786876
0
ARC
8
DEFAULT_255_2_778
10
10.434343
20
9.14797
40
0.920234
50
269.9305988
51
270.0231232
0
ARC
8
DEFAULT_255_2_778
10
10.4287276
20
9.5073895
40
1.2796605
50
242.6959411
51
270.2015167
0
ARC
8
DEFAULT_255_2_778
10
10.4257333
20
9.4848259
40
1.2582608
50
192.1984048
51
242.3457919
0
ARC
8
DEFAULT_255_2_778
10
10.5391518
20
9.5171948
40
1.3759795
50
179.9199776
51
192.5179078
0
ARC
8
DEFAULT_255_2_778
10
10.5953414
20
9.5191313
40
1.4321677
50
179.4996902
51
180.0005923
0
ARC
8
DEFAULT_255_2_778
10
10.4653848
20
9.5324457
40
1.3021567
50
155.6715742
51
180.0355877
0
ARC
8
DEFAULT_255_2_778
10
10.3872824
20
9.5592532
40
1.2199707
50
102.2075317
51
155.3076601
0
ARC
8
DEFAULT_255_2_778
10
10.435775
20
9.3916618
40
1.3940779
50
89.8868407
51
102.6990207
0
LINE
8
DEFAULT_255_2_778
10
1.2252284
20
6.5606369
11
1.8932284
21
6.5651369
0
LINE
8
DEFAULT_255_2_778
10
1.2273284
20
6.5614369
11
1.2252284
21
6.5606369
0
LINE
8
DEFAULT_255_2_778
10
7.8236284
20
12.7510369
11
6.7454284
21
14.2062369
0
LINE
8
DEFAULT_255_2_778
10
6.4808284
20
14.2084369
11
5.3881284
21
12.7267369
0
LINE
8
DEFAULT_255_2_778
10
5.0804284
20
12.5560369
11
2.8283284
21
12.5605369
0
LINE
8
DEFAULT_255_2_778
10
2.8283284
20
12.5605369
11
2.8291284
21
12.5579369
0
LINE
8
DEFAULT_255_2_778
10
2.8037284
20
10.7796369
11
2.8034284
21
10.7852369
0
LINE
8
DEFAULT_255_2_778
10
6.6023284
20
10.7847369
11
6.6047284
21
10.7852369
0
LINE
8
DEFAULT_255_2_778
10
10.4385284
20
10.7857369
11
10.4358284
21
10.7854369
0
ENDSEC
0
EOF