0
SECTION
2
HEADER
9
$MEASUREMENT
70
1
0
ENDSEC
0
SECTION
2
TABLES
0
TABLE
2
LTYPE
0
LTYPE
72
65
70
64
2
CONTINUOUS
3
______
73
0
40
0
0
ENDTAB
0
TABLE
2
LAYER
0
LAYER
2
DEFAULT_255_2_778
70
0
62
255
6
CONTINUOUS
0
ENDTAB
0
ENDSEC
0
SECTION
2
ENTITIES
0
ARC
8
DEFAULT_255_2_778
10
15.3014864
20
8.1187958
40
1.8785337
50
3.394507
51
9.8955001
0
ARC
8
DEFAULT_255_2_778
10
15.3818269
20
8.1431972
40
1.795224
50
9.5689465
51
30.4068048
0
ARC
8
DEFAULT_255_2_778
10
15.9012871
20
8.5302417
40
1.1534969
50
26.8833677
51
69.4907714
0
ARC
8
DEFAULT_255_2_778
10
15.4257404
20
7.7493972
40
2.0586435
50
64.7028818
51
89.9964728
0
ARC
8
DEFAULT_255_2_778
10
15.4259191
20
7.734514
40
2.0735268
50
90.0014364
51
90.2236776
0
ARC
8
DEFAULT_255_2_778
10
12.0433565
20
3.1812953
40
3.3543271
50
272.3231217
51
289.8931581
0
ARC
8
DEFAULT_255_2_778
10
21.7349964
20
-15.5366378
40
17.7577552
50
118.7711623
51
118.7830952
0
ARC
8
DEFAULT_255_2_778
10
18.8050764
20
-10.2010802
40
11.67067
50
118.7524144
51
118.7704375
0
ARC
8
DEFAULT_255_2_778
10
21.4924136
20
-15.0960558
40
17.2548054
50
118.7449518
51
118.7570524
0
ARC
8
DEFAULT_255_2_778
10
0.8248579
20
23.0021511
40
26.0885678
50
298.3030895
51
299.3453861
0
ARC
8
DEFAULT_255_2_778
10
11.6113513
20
3.8597323
40
4.116363
50
299.0502945
51
308.4819305
0
ARC
8
DEFAULT_255_2_778
10
12.3598161
20
2.8629499
40
2.8705375
50
309.1678501
51
309.6144748
0
ARC
8
DEFAULT_255_2_778
10
11.1953328
20
4.4685809
40
4.8515902
50
308.1178039
51
321.8752245
0
ARC
8
DEFAULT_255_2_778
10
8.8994276
20
5.337165
40
7.231312
50
327.7021435
51
327.7547146
0
ARC
8
DEFAULT_255_2_778
10
8.5940282
20
5.5168841
40
7.5855062
50
327.8373706
51
335.9590189
0
ARC
8
DEFAULT_255_2_778
10
15.0886024
20
7.9970381
40
2.1134989
50
338.1466326
51
353.02782
0
ARC
8
DEFAULT_255_2_778
10
15.2669593
20
7.9727795
40
1.9335177
50
353.0997958
51
359.9531645
0
ARC
8
DEFAULT_255_2_778
10
15.4444982
20
7.9735754
40
1.7559797
50
359.9224592
51
8.3812287
0
LINE
8
DEFAULT_255_2_778
10
15.4178242
20
9.8080251
11
3.9274242
21
9.8080251
0
LINE
8
DEFAULT_255_2_778
10
3.9274242
20
9.8080251
11
3.1056242
21
7.3421251
0
LINE
8
DEFAULT_255_2_778
10
3.1056242
20
7.3421251
11
13.5109242
21
7.3421251
0
LINE
8
DEFAULT_255_2_778
10
13.5109242
20
7.3421251
11
11.8671242
21
2.2957251
0
LINE
8
DEFAULT_255_2_778
10
11.8671242
20
2.2957251
11
1.4618242
21
2.2957251
0
LINE
8
DEFAULT_255_2_778
10
1.4618242
20
2.2957251
11
0.6400242
21
-0.1702749
0
LINE
8
DEFAULT_255_2_778
10
0.6400242
20
-0.1702749
11
12.1793242
21
-0.1702749
0
LINE
8
DEFAULT_255_2_778
10
15.5215242
20
2.4266251
11
17.0502242
21
7.2103251
0
LINE
8
DEFAULT_255_2_778
10
17.1817242
20
8.2295251
11
17.1767242
21
8.2300251
0
LINE
8
DEFAULT_255_2_778
10
7.1988242
20
5.9779251
11
1.0837242
21
5.9779251
0
LINE
8
DEFAULT_255_2_778
10
1.0837242
20
5.9779251
11
0.2619242
21
3.6932251
0
LINE
8
DEFAULT_255_2_778
10
0.2619242
20
3.6932251
11
6.4426242
21
3.6932251
0
LINE
8
DEFAULT_255_2_778
10
6.4426242
20
3.6932251
11
7.1988242
21
5.9779251
0
ENDSEC
0
EOF