0
SECTION
2
HEADER
9
$MEASUREMENT
70
1
0
ENDSEC
0
SECTION
2
TABLES
0
TABLE
2
LTYPE
0
LTYPE
72
65
70
64
2
CONTINUOUS
3
______
73
0
40
0
0
ENDTAB
0
TABLE
2
LAYER
0
LAYER
2
DEFAULT_255_2_778
70
0
62
255
6
CONTINUOUS
0
ENDTAB
0
ENDSEC
0
SECTION
2
ENTITIES
0
ARC
8
DEFAULT_255_2_778
10
5.0257423
20
4.4765175
40
0.980841
50
246.7243103
51
253.1482204
0
ARC
8
DEFAULT_255_2_778
10
5.1816307
20
5.0023765
40
1.5293135
50
253.2700064
51
255.9185986
0
ARC
8
DEFAULT_255_2_778
10
9.3093721
20
21.516818
40
18.5517989
50
255.9626377
51
256.2464167
0
ARC
8
DEFAULT_255_2_778
10
3.3133975
20
-2.8796965
40
6.5707653
50
75.9788993
51
76.0383282
0
ARC
8
DEFAULT_255_2_778
10
-125.3576929
20
-559.8657794
40
578.2250181
50
76.9774458
51
76.9806036
0
ARC
8
DEFAULT_255_2_778
10
5.2461113
20
4.726612
40
1.2766255
50
255.9601607
51
264.3633816
0
ARC
8
DEFAULT_255_2_778
10
5.1836753
20
4.2089102
40
0.7553788
50
265.2194562
51
269.958601
0
ARC
8
DEFAULT_255_2_778
10
5.1832282
20
4.1588481
40
0.7053165
50
269.9919793
51
283.2414796
0
ARC
8
DEFAULT_255_2_778
10
5.1510539
20
4.2881854
40
0.8385865
50
283.3571897
51
293.8432968
0
ARC
8
DEFAULT_255_2_778
10
5.0615077
20
4.4984271
40
1.0670874
50
293.6777291
51
298.651609
0
ARC
8
DEFAULT_255_2_778
10
5.2287277
20
4.123627
40
0.6588271
50
301.5197332
51
306.6496741
0
ARC
8
DEFAULT_255_2_778
10
4.7997739
20
4.7101114
40
1.3854279
50
306.4042299
51
310.5173818
0
ARC
8
DEFAULT_255_2_778
10
4.8400815
20
4.6681679
40
1.3273594
50
310.3709477
51
314.0065609
0
ARC
8
DEFAULT_255_2_778
10
5.2558382
20
4.243891
40
0.7333633
50
313.6725767
51
320.6609889
0
ARC
8
DEFAULT_255_2_778
10
5.562654
20
3.9891805
40
0.3346155
50
321.0894773
51
326.090261
0
ARC
8
DEFAULT_255_2_778
10
1.2154472
20
0.2694145
40
0.9255459
50
32.8083102
51
44.4087747
0
ARC
8
DEFAULT_255_2_778
10
0.442106
20
-0.4686619
40
1.9945284
50
44.0092795
51
49.7687078
0
ARC
8
DEFAULT_255_2_778
10
-0.5105282
20
-1.5732072
40
3.4530965
50
49.5383292
51
51.9147328
0
ARC
8
DEFAULT_255_2_778
10
1.892851
20
1.4915495
40
0.4416407
50
208.9866049
51
231.7538719
0
ARC
8
DEFAULT_255_2_778
10
1.9223724
20
1.499288
40
0.4712744
50
179.1248535
51
208.0702366
0
ARC
8
DEFAULT_255_2_778
10
2.0634927
20
1.5059009
40
0.6123399
50
174.3417844
51
179.9452446
0
ARC
8
DEFAULT_255_2_778
10
2.2971039
20
1.4659356
40
0.8489182
50
145.3069692
51
173.2120267
0
ARC
8
DEFAULT_255_2_778
10
2.2928378
20
1.4745806
40
0.8405031
50
144.7725245
51
145.6259916
0
ARC
8
DEFAULT_255_2_778
10
2.1378384
20
1.6744664
40
0.6031313
50
140.1660111
51
151.8079156
0
ARC
8
DEFAULT_255_2_778
10
2.7149786
20
1.2009051
40
1.3496799
50
134.0653621
51
140.4226983
0
ARC
8
DEFAULT_255_2_778
10
4.0641258
20
-0.1859805
40
3.2845287
50
130.7846843
51
134.1504249
0
ARC
8
DEFAULT_255_2_778
10
14.9595886
20
-12.824391
40
19.971066
50
130.0031651
51
130.7676834
0
ARC
8
DEFAULT_255_2_778
10
-6.2382138
20
12.3532466
40
12.9419185
50
310.2367734
51
310.6461582
0
ARC
8
DEFAULT_255_2_778
10
0.0248251
20
5.146368
40
3.3945574
50
309.6738456
51
318.580199
0
ARC
8
DEFAULT_255_2_778
10
1.6246004
20
3.7212395
40
1.2521327
50
319.0521513
51
332.2841995
0
ARC
8
DEFAULT_255_2_778
10
2.1567968
20
3.4471219
40
0.6535272
50
331.8589584
51
358.9881389
0
ARC
8
DEFAULT_255_2_778
10
2.2663363
20
3.4356167
40
0.5438858
50
359.9962365
51
4.8713846
0
ARC
8
DEFAULT_255_2_778
10
-1.5572363
20
3.0144685
40
4.3904369
50
6.1103542
51
8.8240337
0
ARC
8
DEFAULT_255_2_778
10
1.227059
20
3.4365875
40
1.5743747
50
9.187562
51
14.0496603
0
ARC
8
DEFAULT_255_2_778
10
1.8938762
20
3.6191595
40
0.8833145
50
13.0615935
51
36.5717724
0
ARC
8
DEFAULT_255_2_778
10
2.0316186
20
3.7061164
40
0.7209844
50
37.5441141
51
45.0420312
0
ARC
8
DEFAULT_255_2_778
10
3.0880518
20
4.1360905
40
0.5528444
50
171.6574691
51
179.9986962
0
ARC
8
DEFAULT_255_2_778
10
3.0880518
20
4.1361157
40
0.5528444
50
180.0013038
51
188.3425309
0
ARC
8
DEFAULT_255_2_778
10
2.5061772
20
4.0504763
40
0.0352998
50
0.7510642
51
8.8433786
0
ARC
8
DEFAULT_255_2_778
10
2.5357011
20
4.0499402
40
0.0058586
50
315.5586527
51
9.8159715
0
ARC
8
DEFAULT_255_2_778
10
2.5387702
20
4.0476534
40
0.0021296
50
268.885928
51
301.5313758
0
ARC
8
DEFAULT_255_2_778
10
2.5455641
20
4.0653156
40
0.0209384
50
212.6646804
51
250.9467981
0
ARC
8
DEFAULT_255_2_778
10
2.7324138
20
4.2197338
40
0.2631987
50
210.0649229
51
219.0232202
0
ARC
8
DEFAULT_255_2_778
10
3.1963804
20
4.4981246
40
0.8042559
50
204.8217618
51
210.6702818
0
ARC
8
DEFAULT_255_2_778
10
3.3263003
20
4.5650317
40
0.9502811
50
195.7540017
51
205.1947481
0
ARC
8
DEFAULT_255_2_778
10
3.1066504
20
4.498547
40
0.7208442
50
194.0783152
51
195.4081843
0
ARC
8
DEFAULT_255_2_778
10
1.8803058
20
3.9190515
40
0.6642494
50
37.4763225
51
42.8291716
0
ARC
8
DEFAULT_255_2_778
10
3.286269
20
5.2049037
40
1.2410685
50
220.8403237
51
222.2395538
0
ARC
8
DEFAULT_255_2_778
10
2.6616854
20
4.667635
40
0.4172051
50
208.9564099
51
221.1130443
0
ARC
8
DEFAULT_255_2_778
10
2.7087826
20
4.6935126
40
0.4709431
50
206.4830943
51
208.9370365
0
ARC
8
DEFAULT_255_2_778
10
2.7698062
20
4.3454243
40
0.5019154
50
164.0318073
51
164.1027287
0
ARC
8
DEFAULT_255_2_778
10
3.0033103
20
4.2867508
40
0.7425986
50
164.6837514
51
175.6002397
0
ARC
8
DEFAULT_255_2_778
10
2.9615795
20
4.2849977
40
0.7011427
50
175.1957956
51
178.7870426
0
ARC
8
DEFAULT_255_2_778
10
2.4842826
20
4.2957178
40
0.2237266
50
178.9442786
51
179.7988828
0
ARC
8
DEFAULT_255_2_778
10
2.9814309
20
4.5713054
40
0.7714758
50
200.1157636
51
200.8672186
0
ARC
8
DEFAULT_255_2_778
10
3.8289488
20
4.8823563
40
1.6742708
50
198.6582653
51
200.1362932
0
ARC
8
DEFAULT_255_2_778
10
4.0002922
20
4.9418551
40
1.8556447
50
196.3119546
51
198.7062802
0
ARC
8
DEFAULT_255_2_778
10
3.5316892
20
4.8079753
40
1.3683056
50
191.8978691
51
196.4427844
0
ARC
8
DEFAULT_255_2_778
10
2.9446075
20
4.6848982
40
0.7684623
50
186.0726477
51
191.9429346
0
ARC
8
DEFAULT_255_2_778
10
2.4617505
20
4.4447115
40
0.3230671
50
150.5395815
51
164.3920843
0
ARC
8
DEFAULT_255_2_778
10
2.8424894
20
4.330006
40
0.720673
50
163.7531073
51
170.833414
0
ARC
8
DEFAULT_255_2_778
10
2.7937454
20
4.3347388
40
0.6718046
50
170.5696364
51
172.8297611
0
ARC
8
DEFAULT_255_2_778
10
2.3421322
20
4.3919699
40
0.2165802
50
172.9393208
51
173.4692033
0
ARC
8
DEFAULT_255_2_778
10
2.7752261
20
4.6409796
40
0.6860008
50
198.2908798
51
199.0915843
0
ARC
8
DEFAULT_255_2_778
10
3.5118669
20
4.88554
40
1.4621767
50
197.1232435
51
198.3306825
0
ARC
8
DEFAULT_255_2_778
10
3.8166867
20
4.9801663
40
1.7813458
50
195.1759733
51
197.1452562
0
ARC
8
DEFAULT_255_2_778
10
3.75783
20
4.9643019
40
1.7203887
50
194.3620429
51
195.1791882
0
ARC
8
DEFAULT_255_2_778
10
3.4610431
20
4.8914652
40
1.4148133
50
190.0525415
51
194.485846
0
ARC
8
DEFAULT_255_2_778
10
3.1030416
20
4.8249995
40
1.0507104
50
188.451909
51
189.8913656
0
ARC
8
DEFAULT_255_2_778
10
2.7494512
20
4.7777148
40
0.6940297
50
180.5843682
51
188.8811382
0
ARC
8
DEFAULT_255_2_778
10
2.4050335
20
4.7731912
40
0.3495852
50
171.4125672
51
180.4187269
0
ARC
8
DEFAULT_255_2_778
10
2.3045056
20
4.7862163
40
0.2482486
50
169.7001525
51
170.9206003
0
ARC
8
DEFAULT_255_2_778
10
1.5458982
20
4.659839
40
0.5419647
50
18.3658517
51
18.6993393
0
ARC
8
DEFAULT_255_2_778
10
1.4559582
20
4.6293265
40
0.6369395
50
18.7053564
51
18.9879955
0
ARC
8
DEFAULT_255_2_778
10
1.4194714
20
4.6167096
40
0.6755461
50
18.9929696
51
19.2582085
0
ARC
8
DEFAULT_255_2_778
10
1.3262258
20
4.5842061
40
0.7742945
50
19.2530213
51
19.4831887
0
ARC
8
DEFAULT_255_2_778
10
1.224066
20
4.5480797
40
0.8826538
50
19.4821729
51
19.6828636
0
ARC
8
DEFAULT_255_2_778
10
1.1384107
20
4.5174202
40
0.9736309
50
19.6839406
51
19.8646635
0
ARC
8
DEFAULT_255_2_778
10
0.9377926
20
4.4449536
40
1.186936
50
19.8639251
51
20.0110903
0
ARC
8
DEFAULT_255_2_778
10
0.9076771
20
4.4339791
40
1.2189887
50
20.0113903
51
20.1535592
0
ARC
8
DEFAULT_255_2_778
10
0.6510423
20
4.3398589
40
1.4923383
50
20.1511434
51
20.2856539
0
ARC
8
DEFAULT_255_2_778
10
0.2897181
20
4.2062206
40
1.8775841
50
20.2880392
51
20.3938231
0
ARC
8
DEFAULT_255_2_778
10
-0.2045326
20
4.0220988
40
2.4050161
50
20.4021346
51
20.4837925
0
ARC
8
DEFAULT_255_2_778
10
9.3438342
20
7.6343816
40
7.8038258
50
200.2792528
51
200.7958594
0
ARC
8
DEFAULT_255_2_778
10
3.6868969
20
5.5394947
40
1.7714624
50
197.3128168
51
200.138158
0
ARC
8
DEFAULT_255_2_778
10
3.5850023
20
5.5056806
40
1.6641227
50
197.1924085
51
197.2453519
0
ARC
8
DEFAULT_255_2_778
10
3.4797295
20
5.4731767
40
1.5539461
50
192.7411224
51
197.1948087
0
ARC
8
DEFAULT_255_2_778
10
3.610775
20
5.5017562
40
1.6880683
50
187.9292645
51
192.7063029
0
ARC
8
DEFAULT_255_2_778
10
3.8964603
20
5.5412568
40
1.9764712
50
183.3737114
51
187.9209317
0
ARC
8
DEFAULT_255_2_778
10
4.2593641
20
5.563608
40
2.3400617
50
179.9542988
51
183.3971221
0
ARC
8
DEFAULT_255_2_778
10
4.5855884
20
5.5646804
40
2.6662854
50
177.9789981
51
179.9829367
0
ARC
8
DEFAULT_255_2_778
10
4.8635814
20
5.5549771
40
2.9444475
50
176.1703632
51
177.9810669
0
ARC
8
DEFAULT_255_2_778
10
5.0476673
20
5.5434281
40
3.1288938
50
175.9318142
51
176.1844995
0
ARC
8
DEFAULT_255_2_778
10
2.1900881
20
6.1506595
40
0.46671
50
235.6364557
51
253.8796411
0
ARC
8
DEFAULT_255_2_778
10
2.2667727
20
6.4044753
40
0.7318449
50
253.629429
51
268.4458162
0
ARC
8
DEFAULT_255_2_778
10
2.2752917
20
6.5215638
40
0.8491383
50
268.0854846
51
270.003678
0
ARC
8
DEFAULT_255_2_778
10
2.2750065
20
6.5507656
40
0.87834
50
270.0221596
51
276.8314342
0
ARC
8
DEFAULT_255_2_778
10
2.3144258
20
6.3893975
40
0.7137074
50
275.2300658
51
314.177631
0
ARC
8
DEFAULT_255_2_778
10
2.4537219
20
6.2176349
40
0.493846
50
316.4752058
51
325.6526973
0
ARC
8
DEFAULT_255_2_778
10
2.6527398
20
6.0809496
40
0.252412
50
325.7808162
51
342.6383678
0
ARC
8
DEFAULT_255_2_778
10
2.3938045
20
6.1671598
40
0.5252995
50
342.0912744
51
352.1454611
0
ARC
8
DEFAULT_255_2_778
10
2.0146297
20
6.2226271
40
0.9085025
50
351.9481042
51
358.8806518
0
ARC
8
DEFAULT_255_2_778
10
1.7190919
20
6.2337206
40
1.2042125
50
358.6276193
51
0.0120265
0
ARC
8
DEFAULT_255_2_778
10
1.3842837
20
6.2296482
40
1.5390269
50
0.1610204
51
5.0881659
0
ARC
8
DEFAULT_255_2_778
10
0.7441362
20
6.1741162
40
2.1815775
50
5.049806
51
9.024314
0
ARC
8
DEFAULT_255_2_778
10
-0.007935
20
6.0560967
40
2.9428514
50
8.9969319
51
12.2186044
0
ARC
8
DEFAULT_255_2_778
10
-0.7799534
20
5.8912061
40
3.7322798
50
12.1842743
51
14.4192856
0
ARC
8
DEFAULT_255_2_778
10
0.1392499
20
6.0593346
40
2.8009446
50
15.7708052
51
18.6772582
0
ARC
8
DEFAULT_255_2_778
10
-1.9130744
20
5.3622356
40
4.9684261
50
18.7136741
51
21.5347292
0
ARC
8
DEFAULT_255_2_778
10
-3.4257191
20
4.7804591
40
6.5890459
50
21.4123526
51
21.5582909
0
ARC
8
DEFAULT_255_2_778
10
-4.5075561
20
4.3477665
40
7.7541953
50
21.5945327
51
23.0504165
0
ARC
8
DEFAULT_255_2_778
10
-6.0102422
20
3.7109118
40
9.3862631
50
23.0360443
51
24.37671
0
ARC
8
DEFAULT_255_2_778
10
-5.6002534
20
3.8997654
40
8.9348782
50
24.3587469
51
25.3084378
0
ARC
8
DEFAULT_255_2_778
10
-3.2829429
20
4.9974258
40
6.3707445
50
25.2933546
51
26.2057342
0
ARC
8
DEFAULT_255_2_778
10
-1.2374876
20
6.0013664
40
4.0921978
50
26.240939
51
26.6284707
0
ARC
8
DEFAULT_255_2_778
10
-5.8069241
20
5.0330831
40
8.6750107
50
14.4288634
51
18.7550861
0
ARC
8
DEFAULT_255_2_778
10
-71.6559704
20
-9.8409145
40
76.1796448
50
12.791406
51
12.9219936
0
ARC
8
DEFAULT_255_2_778
10
-6.9926216
20
4.8326542
40
9.8723159
50
11.9234182
51
12.8331987
0
ARC
8
DEFAULT_255_2_778
10
-0.3444281
20
6.2284891
40
3.0791844
50
9.074259
51
12.0690188
0
ARC
8
DEFAULT_255_2_778
10
1.5634202
20
6.5267365
40
1.1481933
50
0.9196542
51
9.3926494
0
ARC
8
DEFAULT_255_2_778
10
1.8990503
20
6.5401956
40
0.8124306
50
0.0003539
51
0.3504863
0
ARC
8
DEFAULT_255_2_778
10
1.9756078
20
6.5390895
40
0.735874
50
352.7569864
51
0.086514
0
ARC
8
DEFAULT_255_2_778
10
1.9155176
20
6.5489166
40
0.7967267
50
345.7873456
51
352.6007431
0
ARC
8
DEFAULT_255_2_778
10
2.213436
20
6.4435381
40
0.4829265
50
307.2004944
51
349.2309645
0
ARC
8
DEFAULT_255_2_778
10
1.9155332
20
6.8021186
40
0.9488798
50
299.8009557
51
308.4376488
0
ARC
8
DEFAULT_255_2_778
10
1.6151757
20
7.3083048
40
1.5374273
50
297.0902466
51
300.1389248
0
ARC
8
DEFAULT_255_2_778
10
1.379043
20
7.7660679
40
2.0525034
50
295.4347264
51
297.1395
0
ARC
8
DEFAULT_255_2_778
10
2.1245948
20
6.1900374
40
0.3090487
50
269.2738624
51
296.0999823
0
ARC
8
DEFAULT_255_2_778
10
2.1215761
20
6.2924717
40
0.4114592
50
262.2996493
51
269.8749621
0
ARC
8
DEFAULT_255_2_778
10
2.1966271
20
6.6337678
40
0.7602737
50
237.2936243
51
260.1405302
0
ARC
8
DEFAULT_255_2_778
10
2.4034073
20
7.013931
40
1.1923067
50
237.9030627
51
238.8036621
0
ARC
8
DEFAULT_255_2_778
10
2.4568463
20
7.0974125
40
1.2914233
50
233.6661911
51
237.8625701
0
ARC
8
DEFAULT_255_2_778
10
2.4442191
20
7.0819687
40
1.271501
50
230.981668
51
233.7122423
0
ARC
8
DEFAULT_255_2_778
10
2.2212822
20
6.808415
40
0.9186113
50
228.733398
51
231.0433314
0
ARC
8
DEFAULT_255_2_778
10
1.7654884
20
6.2912211
40
0.2292431
50
226.0051172
51
229.1019499
0
ARC
8
DEFAULT_255_2_778
10
2.6195822
20
7.360442
40
1.5968488
50
215.2096126
51
230.6113193
0
ARC
8
DEFAULT_255_2_778
10
2.7021229
20
7.4370564
40
1.7085279
50
208.5654192
51
215.7128894
0
ARC
8
DEFAULT_255_2_778
10
2.2199725
20
7.1771558
40
1.1607966
50
201.7953908
51
208.6780867
0
ARC
8
DEFAULT_255_2_778
10
1.6528395
20
6.9538814
40
0.551314
50
191.9816496
51
202.1340671
0
ARC
8
DEFAULT_255_2_778
10
1.409624
20
6.8972339
40
0.3016773
50
189.4691426
51
191.0467595
0
ARC
8
DEFAULT_255_2_778
10
1.4475057
20
6.8962042
40
0.3389508
50
180.0723471
51
188.2438754
0
ARC
8
DEFAULT_255_2_778
10
1.5699722
20
6.8665602
40
0.4623409
50
142.1109716
51
176.3769855
0
ARC
8
DEFAULT_255_2_778
10
14.2743376
20
-1.2757247
40
15.5501265
50
147.121397
51
147.1886333
0
ARC
8
DEFAULT_255_2_778
10
0.4244642
20
7.7025568
40
0.9555128
50
325.8254778
51
334.3141805
0
ARC
8
DEFAULT_255_2_778
10
1.4983361
20
6.5503639
40
0.7680994
50
106.0824145
51
108.5640731
0
ARC
8
DEFAULT_255_2_778
10
1.6198813
20
6.1932013
40
1.1453749
50
108.6397577
51
111.9178578
0
ARC
8
DEFAULT_255_2_778
10
1.7991568
20
5.7448947
40
1.6281976
50
111.8817854
51
114.7884501
0
ARC
8
DEFAULT_255_2_778
10
1.6825957
20
5.9926165
40
1.3544315
50
114.705565
51
116.067414
0
ARC
8
DEFAULT_255_2_778
10
1.2711544
20
6.8347831
40
0.4171333
50
116.13382
51
116.4651791
0
ARC
8
DEFAULT_255_2_778
10
1.6718868
20
6.6740437
40
0.7933854
50
136.1025334
51
137.6803586
0
ARC
8
DEFAULT_255_2_778
10
2.2490306
20
6.1217514
40
1.5922091
50
133.7002324
51
136.1817882
0
ARC
8
DEFAULT_255_2_778
10
2.3808579
20
5.9866817
40
1.7809384
50
129.4781719
51
133.7642141
0
ARC
8
DEFAULT_255_2_778
10
2.2683155
20
6.1220832
40
1.604874
50
127.5884852
51
129.4502678
0
ARC
8
DEFAULT_255_2_778
10
2.1407052
20
6.289737
40
1.3941829
50
123.7688426
51
127.6356013
0
ARC
8
DEFAULT_255_2_778
10
0.3283061
20
9.1909574
40
2.0277464
50
300.7723146
51
302.7562014
0
ARC
8
DEFAULT_255_2_778
10
0.7730747
20
8.4939165
40
1.2009037
50
302.9042494
51
304.4585192
0
ARC
8
DEFAULT_255_2_778
10
0.6556566
20
8.65605
40
1.4010341
50
304.6662198
51
308.7806074
0
ARC
8
DEFAULT_255_2_778
10
0.0159614
20
9.4714878
40
2.4374052
50
308.4969504
51
308.6827204
0
ARC
8
DEFAULT_255_2_778
10
1.7841324
20
6.8437406
40
0.8371101
50
118.8881645
51
119.9857738
0
ARC
8
DEFAULT_255_2_778
10
2.2164279
20
6.0635891
40
1.7290263
50
117.2479024
51
118.941521
0
ARC
8
DEFAULT_255_2_778
10
2.3522127
20
5.8027598
40
2.0230805
50
114.4466618
51
117.2846866
0
ARC
8
DEFAULT_255_2_778
10
2.2978578
20
5.9217781
40
1.892238
50
113.2375571
51
114.4398018
0
ARC
8
DEFAULT_255_2_778
10
2.1490369
20
6.2806006
40
1.5038154
50
107.3871165
51
113.4213249
0
ARC
8
DEFAULT_255_2_778
10
2.335805
20
7.4195648
40
0.6227994
50
98.0898387
51
112.2227147
0
ARC
8
DEFAULT_255_2_778
10
2.3128458
20
7.5613077
40
0.4792442
50
90.1040768
51
97.7570178
0
ARC
8
DEFAULT_255_2_778
10
2.3233709
20
7.7055441
40
0.3352008
50
36.0281012
51
91.948231
0
ARC
8
DEFAULT_255_2_778
10
3.3166608
20
8.3906557
40
0.8715937
50
214.0447059
51
248.5803244
0
ARC
8
DEFAULT_255_2_778
10
3.5869713
20
9.0611168
40
1.5944772
50
248.3363231
51
255.7934442
0
ARC
8
DEFAULT_255_2_778
10
2.0185903
20
10.256763
40
2.9833774
50
293.2374002
51
295.329079
0
ARC
8
DEFAULT_255_2_778
10
-63.1525873
20
147.0654959
40
154.5218513
50
295.4688416
51
295.5057887
0
ARC
8
DEFAULT_255_2_778
10
4.1868355
20
5.9242082
40
1.8605679
50
111.7565967
51
115.532951
0
ARC
8
DEFAULT_255_2_778
10
4.0933
20
6.1422332
40
1.6234147
50
108.3130637
51
111.5427669
0
ARC
8
DEFAULT_255_2_778
10
4.2448145
20
5.6851406
40
2.1049645
50
106.1072491
51
108.3190055
0
ARC
8
DEFAULT_255_2_778
10
4.3878926
20
5.1977387
40
2.612929
50
105.4945469
51
106.1563354
0
ARC
8
DEFAULT_255_2_778
10
4.5797931
20
6.931089
40
1.1864252
50
129.6339053
51
138.5989064
0
ARC
8
DEFAULT_255_2_778
10
4.3690345
20
7.186742
40
0.8550994
50
119.7313005
51
129.6850392
0
ARC
8
DEFAULT_255_2_778
10
4.2328734
20
7.4263011
40
0.5795491
50
110.2334669
51
119.7874823
0
ARC
8
DEFAULT_255_2_778
10
4.1385496
20
7.6856182
40
0.3036149
50
102.2213179
51
110.4562725
0
ARC
8
DEFAULT_255_2_778
10
4.089217
20
7.9098718
40
0.074004
50
99.3002622
51
101.6463731
0
ARC
8
DEFAULT_255_2_778
10
4.2848313
20
7.7540373
40
0.3089766
50
132.2070166
51
134.9166837
0
ARC
8
DEFAULT_255_2_778
10
4.4574656
20
7.5788416
40
0.5549338
50
134.7666105
51
139.7065461
0
ARC
8
DEFAULT_255_2_778
10
4.4519411
20
7.5825921
40
0.5482951
50
139.632133
51
143.746177
0
ARC
8
DEFAULT_255_2_778
10
4.2693102
20
7.7029463
40
0.3300292
50
141.845349
51
170.7663514
0
ARC
8
DEFAULT_255_2_778
10
5.1893562
20
6.1515934
40
2.0312125
50
126.657841
51
127.8305055
0
ARC
8
DEFAULT_255_2_778
10
5.667128
20
5.4989992
40
2.8399872
50
123.1953427
51
126.5298169
0
ARC
8
DEFAULT_255_2_778
10
5.8360436
20
5.2504586
40
3.1404532
50
121.9619671
51
123.2915859
0
ARC
8
DEFAULT_255_2_778
10
5.1430819
20
6.363994
40
1.8289073
50
121.1415216
51
122.0104751
0
ARC
8
DEFAULT_255_2_778
10
4.2131215
20
7.9030314
40
0.0307242
50
120.8696387
51
121.0908407
0
ARC
8
DEFAULT_255_2_778
10
4.5293493
20
7.6682995
40
0.4223668
50
141.8158155
51
144.6617948
0
ARC
8
DEFAULT_255_2_778
10
4.815399
20
7.463055
40
0.7744289
50
144.5155224
51
149.9013593
0
ARC
8
DEFAULT_255_2_778
10
4.8281386
20
7.4546721
40
0.789655
50
149.8386864
51
152.2449633
0
ARC
8
DEFAULT_255_2_778
10
4.7703666
20
7.4845209
40
0.7246299
50
152.206269
51
156.8756686
0
ARC
8
DEFAULT_255_2_778
10
5.314921
20
5.5581527
40
2.5029471
50
117.7033987
51
118.5901765
0
ARC
8
DEFAULT_255_2_778
10
5.7984947
20
4.6194263
40
3.5588841
50
114.5634078
51
117.5702718
0
ARC
8
DEFAULT_255_2_778
10
6.0091502
20
4.1745814
40
4.0510463
50
113.4815238
51
114.6577379
0
ARC
8
DEFAULT_255_2_778
10
5.376642
20
5.6342229
40
2.460255
50
112.7847864
51
113.5157494
0
ARC
8
DEFAULT_255_2_778
10
4.5261856
20
7.6580605
40
0.2649887
50
112.5986616
51
112.7158749
0
ARC
8
DEFAULT_255_2_778
10
4.8347851
20
7.4994882
40
0.5753548
50
135.5079023
51
138.2650067
0
ARC
8
DEFAULT_255_2_778
10
5.1556594
20
7.2095627
40
1.0078045
50
138.1086633
51
143.4631255
0
ARC
8
DEFAULT_255_2_778
10
5.1307553
20
7.2270995
40
0.9773546
50
143.4199746
51
146.2878406
0
ARC
8
DEFAULT_255_2_778
10
4.8628786
20
7.406137
40
0.6551554
50
146.3099459
51
146.3570884
0
ARC
8
DEFAULT_255_2_778
10
4.7361467
20
8.4257613
40
0.6701024
50
268.45312
51
269.9956066
0
ARC
8
DEFAULT_255_2_778
10
4.7398099
20
8.3273203
40
0.5716734
50
269.6277034
51
286.9161699
0
ARC
8
DEFAULT_255_2_778
10
4.7263734
20
8.3369115
40
0.5848458
50
287.9022005
51
315.7695419
0
ARC
8
DEFAULT_255_2_778
10
4.3632419
20
8.7057099
40
1.1023523
50
315.1999915
51
324.2295234
0
ARC
8
DEFAULT_255_2_778
10
3.5354977
20
9.3277496
40
2.1376637
50
323.6706176
51
323.7335502
0
ARC
8
DEFAULT_255_2_778
10
3.9055265
20
9.056168
40
1.6786671
50
323.7363538
51
323.81579
0
ARC
8
DEFAULT_255_2_778
10
3.9305918
20
9.0381374
40
1.6477914
50
323.807261
51
323.8874742
0
ARC
8
DEFAULT_255_2_778
10
3.9553365
20
9.0203659
40
1.6173271
50
323.8794356
51
323.9604407
0
ARC
8
DEFAULT_255_2_778
10
3.9796304
20
9.0032278
40
1.5875998
50
323.9447398
51
324.0265354
0
ARC
8
DEFAULT_255_2_778
10
3.3388151
20
9.4684668
40
2.379491
50
324.0243373
51
324.0784308
0
ARC
8
DEFAULT_255_2_778
10
3.3748081
20
9.4418179
40
2.3347087
50
324.0898309
51
324.144476
0
ARC
8
DEFAULT_255_2_778
10
3.7455376
20
9.1737758
40
1.8772298
50
324.1473724
51
324.2147351
0
ARC
8
DEFAULT_255_2_778
10
3.773517
20
9.1539273
40
1.8429263
50
324.2066652
51
324.2746763
0
ARC
8
DEFAULT_255_2_778
10
3.8011363
20
9.1343601
40
1.8090788
50
324.2670186
51
324.3356905
0
ARC
8
DEFAULT_255_2_778
10
3.5128695
20
9.3415339
40
2.16407
50
324.3291251
51
324.386025
0
ARC
8
DEFAULT_255_2_778
10
3.5459513
20
9.3179786
40
2.123459
50
324.3829289
51
324.4404044
0
ARC
8
DEFAULT_255_2_778
10
2.8364334
20
9.8246709
40
2.9953262
50
324.4484386
51
324.488824
0
ARC
8
DEFAULT_255_2_778
10
2.8819798
20
9.7913545
40
2.9388992
50
324.5017579
51
324.5425546
0
ARC
8
DEFAULT_255_2_778
10
2.9269247
20
9.7585133
40
2.8832384
50
324.5560331
51
324.5972492
0
ARC
8
DEFAULT_255_2_778
10
2.9707742
20
9.7270476
40
2.829268
50
324.6022057
51
324.6438361
0
ARC
8
DEFAULT_255_2_778
10
3.0140456
20
9.6960268
40
2.7760268
50
324.6492103
51
324.6912632
0
ARC
8
DEFAULT_255_2_778
10
3.7316914
20
9.1878029
40
1.8966479
50
324.6897324
51
324.7507375
0
ARC
8
DEFAULT_255_2_778
10
3.0980098
20
9.6356935
40
2.6726366
50
324.7496724
51
324.7925809
0
ARC
8
DEFAULT_255_2_778
10
2.1872807
20
10.2784918
40
3.7873642
50
324.790442
51
324.8204527
0
ARC
8
DEFAULT_255_2_778
10
3.1788147
20
9.5787861
40
2.5738044
50
324.834743
51
324.878512
0
ARC
8
DEFAULT_255_2_778
10
3.2181832
20
9.5513586
40
2.5258244
50
324.8736284
51
324.9178328
0
ARC
8
DEFAULT_255_2_778
10
2.3638031
20
10.1517412
40
3.5700584
50
324.9137436
51
324.9447405
0
ARC
8
DEFAULT_255_2_778
10
3.2947189
20
9.4982633
40
2.4326764
50
324.9506147
51
324.9956998
0
ARC
8
DEFAULT_255_2_778
10
1.826861
20
10.526419
40
4.2248012
50
324.9936301
51
325.0193597
0
ARC
8
DEFAULT_255_2_778
10
2.7431245
20
9.8847174
40
3.1061772
50
325.0282492
51
325.0802617
0
ARC
8
DEFAULT_255_2_778
10
2.8147803
20
9.8348978
40
3.0189045
50
325.0770739
51
325.1298763
0
ARC
8
DEFAULT_255_2_778
10
2.8843534
20
9.7864131
40
2.9341036
50
325.1299369
51
325.1835403
0
ARC
8
DEFAULT_255_2_778
10
24.3838432
20
-4.9579328
40
23.1355621
50
145.2983564
51
145.6051269
0
ARC
8
DEFAULT_255_2_778
10
6.2032606
20
7.6308329
40
1.0219782
50
140.4898663
51
145.2597214
0
ARC
8
DEFAULT_255_2_778
10
5.7196855
20
8.030063
40
0.3948982
50
131.487249
51
140.5411297
0
ARC
8
DEFAULT_255_2_778
10
5.5826055
20
8.1867123
40
0.1867456
50
114.2325734
51
131.8203722
0
ARC
8
DEFAULT_255_2_778
10
6.5376056
20
5.3625397
40
3.1671926
50
107.0266592
51
109.0097807
0
ARC
8
DEFAULT_255_2_778
10
5.7722804
20
7.8668813
40
0.5485219
50
97.0047746
51
107.1867755
0
ARC
8
DEFAULT_255_2_778
10
5.7430451
20
8.0705095
40
0.3428739
50
90.0732669
51
96.3055592
0
ARC
8
DEFAULT_255_2_778
10
5.7401427
20
8.0757154
40
0.3376768
50
65.6783481
51
89.5819197
0
ARC
8
DEFAULT_255_2_778
10
5.6213288
20
7.8036242
40
0.634565
50
55.0486135
51
66.0209427
0
ARC
8
DEFAULT_255_2_778
10
5.2572978
20
7.2719856
40
1.2788779
50
49.3762596
51
55.3260232
0
ARC
8
DEFAULT_255_2_778
10
4.4968484
20
6.3776612
40
2.452797
50
45.889777
51
49.4954459
0
ARC
8
DEFAULT_255_2_778
10
3.5825698
20
5.4197035
40
3.7770019
50
44.9861845
51
46.0463855
0
ARC
8
DEFAULT_255_2_778
10
4.746622
20
6.6208417
40
2.1047345
50
29.595205
51
44.2613154
0
ARC
8
DEFAULT_255_2_778
10
4.7909133
20
6.6281509
40
2.0626703
50
23.5536923
51
30.0262728
0
ARC
8
DEFAULT_255_2_778
10
5.3926807
20
6.8885207
40
1.4069939
50
16.8883415
51
23.6267444
0
ARC
8
DEFAULT_255_2_778
10
5.988094
20
7.0670684
40
0.7853926
50
8.0363116
51
17.0433329
0
ARC
8
DEFAULT_255_2_778
10
6.3369578
20
7.1185447
40
0.4327641
50
0.3154037
51
7.7451288
0
ARC
8
DEFAULT_255_2_778
10
6.5185783
20
7.1183884
40
0.2511498
50
348.3914158
51
0.5791317
0
ARC
8
DEFAULT_255_2_778
10
6.6355404
20
7.0931575
40
0.1315083
50
326.6003152
51
348.9051725
0
ARC
8
DEFAULT_255_2_778
10
6.6695427
20
7.0727943
40
0.0919282
50
315.0985096
51
325.5299974
0
ARC
8
DEFAULT_255_2_778
10
6.6510454
20
7.0911484
40
0.1179862
50
268.4726792
51
315.1259162
0
ARC
8
DEFAULT_255_2_778
10
6.6597237
20
7.2347038
40
0.2617669
50
241.3228706
51
267.4112773
0
ARC
8
DEFAULT_255_2_778
10
6.8582784
20
7.6302764
40
0.7042722
50
230.7908791
51
242.5941589
0
ARC
8
DEFAULT_255_2_778
10
7.343007
20
8.2363728
40
1.480344
50
223.540196
51
231.0833476
0
ARC
8
DEFAULT_255_2_778
10
8.0376779
20
8.909805
40
2.4478266
50
219.433077
51
223.7656485
0
ARC
8
DEFAULT_255_2_778
10
7.1576309
20
8.1818228
40
1.3057143
50
197.8872354
51
219.2889591
0
ARC
8
DEFAULT_255_2_778
10
7.5671094
20
8.3316985
40
1.7415149
50
192.4515665
51
198.4420039
0
ARC
8
DEFAULT_255_2_778
10
5.3791577
20
7.8900158
40
0.4918732
50
7.7332781
51
24.6981834
0
ARC
8
DEFAULT_255_2_778
10
5.3244262
20
7.8658484
40
0.5516968
50
24.6034365
51
33.986297
0
ARC
8
DEFAULT_255_2_778
10
5.3056428
20
7.8540465
40
0.5738692
50
33.9150065
51
42.1408269
0
ARC
8
DEFAULT_255_2_778
10
5.382178
20
7.9243955
40
0.4699181
50
42.0418298
51
47.2145598
0
ARC
8
DEFAULT_255_2_778
10
5.5546149
20
8.111249
40
0.2156578
50
47.1164473
51
50.0622934
0
ARC
8
DEFAULT_255_2_778
10
5.253639
20
8.0740871
40
0.4838401
50
23.5826172
51
24.7436976
0
ARC
8
DEFAULT_255_2_778
10
4.707456
20
7.8349129
40
1.0800949
50
21.5631527
51
23.6190785
0
ARC
8
DEFAULT_255_2_778
10
4.4903702
20
7.7479639
40
1.313944
50
18.2932241
51
21.6101998
0
ARC
8
DEFAULT_255_2_778
10
4.54267
20
7.7653611
40
1.2588265
50
18.0188204
51
18.2885779
0
ARC
8
DEFAULT_255_2_778
10
4.7058139
20
7.8147743
40
1.0884046
50
11.279956
51
18.2017738
0
ARC
8
DEFAULT_255_2_778
10
5.0185117
20
7.8792975
40
0.7691291
50
6.3750738
51
11.1226158
0
ARC
8
DEFAULT_255_2_778
10
5.2160903
20
7.9009357
40
0.5703699
50
0.1775424
51
6.418673
0
ARC
8
DEFAULT_255_2_778
10
7.2182931
20
7.9058063
40
1.4318391
50
180.1241759
51
182.6006938
0
ARC
8
DEFAULT_255_2_778
10
7.5642993
20
7.9195825
40
1.7781151
50
182.538245
51
185.8784998
0
ARC
8
DEFAULT_255_2_778
10
7.3157896
20
7.8891763
40
1.5278054
50
185.6987114
51
193.2411952
0
ARC
8
DEFAULT_255_2_778
10
7.0119896
20
7.8234671
40
1.2170445
50
193.5059281
51
194.3636766
0
ARC
8
DEFAULT_255_2_778
10
6.5766608
20
7.6921577
40
0.7629911
50
192.920958
51
214.3535724
0
ARC
8
DEFAULT_255_2_778
10
6.0977374
20
7.1998959
40
0.1631035
50
157.7696219
51
169.3035537
0
ARC
8
DEFAULT_255_2_778
10
7.4552447
20
6.9020907
40
1.5528301
50
167.8027718
51
169.5605661
0
ARC
8
DEFAULT_255_2_778
10
3.0777642
20
7.7206368
40
2.9005315
50
348.7721523
51
349.3271872
0
ARC
8
DEFAULT_255_2_778
10
5.5431211
20
7.2248
40
0.3858667
50
343.064366
51
349.7097962
0
ARC
8
DEFAULT_255_2_778
10
5.8813518
20
7.120797
40
0.0320229
50
322.5006194
51
344.7947419
0
ARC
8
DEFAULT_255_2_778
10
5.2733146
20
6.5670434
40
0.8286635
50
40.1450268
51
54.1656744
0
ARC
8
DEFAULT_255_2_778
10
4.8064989
20
5.9510886
40
1.60142
50
53.5271311
51
58.7048016
0
ARC
8
DEFAULT_255_2_778
10
4.5478739
20
5.5396892
40
2.0873166
50
58.5045511
51
58.6226851
0
ARC
8
DEFAULT_255_2_778
10
4.5167187
20
5.488473
40
2.1472646
50
58.6244942
51
58.7382804
0
ARC
8
DEFAULT_255_2_778
10
4.4428314
20
5.366625
40
2.2897648
50
58.7401211
51
58.8458444
0
ARC
8
DEFAULT_255_2_778
10
4.4664509
20
5.4053135
40
2.2444366
50
58.8508933
51
58.9577533
0
ARC
8
DEFAULT_255_2_778
10
4.4264505
20
5.3386415
40
2.3221874
50
58.9604414
51
59.0627618
0
ARC
8
DEFAULT_255_2_778
10
4.4926099
20
5.4488657
40
2.1936321
50
59.0648726
51
59.1721747
0
ARC
8
DEFAULT_255_2_778
10
4.4743448
20
5.4183982
40
2.2291551
50
59.1703481
51
59.2749455
0
ARC
8
DEFAULT_255_2_778
10
4.4264884
20
5.3380688
40
2.3226593
50
59.2725528
51
59.4216416
0
ARC
8
DEFAULT_255_2_778
10
4.4107517
20
5.3114112
40
2.3536152
50
59.4219566
51
59.5669773
0
ARC
8
DEFAULT_255_2_778
10
4.3824005
20
5.2633494
40
2.4094159
50
59.564594
51
59.7042111
0
ARC
8
DEFAULT_255_2_778
10
4.3611069
20
5.2270637
40
2.451488
50
59.7023238
51
59.8375488
0
ARC
8
DEFAULT_255_2_778
10
4.3259129
20
5.1666331
40
2.5214199
50
59.8360642
51
59.9656122
0
ARC
8
DEFAULT_255_2_778
10
4.2974566
20
5.1173351
40
2.5783412
50
59.9664857
51
60.091304
0
ARC
8
DEFAULT_255_2_778
10
4.2970519
20
5.1171315
40
2.5787198
50
60.0857638
51
60.2087092
0
ARC
8
DEFAULT_255_2_778
10
4.2139478
20
4.9719496
40
2.746004
50
60.2089457
51
60.3226743
0
ARC
8
DEFAULT_255_2_778
10
4.1120905
20
4.7929888
40
2.9519212
50
60.3248049
51
60.4290074
0
ARC
8
DEFAULT_255_2_778
10
4.1610019
20
4.8788742
40
2.853085
50
60.4321377
51
60.5383168
0
ARC
8
DEFAULT_255_2_778
10
4.1747794
20
4.9034291
40
2.824929
50
60.5366677
51
60.6598339
0
ARC
8
DEFAULT_255_2_778
10
4.1084791
20
4.7858143
40
2.9599436
50
60.6566375
51
60.7720822
0
ARC
8
DEFAULT_255_2_778
10
4.0284152
20
4.6426493
40
3.1239755
50
60.7727203
51
60.8801332
0
ARC
8
DEFAULT_255_2_778
10
4.0890862
20
4.7521191
40
2.9988176
50
60.8749776
51
60.9848455
0
ARC
8
DEFAULT_255_2_778
10
3.8601183
20
4.3392295
40
3.4709447
50
60.9854722
51
61.0853047
0
ARC
8
DEFAULT_255_2_778
10
3.9337845
20
4.4724359
40
3.3187258
50
61.0866298
51
61.1889894
0
ARC
8
DEFAULT_255_2_778
10
3.8281464
20
4.2803577
40
3.5379367
50
61.1890733
51
61.2863213
0
ARC
8
DEFAULT_255_2_778
10
3.7204884
20
4.0839449
40
3.7619196
50
61.2854629
51
61.377923
0
ARC
8
DEFAULT_255_2_778
10
3.7491089
20
4.13627
40
3.7022784
50
61.3788167
51
61.4707624
0
ARC
8
DEFAULT_255_2_778
10
3.6189202
20
3.8966164
40
3.9750106
50
61.4719144
51
61.5557147
0
ARC
8
DEFAULT_255_2_778
10
3.6259986
20
3.9099535
40
3.9599122
50
61.5538542
51
61.6361603
0
ARC
8
DEFAULT_255_2_778
10
3.3469296
20
3.3928846
40
4.5474832
50
61.6371305
51
61.7072488
0
ARC
8
DEFAULT_255_2_778
10
3.4529336
20
3.5897049
40
4.3239322
50
61.7079412
51
61.7800788
0
ARC
8
DEFAULT_255_2_778
10
3.330937
20
3.3629151
40
4.5814525
50
61.7768668
51
61.8434601
0
ARC
8
DEFAULT_255_2_778
10
3.1756275
20
3.0723441
40
4.9109254
50
61.8456166
51
61.906377
0
ARC
8
DEFAULT_255_2_778
10
2.9700498
20
2.6872664
40
5.3474423
50
61.9061843
51
61.9607533
0
ARC
8
DEFAULT_255_2_778
10
3.0957224
20
2.9233875
40
5.0799601
50
61.9599291
51
62.0160987
0
ARC
8
DEFAULT_255_2_778
10
2.8329092
20
2.429545
40
5.6393804
50
62.0124158
51
62.061888
0
ARC
8
DEFAULT_255_2_778
10
2.9657189
20
2.6804535
40
5.3554905
50
62.0594942
51
62.110426
0
ARC
8
DEFAULT_255_2_778
10
2.6153991
20
2.0197997
40
6.1032788
50
62.1048212
51
62.1485114
0
ARC
8
DEFAULT_255_2_778
10
2.4778341
20
1.7608359
40
6.3965124
50
62.1427197
51
62.1834699
0
ARC
8
DEFAULT_255_2_778
10
2.6274336
20
2.0457845
40
6.0746812
50
62.1772803
51
62.2192219
0
ARC
8
DEFAULT_255_2_778
10
2.0259799
20
0.9055064
40
7.3638593
50
62.2141138
51
62.2479301
0
ARC
8
DEFAULT_255_2_778
10
0.9671836
20
-1.1060321
40
9.6370371
50
62.2459207
51
62.2711743
0
ARC
8
DEFAULT_255_2_778
10
9.2234954
20
14.6796365
40
8.1774403
50
241.8066338
51
242.52845
0
ARC
8
DEFAULT_255_2_778
10
5.6336356
20
7.9948107
40
0.5897176
50
236.1753212
51
242.3618855
0
ARC
8
DEFAULT_255_2_778
10
5.3625305
20
7.588397
40
0.1011848
50
226.1695153
51
235.6019516
0
ARC
8
DEFAULT_255_2_778
10
-6.9799648
20
-7.6331647
40
19.4959343
50
50.6645707
51
50.9877722
0
ARC
8
DEFAULT_255_2_778
10
-0.1428903
20
0.7171313
40
8.7036694
50
49.9760603
51
50.6330507
0
ARC
8
DEFAULT_255_2_778
10
1.3135974
20
2.448317
40
6.4412914
50
48.4895011
51
49.993889
0
ARC
8
DEFAULT_255_2_778
10
2.293947
20
3.5549966
40
4.9628378
50
46.3600934
51
48.4971148
0
ARC
8
DEFAULT_255_2_778
10
3.8351427
20
5.1201967
40
2.7667237
50
35.7478065
51
47.088408
0
ARC
8
DEFAULT_255_2_778
10
4.8963054
20
5.9156551
40
1.4409945
50
30.4938645
51
34.7282678
0
ARC
8
DEFAULT_255_2_778
10
5.1593654
20
6.0713355
40
1.1353207
50
26.6517908
51
30.4606338
0
ARC
8
DEFAULT_255_2_778
10
5.2366021
20
6.1307026
40
1.0398234
50
13.5781028
51
25.6371276
0
ARC
8
DEFAULT_255_2_778
10
4.9788705
20
6.0722955
40
1.3040691
50
4.6739653
51
13.414085
0
ARC
8
DEFAULT_255_2_778
10
3.1815258
20
5.9296674
40
3.1070619
50
1.8589137
51
4.5945974
0
ARC
8
DEFAULT_255_2_778
10
7.9411075
20
6.0820845
40
1.6549603
50
181.7877104
51
185.0965102
0
ARC
8
DEFAULT_255_2_778
10
6.605803
20
5.9589071
40
0.314019
50
184.3537947
51
197.9923035
0
ARC
8
DEFAULT_255_2_778
10
6.4004409
20
5.8916836
40
0.0979362
50
197.698631
51
227.5644178
0
ARC
8
DEFAULT_255_2_778
10
6.0424686
20
5.5464425
40
0.3996331
50
39.3753896
51
43.0807337
0
ARC
8
DEFAULT_255_2_778
10
4.4770173
20
4.2309042
40
2.4444279
50
38.6009229
51
39.9332355
0
ARC
8
DEFAULT_255_2_778
10
3.0522515
20
3.088511
40
4.2706293
50
37.4187216
51
38.6531375
0
ARC
8
DEFAULT_255_2_778
10
2.7726481
20
2.8715822
40
4.6245088
50
35.6719298
51
37.4483503
0
ARC
8
DEFAULT_255_2_778
10
3.1994038
20
3.1792644
40
4.0984029
50
34.9297336
51
35.6566662
0
ARC
8
DEFAULT_255_2_778
10
3.8608401
20
3.6368646
40
3.2941145
50
32.5644329
51
34.9915454
0
ARC
8
DEFAULT_255_2_778
10
5.0210422
20
4.3706122
40
1.9213832
50
27.8059327
51
32.745842
0
ARC
8
DEFAULT_255_2_778
10
5.9193355
20
4.844181
40
0.9059039
50
21.4674934
51
27.8152384
0
ARC
8
DEFAULT_255_2_778
10
6.3021483
20
4.9974339
40
0.4935686
50
16.5954429
51
21.1747524
0
ARC
8
DEFAULT_255_2_778
10
5.6986003
20
4.8047928
40
1.127063
50
12.5517138
51
17.2174947
0
ARC
8
DEFAULT_255_2_778
10
5.64371
20
4.7942118
40
1.1829421
50
0.0043584
51
12.4741833
0
ARC
8
DEFAULT_255_2_778
10
5.5994895
20
4.7923201
40
1.227164
50
0.0000091
51
0.0925241
0
ARC
8
DEFAULT_255_2_778
10
5.5276693
20
4.7952604
40
1.2989875
50
342.4521247
51
359.8703155
0
ARC
8
DEFAULT_255_2_778
10
5.6147281
20
4.7626722
40
1.2061642
50
329.8995407
51
342.6812461
0
ARC
8
DEFAULT_255_2_778
10
5.8006637
20
4.6599497
40
0.9937949
50
326.3938404
51
329.6470205
0
ARC
8
DEFAULT_255_2_778
10
6.3108084
20
4.6475419
40
0.6142237
50
249.063037
51
259.7069718
0
ARC
8
DEFAULT_255_2_778
10
6.3242063
20
4.6583193
40
0.6291365
50
243.2116919
51
248.2741497
0
ARC
8
DEFAULT_255_2_778
10
-0.7283658
20
7.4859557
40
7.5701194
50
333.402854
51
333.7177934
0
ARC
8
DEFAULT_255_2_778
10
2.3338643
20
5.9738576
40
4.1549044
50
333.7157261
51
334.4330889
0
ARC
8
DEFAULT_255_2_778
10
3.4209448
20
5.4522061
40
2.9491427
50
334.4608049
51
334.7652411
0
ARC
8
DEFAULT_255_2_778
10
4.9942947
20
4.7227554
40
1.2150035
50
334.2500408
51
338.6301366
0
ARC
8
DEFAULT_255_2_778
10
6.0233101
20
4.3242695
40
0.1115995
50
336.6424433
51
352.9142258
0
ARC
8
DEFAULT_255_2_778
10
4.8538099
20
5.2748477
40
1.5575555
50
311.0546232
51
323.5926064
0
ARC
8
DEFAULT_255_2_778
10
4.4947538
20
5.6570753
40
2.0817006
50
306.562387
51
311.5973866
0
ARC
8
DEFAULT_255_2_778
10
4.6178239
20
5.4869989
40
1.8717829
50
301.7317318
51
306.6377814
0
ARC
8
DEFAULT_255_2_778
10
4.8082537
20
5.1836003
40
1.5135829
50
299.7647745
51
301.6411082
0
ARC
8
DEFAULT_255_2_778
10
5.1707193
20
4.5743251
40
0.8048384
50
281.9096088
51
298.8978713
0
ARC
8
DEFAULT_255_2_778
10
5.1491657
20
4.6708484
40
0.9037327
50
269.9216408
51
281.9838062
0
ARC
8
DEFAULT_255_2_778
10
5.1472748
20
4.6954907
40
0.9283743
50
257.388694
51
270.0404171
0
ARC
8
DEFAULT_255_2_778
10
5.1200267
20
4.5724586
40
0.8023614
50
250.4821497
51
257.3693018
0
ARC
8
DEFAULT_255_2_778
10
5.7988031
20
6.807895
40
3.1379511
50
243.0052839
51
252.4378514
0
ARC
8
DEFAULT_255_2_778
10
6.2058182
20
7.656723
40
4.079108
50
241.0439966
51
243.3230093
0
ARC
8
DEFAULT_255_2_778
10
6.3192683
20
7.8628145
40
4.3143618
50
238.3610772
51
241.0507538
0
ARC
8
DEFAULT_255_2_778
10
6.1932962
20
7.661414
40
4.0768152
50
236.0785158
51
238.3835835
0
ARC
8
DEFAULT_255_2_778
10
5.7226651
20
6.9632565
40
3.2348434
50
234.1307214
51
236.0948106
0
ARC
8
DEFAULT_255_2_778
10
4.9634619
20
5.9176457
40
1.9426824
50
231.6939179
51
234.2062759
0
ARC
8
DEFAULT_255_2_778
10
4.2621753
20
5.029908
40
0.8113641
50
229.017293
51
231.6961668
0
ARC
8
DEFAULT_255_2_778
10
4.16821
20
4.4200923
40
0.4381609
50
180.3516586
51
182.4826205
0
ARC
8
DEFAULT_255_2_778
10
4.1815971
20
4.4185983
40
0.4514754
50
182.2195991
51
186.7830817
0
ARC
8
DEFAULT_255_2_778
10
3.8739311
20
4.3774287
40
0.1411735
50
184.9390737
51
202.2370666
0
ARC
8
DEFAULT_255_2_778
10
5.4612248
20
5.8976233
40
2.3297409
50
222.4889939
51
225.3479164
0
ARC
8
DEFAULT_255_2_778
10
6.5023153
20
6.9463771
40
3.8074911
50
225.2944282
51
227.9067512
0
ARC
8
DEFAULT_255_2_778
10
6.9766582
20
7.4659527
40
4.5110169
50
227.8597996
51
230.7481058
0
ARC
8
DEFAULT_255_2_778
10
6.4421028
20
6.7891015
40
3.6486809
50
230.5232344
51
237.1808477
0
ARC
8
DEFAULT_255_2_778
10
4.2874997
20
-0.0980589
40
1.4907694
50
95.5176998
51
98.2184965
0
ARC
8
DEFAULT_255_2_778
10
4.2192964
20
0.3925845
40
0.9954188
50
98.3701023
51
102.2314253
0
ARC
8
DEFAULT_255_2_778
10
4.3448771
20
-0.2062518
40
1.6072724
50
102.0838447
51
102.2218516
0
ARC
8
DEFAULT_255_2_778
10
4.3730588
20
-0.3361593
40
1.7402015
50
102.2232285
51
102.3469878
0
ARC
8
DEFAULT_255_2_778
10
2.4238355
20
8.3113299
40
7.1242941
50
282.1214212
51
282.7895807
0
ARC
8
DEFAULT_255_2_778
10
3.3880616
20
3.890227
40
2.5993281
50
280.2401918
51
281.8047329
0
ARC
8
DEFAULT_255_2_778
10
2.1597722
20
0.8792307
40
1.7500505
50
15.0042716
51
27.070831
0
ARC
8
DEFAULT_255_2_778
10
2.413057
20
1.0076322
40
1.4660803
50
27.1073079
51
42.5543528
0
ARC
8
DEFAULT_255_2_778
10
2.4518585
20
1.0383325
40
1.4167401
50
42.7010012
51
57.04402
0
ARC
8
DEFAULT_255_2_778
10
2.7121839
20
1.4116252
40
0.9620215
50
57.959277
51
81.7381496
0
ARC
8
DEFAULT_255_2_778
10
2.6581642
20
1.1386906
40
1.2399677
50
81.0801798
51
90.0803884
0
ARC
8
DEFAULT_255_2_778
10
2.6572212
20
1.0341532
40
1.3445042
50
90.0339536
51
97.4198543
0
ARC
8
DEFAULT_255_2_778
10
2.6609946
20
1.0009572
40
1.3779097
50
97.3971864
51
102.2872558
0
ARC
8
DEFAULT_255_2_778
10
2.4777692
20
1.3340264
40
0.9941539
50
89.9813247
51
97.1251436
0
ARC
8
DEFAULT_255_2_778
10
2.4758232
20
1.2761664
40
1.0520164
50
72.4043119
51
89.8763667
0
ARC
8
DEFAULT_255_2_778
10
2.4304035
20
1.1356946
40
1.1996465
50
57.812098
51
72.3646548
0
ARC
8
DEFAULT_255_2_778
10
2.3652614
20
1.0224192
40
1.3302233
50
57.8125426
51
58.0365676
0
ARC
8
DEFAULT_255_2_778
10
2.2809124
20
0.8887758
40
1.4882588
50
57.7186561
51
57.8050456
0
ARC
8
DEFAULT_255_2_778
10
2.630817
20
1.4728308
40
0.8077625
50
40.0642731
51
56.5759818
0
ARC
8
DEFAULT_255_2_778
10
1.9376423
20
0.8876522
40
1.714914
50
27.622435
51
40.1207701
0
ARC
8
DEFAULT_255_2_778
10
1.322814
20
0.5395798
40
2.4211593
50
23.2873599
51
28.1747529
0
ARC
8
DEFAULT_255_2_778
10
1.5114407
20
0.6181182
40
2.216851
50
19.8322529
51
23.3502163
0
ARC
8
DEFAULT_255_2_778
10
1.9244582
20
0.7691743
40
1.7770823
50
18.4745834
51
19.7686267
0
ARC
8
DEFAULT_255_2_778
10
1.9988925
20
0.8034464
40
1.6956472
50
1.8956218
51
18.1732129
0
ARC
8
DEFAULT_255_2_778
10
2.8005672
20
0.8547673
40
0.8930572
50
341.2528926
51
0.3059747
0
ARC
8
DEFAULT_255_2_778
10
2.7451984
20
0.8784124
40
0.9530989
50
328.5254369
51
340.9766233
0
ARC
8
DEFAULT_255_2_778
10
2.6001639
20
0.9629278
40
1.1209279
50
324.8384163
51
328.711729
0
ARC
8
DEFAULT_255_2_778
10
3.0673393
20
0.6601755
40
0.5650573
50
301.480676
51
322.6548368
0
ARC
8
DEFAULT_255_2_778
10
2.9294793
20
0.8757766
40
0.8209326
50
283.5679052
51
301.8282527
0
ARC
8
DEFAULT_255_2_778
10
2.9021841
20
0.9705248
40
0.9194502
50
269.9865469
51
283.8362202
0
ARC
8
DEFAULT_255_2_778
10
2.9016992
20
0.9650702
40
0.9139957
50
258.745739
51
270.0168599
0
ARC
8
DEFAULT_255_2_778
10
2.89998
20
0.955042
40
0.9038247
50
256.0212632
51
258.7285599
0
ARC
8
DEFAULT_255_2_778
10
2.9000112
20
0.9547477
40
0.9035467
50
243.3220269
51
256.0148353
0
ARC
8
DEFAULT_255_2_778
10
2.9143944
20
0.9828647
40
0.935128
50
234.2432933
51
243.3080468
0
ARC
8
DEFAULT_255_2_778
10
3.1213633
20
0.665677
40
0.8733248
50
210.3803807
51
237.2174889
0
ARC
8
DEFAULT_255_2_778
10
2.9125595
20
0.3798972
40
0.5204199
50
239.5094095
51
262.9579721
0
ARC
8
DEFAULT_255_2_778
10
3.0366727
20
1.2823196
40
1.4313057
50
262.455891
51
269.8666394
0
ARC
8
DEFAULT_255_2_778
10
3.0686497
20
0.7434789
40
0.8931594
50
267.7343856
51
311.7473479
0
ARC
8
DEFAULT_255_2_778
10
3.1926521
20
0.5274499
40
0.6514412
50
316.2662305
51
336.1340438
0
ARC
8
DEFAULT_255_2_778
10
2.6815532
20
0.7638947
40
1.2145401
50
335.6888158
51
348.8830396
0
ARC
8
DEFAULT_255_2_778
10
2.1057531
20
0.883685
40
1.8026446
50
348.6757691
51
0.2144523
0
ARC
8
DEFAULT_255_2_778
10
1.8849123
20
0.8901132
40
2.023473
50
0.0090311
51
3.8336702
0
ARC
8
DEFAULT_255_2_778
10
6.6947296
20
6.2023606
40
1.8233494
50
233.1080034
51
241.3527804
0
ARC
8
DEFAULT_255_2_778
10
6.1574812
20
5.1968022
40
0.6834003
50
240.4642795
51
263.3245466
0
ARC
8
DEFAULT_255_2_778
10
6.1194194
20
4.9819028
40
0.4657099
50
264.9023154
51
269.9773767
0
ARC
8
DEFAULT_255_2_778
10
6.1192779
20
4.965631
40
0.449438
50
269.9945958
51
273.1507976
0
ARC
8
DEFAULT_255_2_778
10
6.119841
20
4.955363
40
0.4391545
50
273.1510793
51
273.6577404
0
ARC
8
DEFAULT_255_2_778
10
6.106109
20
4.7145082
40
0.2017714
50
281.9413038
51
320.2702448
0
ARC
8
DEFAULT_255_2_778
10
5.6368257
20
5.1393545
40
0.8346599
50
318.4312478
51
335.4066374
0
ARC
8
DEFAULT_255_2_778
10
5.177428
20
5.3830295
40
1.3541354
50
334.1211073
51
335.701417
0
ARC
8
DEFAULT_255_2_778
10
5.1293683
20
5.40482
40
1.4069043
50
335.6979997
51
337.4021986
0
ARC
8
DEFAULT_255_2_778
10
6.0822215
20
5.0376763
40
0.3870837
50
333.3746799
51
340.6065779
0
ARC
8
DEFAULT_255_2_778
10
6.1630712
20
5.0126912
40
0.3025429
50
339.9856045
51
359.0848395
0
ARC
8
DEFAULT_255_2_778
10
6.3386084
20
5.0190451
40
0.1274589
50
354.9651048
51
55.3880359
0
ARC
8
DEFAULT_255_2_778
10
6.3575613
20
5.0343117
40
0.1043588
50
59.1939013
51
64.8835529
0
ARC
8
DEFAULT_255_2_778
10
6.3513044
20
4.9468112
40
0.1888826
50
74.4759749
51
86.1225071
0
ARC
8
DEFAULT_255_2_778
10
6.2833733
20
4.1968185
40
0.9419068
50
85.0847851
51
89.8823179
0
ARC
8
DEFAULT_255_2_778
10
6.272232
20
3.5844332
40
1.554345
50
89.5179944
51
90.0022893
0
ARC
8
DEFAULT_255_2_778
10
6.2738495
20
3.2906996
40
1.8480792
50
90.0520731
51
92.8087499
0
ARC
8
DEFAULT_255_2_778
10
6.2566598
20
3.5657542
40
1.5725171
50
92.6742761
51
96.2905929
0
ARC
8
DEFAULT_255_2_778
10
6.3010835
20
3.3430787
40
1.7988279
50
96.9199118
51
105.6197536
0
ARC
8
DEFAULT_255_2_778
10
6.280508
20
3.3989761
40
1.7394614
50
105.4627959
51
108.5314002
0
ARC
8
DEFAULT_255_2_778
10
6.1044277
20
3.9159079
40
1.1933733
50
108.4038345
51
112.6592165
0
ARC
8
DEFAULT_255_2_778
10
5.8382361
20
4.5476798
40
0.5078211
50
112.4047646
51
118.7575631
0
ARC
8
DEFAULT_255_2_778
10
5.6735013
20
4.849052
40
0.1643656
50
118.957844
51
126.0139081
0
ARC
8
DEFAULT_255_2_778
10
5.6357463
20
4.8969854
40
0.1034211
50
124.7090277
51
182.9382042
0
ARC
8
DEFAULT_255_2_778
10
5.6988775
20
4.8921661
40
0.166417
50
180.1659435
51
189.6891889
0
ARC
8
DEFAULT_255_2_778
10
5.7324631
20
4.8971198
40
0.2003588
50
189.4691236
51
229.881346
0
LINE
8
DEFAULT_255_2_778
10
5.6694574
20
6.2695031
11
5.6697568
21
6.2689048
0
ARC
8
DEFAULT_255_2_778
10
6.1549228
20
6.4429323
40
0.5154334
50
199.7327539
51
238.1928403
0
ARC
8
DEFAULT_255_2_778
10
5.8757813
20
6.1746378
40
0.1698993
50
272.5219848
51
286.2221861
0
ARC
8
DEFAULT_255_2_778
10
5.9967766
20
5.7304279
40
0.2905343
50
99.791102
51
104.6605188
0
ARC
8
DEFAULT_255_2_778
10
5.9641811
20
5.9146678
40
0.1034379
50
90.4008796
51
99.3537529
0
ARC
8
DEFAULT_255_2_778
10
5.9799158
20
5.4690016
40
0.5493482
50
89.9997178
51
91.7168309
0
ARC
8
DEFAULT_255_2_778
10
5.9797028
20
5.4638602
40
0.5544895
50
72.0643215
51
89.977714
0
ARC
8
DEFAULT_255_2_778
10
6.9594
20
6.1448696
40
0.8122628
50
181.7754376
51
185.1822228
0
ARC
8
DEFAULT_255_2_778
10
10.1288658
20
6.2680347
40
3.9841007
50
181.8816011
51
182.1336548
0
ARC
8
DEFAULT_255_2_778
10
4.9882507
20
6.1190092
40
1.1588056
50
0.9004368
51
7.1784974
0
ARC
8
DEFAULT_255_2_778
10
5.6112974
20
6.1904865
40
0.531756
50
7.9262312
51
14.6705057
0
ARC
8
DEFAULT_255_2_778
10
5.7636469
20
6.2340374
40
0.3733605
50
14.1261804
51
40.8415024
0
ARC
8
DEFAULT_255_2_778
10
5.7379203
20
6.2052286
40
0.4116933
50
41.5332014
51
59.2677393
0
ARC
8
DEFAULT_255_2_778
10
5.6742992
20
6.1064726
40
0.5291094
50
58.8108234
51
63.2612964
0
ARC
8
DEFAULT_255_2_778
10
5.7901971
20
6.332914
40
0.2747417
50
63.5998911
51
80.8944603
0
ARC
8
DEFAULT_255_2_778
10
5.7852288
20
6.3066089
40
0.3015025
50
80.7532992
51
90.0305945
0
ARC
8
DEFAULT_255_2_778
10
5.7814131
20
6.3346726
40
0.2734633
50
89.2342547
51
117.9335662
0
ARC
8
DEFAULT_255_2_778
10
5.7251871
20
6.4463028
40
0.1485231
50
118.9434564
51
134.3533494
0
ARC
8
DEFAULT_255_2_778
10
5.6195293
20
6.4698137
40
0.0873748
50
48.4486568
51
71.1513753
0
ARC
8
DEFAULT_255_2_778
10
5.6621194
20
6.5180444
40
0.0230315
50
1.3449355
51
48.1547787
0
ARC
8
DEFAULT_255_2_778
10
5.6466524
20
6.5212923
40
0.0385873
50
325.0185412
51
355.9767168
0
ARC
8
DEFAULT_255_2_778
10
5.4993809
20
6.6111617
40
0.2110521
50
324.4775936
51
327.9515218
0
ARC
8
DEFAULT_255_2_778
10
5.7786415
20
6.4093134
40
0.1335284
50
143.6083585
51
151.8045051
0
ARC
8
DEFAULT_255_2_778
10
8.0930833
20
5.8079555
40
2.5212551
50
164.7198761
51
165.767386
0
ARC
8
DEFAULT_255_2_778
10
5.7858049
20
6.3967042
40
0.1400896
50
167.1629231
51
179.9647303
0
ARC
8
DEFAULT_255_2_778
10
5.870008
20
6.4005494
40
0.2243242
50
180.9601446
51
192.7687304
0
ARC
8
DEFAULT_255_2_778
10
6.2233326
20
6.4730669
40
0.584985
50
192.0472217
51
195.9816658
0
LINE
8
DEFAULT_255_2_778
10
8.2039574
20
4.2165031
11
8.4309574
21
1.3183031
0
LINE
8
DEFAULT_255_2_778
10
8.4309574
20
1.3183031
11
4.4108574
21
0.5970031
0
LINE
8
DEFAULT_255_2_778
10
4.4108574
20
0.5970031
11
4.0637574
21
3.4953031
0
LINE
8
DEFAULT_255_2_778
10
4.0637574
20
3.4953031
11
4.6381574
21
3.5755031
0
LINE
8
DEFAULT_255_2_778
10
5.8403574
20
3.8025031
11
8.2039574
21
4.2165031
0
LINE
8
DEFAULT_255_2_778
10
2.4206574
20
7.8355031
11
2.4074574
21
7.8223031
0
LINE
8
DEFAULT_255_2_778
10
1.5393574
20
7.5688031
11
1.3657574
21
7.5688031
0
LINE
8
DEFAULT_255_2_778
10
1.6996574
20
7.7157031
11
1.4591574
21
7.7157031
0
LINE
8
DEFAULT_255_2_778
10
1.4591574
20
7.7157031
11
2.1002574
21
7.9961031
0
LINE
8
DEFAULT_255_2_778
10
4.1039574
20
7.7691031
11
4.1171574
21
7.7559031
0
LINE
8
DEFAULT_255_2_778
10
4.3174574
20
7.7691031
11
4.7180574
21
7.7559031
0
LINE
8
DEFAULT_255_2_778
10
6.6283574
20
4.1099031
11
6.2010574
21
4.0432031
0
LINE
8
DEFAULT_255_2_778
10
6.1340574
20
4.3105031
11
6.1073574
21
4.3504031
0
LINE
8
DEFAULT_255_2_778
10
4.4645574
20
3.7228031
11
3.8501574
21
3.6562031
0
LINE
8
DEFAULT_255_2_778
10
3.8501574
20
3.6562031
11
4.1441574
21
1.3858031
0
LINE
8
DEFAULT_255_2_778
10
2.3677574
20
2.3473031
11
2.3544574
21
2.3205031
0
LINE
8
DEFAULT_255_2_778
10
3.9038574
20
1.0254031
11
4.1843574
21
1.0654031
0
LINE
8
DEFAULT_255_2_778
10
4.1843574
20
1.0654031
11
4.2777574
21
0.3576031
0
LINE
8
DEFAULT_255_2_778
10
4.2777574
20
0.3576031
11
8.8320574
21
0.9053031
0
LINE
8
DEFAULT_255_2_778
10
8.8320574
20
0.9053031
11
8.4314574
21
4.5380031
0
LINE
8
DEFAULT_255_2_778
10
8.4314574
20
4.5380031
11
8.2044574
21
4.4981031
0
LINE
8
DEFAULT_255_2_778
10
8.2044574
20
4.4981031
11
7.7498574
21
9.0780031
0
LINE
8
DEFAULT_255_2_778
10
7.7498574
20
9.0780031
11
0.1637574
21
8.1964031
0
LINE
8
DEFAULT_255_2_778
10
0.1637574
20
8.1964031
11
1.0985574
21
0.6370031
0
LINE
8
DEFAULT_255_2_778
10
1.0985574
20
0.6370031
11
1.9933574
21
0.7709031
0
LINE
8
DEFAULT_255_2_778
10
5.6562574
20
6.3091031
11
5.6562574
21
6.2959031
0
LINE
8
DEFAULT_255_2_778
10
5.6562574
20
6.2959031
11
5.6694574
21
6.2695031
0
LINE
8
DEFAULT_255_2_778
10
6.1504574
20
5.9914031
11
6.1504574
21
6.0715031
0
LINE
8
DEFAULT_255_2_778
10
5.6213574
20
6.5525031
11
5.6477574
21
6.5525031
0
ARC
8
DEFAULT_255_2_778
10
4.4412714
20
6.2974355
40
0.0215243
50
306.2823518
51
336.078828
0
ARC
8
DEFAULT_255_2_778
10
4.4496582
20
6.2931998
40
0.0121494
50
338.3014047
51
359.8038833
0
ARC
8
DEFAULT_255_2_778
10
4.449859
20
6.2931515
40
0.0119483
50
0.0324305
51
9.52173
0
ARC
8
DEFAULT_255_2_778
10
4.4299018
20
6.2832724
40
0.0338827
50
20.4811786
51
70.0290613
0
ARC
8
DEFAULT_255_2_778
10
4.3526605
20
6.132515
40
0.2030556
50
64.0627746
51
78.1852506
0
ARC
8
DEFAULT_255_2_778
10
4.2854403
20
5.8398859
40
0.5032828
50
77.5157339
51
86.6057029
0
ARC
8
DEFAULT_255_2_778
10
4.2691967
20
5.6403664
40
0.7034279
50
86.2471372
51
90.0419211
0
ARC
8
DEFAULT_255_2_778
10
4.2699153
20
5.5351304
40
0.8086645
50
90.0873797
51
98.2461363
0
ARC
8
DEFAULT_255_2_778
10
4.2688192
20
5.5322396
40
0.8113696
50
98.1402499
51
109.2188227
0
ARC
8
DEFAULT_255_2_778
10
4.2556798
20
5.5735487
40
0.7680383
50
109.3076658
51
110.1277417
0
ARC
8
DEFAULT_255_2_778
10
4.2396515
20
5.6138897
40
0.7246463
50
110.03543
51
120.6942693
0
ARC
8
DEFAULT_255_2_778
10
4.2202516
20
5.648759
40
0.6847603
50
120.7877526
51
122.4525382
0
ARC
8
DEFAULT_255_2_778
10
4.0588096
20
5.9223128
40
0.3674476
50
124.0991489
51
163.0768787
0
ARC
8
DEFAULT_255_2_778
10
4.0753458
20
5.9178163
40
0.3845769
50
163.1531215
51
180.0847144
0
ARC
8
DEFAULT_255_2_778
10
4.0895097
20
5.9172735
40
0.3987405
50
180.0037023
51
183.8033638
0
ARC
8
DEFAULT_255_2_778
10
4.1107447
20
5.9206123
40
0.4201544
50
184.0655876
51
221.5443708
0
ARC
8
DEFAULT_255_2_778
10
4.1314299
20
5.9364681
40
0.4461556
50
221.306629
51
229.1501081
0
ARC
8
DEFAULT_255_2_778
10
3.7567524
20
5.4321976
40
0.1862339
50
43.6432145
51
63.582773
0
ARC
8
DEFAULT_255_2_778
10
6.6213935
20
8.3691934
40
3.9165893
50
225.8129922
51
225.843336
0
ARC
8
DEFAULT_255_2_778
10
4.4996524
20
4.2573303
40
1.43635
50
109.7294167
51
114.9830961
0
ARC
8
DEFAULT_255_2_778
10
15.4759096
20
-24.801307
40
32.4987157
50
110.6352682
51
110.6503651
0
ARC
8
DEFAULT_255_2_778
10
2.7469955
20
9.0373848
40
3.6548988
50
290.4300026
51
291.6144202
0
ARC
8
DEFAULT_255_2_778
10
5.1404035
20
2.1869372
40
3.6078375
50
103.5549134
51
106.8715961
0
ARC
8
DEFAULT_255_2_778
10
4.6423967
20
4.2404395
40
1.4948151
50
98.2768449
51
103.4460159
0
ARC
8
DEFAULT_255_2_778
10
3.9046154
20
6.1119254
40
0.6534192
50
323.1093464
51
326.367663
0
ARC
8
DEFAULT_255_2_778
10
4.155482
20
5.9478202
40
0.3536613
50
325.9934283
51
345.6563853
0
ARC
8
DEFAULT_255_2_778
10
4.1204911
20
5.9534267
40
0.3889639
50
346.1331894
51
0.3573188
0
ARC
8
DEFAULT_255_2_778
10
4.0156156
20
5.955251
40
0.4938324
50
0.069778
51
5.2088858
0
ARC
8
DEFAULT_255_2_778
10
4.2129719
20
5.9831444
40
0.2949237
50
3.2928301
51
16.1764418
0
ARC
8
DEFAULT_255_2_778
10
4.2891382
20
6.0045985
40
0.2157968
50
16.3397067
51
33.0960557
0
ARC
8
DEFAULT_255_2_778
10
4.2744125
20
5.9944628
40
0.2336683
50
33.2064903
51
37.8477534
0
ARC
8
DEFAULT_255_2_778
10
4.2511518
20
5.9767865
40
0.2628819
50
37.7793254
51
38.3213964
0
ARC
8
DEFAULT_255_2_778
10
4.2426301
20
5.9700844
40
0.2737234
50
38.3159595
51
38.8141503
0
ARC
8
DEFAULT_255_2_778
10
4.2347672
20
5.9637907
40
0.2837949
50
38.809207
51
39.2692023
0
ARC
8
DEFAULT_255_2_778
10
4.2123034
20
5.945422
40
0.3128128
50
39.2695375
51
39.669181
0
ARC
8
DEFAULT_255_2_778
10
4.2103787
20
5.9437616
40
0.3153541
50
39.6781681
51
40.0579186
0
ARC
8
DEFAULT_255_2_778
10
4.1922598
20
5.9285806
40
0.3389923
50
40.050971
51
40.3894869
0
ARC
8
DEFAULT_255_2_778
10
4.1635391
20
5.9041203
40
0.3767175
50
40.3925053
51
40.6844837
0
ARC
8
DEFAULT_255_2_778
10
4.1586379
20
5.8998231
40
0.3832354
50
40.6939856
51
40.9691661
0
ARC
8
DEFAULT_255_2_778
10
4.1242209
20
5.8699929
40
0.4287808
50
40.9635677
51
41.199441
0
ARC
8
DEFAULT_255_2_778
10
4.1043728
20
5.8526564
40
0.4551341
50
41.1957578
51
41.5147288
0
ARC
8
DEFAULT_255_2_778
10
4.6972707
20
6.3964606
40
0.3495485
50
216.9712418
51
223.8449887
0
ARC
8
DEFAULT_255_2_778
10
4.4806003
20
6.2282129
40
0.0753681
50
212.5290335
51
213.8446032
0
ARC
8
DEFAULT_255_2_778
10
4.4512714
20
6.2115052
40
0.0416902
50
181.38582
51
214.8444606
0
ARC
8
DEFAULT_255_2_778
10
4.4643397
20
6.2079087
40
0.0548074
50
145.8176394
51
177.2933423
0
ARC
8
DEFAULT_255_2_778
10
4.5737855
20
6.1409729
40
0.1830554
50
137.0042379
51
147.7325522
0
ARC
8
DEFAULT_255_2_778
10
4.7370464
20
5.9962034
40
0.4012268
50
134.8643421
51
137.7825071
0
LINE
8
DEFAULT_255_2_778
10
7.3924087
20
2.5268846
11
6.6312087
21
3.0343846
0
LINE
8
DEFAULT_255_2_778
10
6.6312087
20
3.0343846
11
5.9901087
21
1.9659846
0
LINE
8
DEFAULT_255_2_778
10
5.9901087
20
1.9659846
11
5.2421087
21
2.1929846
0
LINE
8
DEFAULT_255_2_778
10
5.2421087
20
2.1929846
11
4.5878087
21
1.1912846
0
LINE
8
DEFAULT_255_2_778
10
4.5878087
20
1.1912846
11
4.6143087
21
0.8737846
0
LINE
8
DEFAULT_255_2_778
10
4.6143087
20
0.8737846
11
8.1936087
21
1.5280846
0
LINE
8
DEFAULT_255_2_778
10
8.1936087
20
1.5280846
11
7.9798087
21
3.7585846
0
LINE
8
DEFAULT_255_2_778
10
7.9798087
20
3.7585846
11
7.3924087
21
2.5268846
0
ENDSEC
0
EOF