0
SECTION
2
HEADER
9
$MEASUREMENT
70
1
0
ENDSEC
0
SECTION
2
TABLES
0
TABLE
2
LTYPE
0
LTYPE
72
65
70
64
2
CONTINUOUS
3
______
73
0
40
0
0
ENDTAB
0
TABLE
2
LAYER
0
LAYER
2
DEFAULT_255_2_778
70
0
62
255
6
CONTINUOUS
0
ENDTAB
0
ENDSEC
0
SECTION
2
ENTITIES
0
LINE
8
DEFAULT_255_2_778
10
8.1542765
20
2.0602894
11
4.2061765
21
-0.2019106
0
LINE
8
DEFAULT_255_2_778
10
4.2061765
20
-0.2019106
11
0.2580765
21
2.0602894
0
LINE
8
DEFAULT_255_2_778
10
0.2580765
20
2.0602894
11
0.2580765
21
6.6515894
0
LINE
8
DEFAULT_255_2_778
10
0.2580765
20
6.6515894
11
4.2061765
21
8.9190894
0
LINE
8
DEFAULT_255_2_778
10
4.2061765
20
8.9190894
11
8.1854765
21
6.6515894
0
LINE
8
DEFAULT_255_2_778
10
8.1854765
20
6.6515894
11
8.1542765
21
2.0602894
0
LINE
8
DEFAULT_255_2_778
10
0.2578323
20
6.6515489
11
4.2345323
21
4.3584489
0
LINE
8
DEFAULT_255_2_778
10
4.2345323
20
4.3584489
11
4.2033323
21
-0.2019511
0
LINE
8
DEFAULT_255_2_778
10
4.2033323
20
-0.2019511
11
0.2552323
21
2.0602489
0
LINE
8
DEFAULT_255_2_778
10
0.2552323
20
2.0602489
11
0.2578323
21
6.6515489
0
LINE
8
DEFAULT_255_2_778
10
8.1855319
20
6.6515533
11
7.4384319
21
6.2313533
0
LINE
8
DEFAULT_255_2_778
10
7.4384319
20
6.2313533
11
6.7954319
21
5.8477533
0
LINE
8
DEFAULT_255_2_778
10
6.7954319
20
5.8477533
11
4.5597319
21
4.5195533
0
LINE
8
DEFAULT_255_2_778
10
4.5597319
20
4.5195533
11
4.5597319
21
1.6403533
0
LINE
8
DEFAULT_255_2_778
10
4.5597319
20
1.6403533
11
7.4079319
21
3.2590533
0
LINE
8
DEFAULT_255_2_778
10
7.4079319
20
3.2590533
11
7.4079319
21
2.5118533
0
LINE
8
DEFAULT_255_2_778
10
7.4079319
20
2.5118533
11
4.2070319
21
0.6703533
0
LINE
8
DEFAULT_255_2_778
10
4.2070319
20
0.6703533
11
4.2070319
21
-0.2011467
0
LINE
8
DEFAULT_255_2_778
10
4.2070319
20
-0.2011467
11
8.1551319
21
2.0610533
0
LINE
8
DEFAULT_255_2_778
10
8.1551319
20
2.0610533
11
8.1855319
21
6.6515533
0
LINE
8
DEFAULT_255_2_778
10
1.6796805
20
5.847211
11
1.6484805
21
5.847211
0
LINE
8
DEFAULT_255_2_778
10
1.6484805
20
5.847211
11
3.8788805
21
4.550211
0
LINE
8
DEFAULT_255_2_778
10
3.8788805
20
4.550211
11
3.8788805
21
7.108011
0
LINE
8
DEFAULT_255_2_778
10
3.8788805
20
7.108011
11
1.6796805
21
5.847211
0
LINE
8
DEFAULT_255_2_778
10
4.2064805
20
8.078511
11
7.4359805
21
6.231711
0
LINE
8
DEFAULT_255_2_778
10
7.4359805
20
6.231711
11
8.1830805
21
6.651811
0
LINE
8
DEFAULT_255_2_778
10
8.1830805
20
6.651811
11
4.2037805
21
8.919311
0
LINE
8
DEFAULT_255_2_778
10
4.2037805
20
8.919311
11
0.2556805
21
6.651811
0
LINE
8
DEFAULT_255_2_778
10
0.2556805
20
6.651811
11
0.9975805
21
6.200411
0
LINE
8
DEFAULT_255_2_778
10
0.9975805
20
6.200411
11
0.9975805
21
6.231711
0
LINE
8
DEFAULT_255_2_778
10
0.9975805
20
6.231711
11
4.2064805
21
8.078511
0
LINE
8
DEFAULT_255_2_778
10
4.5588805
20
4.519311
11
6.7945805
21
5.847511
0
LINE
8
DEFAULT_255_2_778
10
6.7945805
20
5.847511
11
4.5588805
21
7.108211
0
LINE
8
DEFAULT_255_2_778
10
4.5588805
20
7.108211
11
4.5588805
21
4.519311
0
LINE
8
DEFAULT_255_2_778
10
4.5589127
20
4.5193336
11
4.2345127
21
4.3584336
0
LINE
8
DEFAULT_255_2_778
10
4.2345127
20
4.3584336
11
4.5589127
21
4.5193336
0
LINE
8
DEFAULT_255_2_778
10
0.9999759
20
2.5115949
11
4.2061759
21
0.6700949
0
LINE
8
DEFAULT_255_2_778
10
4.2061759
20
0.6700949
11
4.2344759
21
4.3583949
0
LINE
8
DEFAULT_255_2_778
10
4.2344759
20
4.3583949
11
3.8765759
21
4.5501949
0
LINE
8
DEFAULT_255_2_778
10
3.8765759
20
4.5501949
11
3.8765759
21
1.6397949
0
LINE
8
DEFAULT_255_2_778
10
3.8765759
20
1.6397949
11
1.6460759
21
2.9005949
0
LINE
8
DEFAULT_255_2_778
10
1.6460759
20
2.9005949
11
1.6460759
21
5.8471949
0
LINE
8
DEFAULT_255_2_778
10
1.6460759
20
5.8471949
11
0.9978759
21
6.1998949
0
LINE
8
DEFAULT_255_2_778
10
0.9978759
20
6.1998949
11
0.9999759
21
2.5115949
0
LINE
8
DEFAULT_255_2_778
10
4.2062366
20
8.0785205
11
1.0000366
21
6.2000205
0
LINE
8
DEFAULT_255_2_778
10
1.0000366
20
6.2000205
11
1.6482366
21
5.8473205
0
LINE
8
DEFAULT_255_2_778
10
1.6482366
20
5.8473205
11
3.8787366
21
7.1080205
0
LINE
8
DEFAULT_255_2_778
10
3.8787366
20
7.1080205
11
3.8787366
21
4.5503205
0
LINE
8
DEFAULT_255_2_778
10
3.8787366
20
4.5503205
11
4.2345366
21
4.3585205
0
LINE
8
DEFAULT_255_2_778
10
4.2345366
20
4.3585205
11
4.5563366
21
4.5193205
0
LINE
8
DEFAULT_255_2_778
10
4.5563366
20
4.5193205
11
4.5563366
21
7.1080205
0
LINE
8
DEFAULT_255_2_778
10
4.5563366
20
7.1080205
11
6.7920366
21
5.8473205
0
LINE
8
DEFAULT_255_2_778
10
6.7920366
20
5.8473205
11
7.4349366
21
6.2309205
0
LINE
8
DEFAULT_255_2_778
10
7.4349366
20
6.2309205
11
4.2062366
21
8.0785205
0
LINE
8
DEFAULT_255_2_778
10
4.5588881
20
1.6397797
11
4.5588881
21
4.5192797
0
LINE
8
DEFAULT_255_2_778
10
4.5588881
20
4.5192797
11
4.2344881
21
4.3583797
0
LINE
8
DEFAULT_255_2_778
10
4.2344881
20
4.3583797
11
4.2032881
21
0.6700797
0
LINE
8
DEFAULT_255_2_778
10
4.2032881
20
0.6700797
11
7.4094881
21
2.5115797
0
LINE
8
DEFAULT_255_2_778
10
7.4094881
20
2.5115797
11
7.4094881
21
3.2587797
0
LINE
8
DEFAULT_255_2_778
10
7.4094881
20
3.2587797
11
4.5588881
21
1.6397797
0
ARC
8
DEFAULT_255_2_778
10
10.6817907
20
4.2457132
40
1.0317109
50
284.2529943
51
317.3105254
0
ARC
8
DEFAULT_255_2_778
10
10.5283709
20
4.798468
40
1.6052728
50
272.7660247
51
284.7029626
0
ARC
8
DEFAULT_255_2_778
10
10.4805812
20
5.4485218
40
2.2569348
50
269.9506827
51
273.1814555
0
ARC
8
DEFAULT_255_2_778
10
10.4939914
20
3.4648203
40
2.0917238
50
81.8734901
51
90.4205423
0
ARC
8
DEFAULT_255_2_778
10
10.6311574
20
4.3763284
40
1.1699996
50
64.135524
51
82.2132758
0
ARC
8
DEFAULT_255_2_778
10
10.6780777
20
4.5100642
40
1.0293178
50
42.2383082
51
63.2381195
0
ARC
8
DEFAULT_255_2_778
10
10.5262293
20
4.3735464
40
1.2335094
50
359.9740547
51
42.1917105
0
ARC
8
DEFAULT_255_2_778
10
9.9500594
20
4.3714837
40
1.8096798
50
0.0095241
51
0.0476197
0
ARC
8
DEFAULT_255_2_778
10
10.5347605
20
4.3718322
40
1.2249787
50
317.6545518
51
359.9977723
0
ARC
8
DEFAULT_255_2_778
10
10.6708621
20
4.6184845
40
0.5300276
50
51.4825284
51
78.8879417
0
ARC
8
DEFAULT_255_2_778
10
10.5024588
20
3.8809191
40
1.2864288
50
77.8592091
51
88.4744365
0
ARC
8
DEFAULT_255_2_778
10
10.4476178
20
2.8290951
40
2.3394937
50
87.8176105
51
90.0558205
0
ARC
8
DEFAULT_255_2_778
10
10.4570595
20
4.802294
40
1.2048632
50
269.4426179
51
283.8495857
0
ARC
8
DEFAULT_255_2_778
10
10.573749
20
4.3535107
40
0.7412181
50
283.3958281
51
310.6363067
0
ARC
8
DEFAULT_255_2_778
10
10.6014597
20
4.293776
40
0.6780769
50
312.1467919
51
348.4530698
0
ARC
8
DEFAULT_255_2_778
10
10.2420535
20
4.3840541
40
1.04841
50
347.5508424
51
0.3953248
0
ARC
8
DEFAULT_255_2_778
10
10.2299309
20
4.3398133
40
1.0617562
50
2.7788193
51
24.5437009
0
ARC
8
DEFAULT_255_2_778
10
10.5494879
20
4.4875842
40
0.7096926
50
24.408135
51
50.2452211
0
ARC
8
DEFAULT_255_2_778
10
16.7817084
20
4.8633423
40
0.848365
50
282.2360745
51
308.9945111
0
ARC
8
DEFAULT_255_2_778
10
16.6650042
20
5.3729954
40
1.3711876
50
272.1641578
51
282.4883336
0
ARC
8
DEFAULT_255_2_778
10
16.6239405
20
6.0553595
40
2.0546724
50
269.95254
51
272.5898776
0
ARC
8
DEFAULT_255_2_778
10
16.6014697
20
5.8850143
40
1.8844409
50
267.3113259
51
270.6314835
0
ARC
8
DEFAULT_255_2_778
10
16.5621641
20
4.8348161
40
0.8336151
50
258.9744943
51
266.623896
0
ARC
8
DEFAULT_255_2_778
10
16.771968
20
3.8154789
40
1.7399712
50
83.0364439
51
90.485034
0
ARC
8
DEFAULT_255_2_778
10
16.8934733
20
4.7533318
40
0.7943354
50
65.6180761
51
83.5345527
0
ARC
8
DEFAULT_255_2_778
10
16.9351867
20
4.8749643
40
0.6664428
50
47.7897172
51
64.5675327
0
ARC
8
DEFAULT_255_2_778
10
16.9035409
20
4.8847039
40
0.6811503
50
1.804618
51
45.2668374
0
ARC
8
DEFAULT_255_2_778
10
16.5861011
20
4.8464269
40
1.0000375
50
359.963384
51
3.4240357
0
ARC
8
DEFAULT_255_2_778
10
16.6290752
20
4.8294706
40
0.9572024
50
339.3709757
51
0.9767569
0
ARC
8
DEFAULT_255_2_778
10
16.8704601
20
4.7478874
40
0.7026056
50
309.2748697
51
338.6621816
0
ARC
8
DEFAULT_255_2_778
10
16.621109
20
5.3311879
40
0.9405841
50
269.2342472
51
281.7484143
0
ARC
8
DEFAULT_255_2_778
10
16.735241
20
4.8167461
40
0.4137395
50
280.7799373
51
309.3243473
0
ARC
8
DEFAULT_255_2_778
10
16.7618293
20
4.7540096
40
0.3488871
50
312.4772058
51
355.3029022
0
ARC
8
DEFAULT_255_2_778
10
16.4399789
20
4.8106403
40
0.6749648
50
352.7482448
51
0.2247395
0
ARC
8
DEFAULT_255_2_778
10
16.4755997
20
4.8472032
40
0.6402378
50
356.9634422
51
359.9625637
0
ARC
8
DEFAULT_255_2_778
10
16.7339446
20
4.8590218
40
0.3820888
50
358.1647016
51
25.7066481
0
ARC
8
DEFAULT_255_2_778
10
16.8276438
20
4.8868216
40
0.2860303
50
28.832085
51
79.8393587
0
ARC
8
DEFAULT_255_2_778
10
16.7331908
20
4.5272614
40
0.6572781
50
77.2632629
51
90.7193787
0
LINE
8
DEFAULT_255_2_778
10
10.4786386
20
3.1915878
11
9.6010386
21
3.1915878
0
LINE
8
DEFAULT_255_2_778
10
9.6010386
20
3.1915878
11
9.6010386
21
5.5564878
0
LINE
8
DEFAULT_255_2_778
10
9.6010386
20
5.5564878
11
10.4786386
21
5.5564878
0
LINE
8
DEFAULT_255_2_778
10
11.4401386
20
3.5466878
11
11.4401386
21
3.5461878
0
LINE
8
DEFAULT_255_2_778
10
10.4453386
20
5.1685878
11
10.0907386
21
5.1685878
0
LINE
8
DEFAULT_255_2_778
10
10.0907386
20
5.1685878
11
10.0907386
21
3.5974878
0
LINE
8
DEFAULT_255_2_778
10
10.0907386
20
3.5974878
11
10.4453386
21
3.5974878
0
LINE
8
DEFAULT_255_2_778
10
11.0033386
20
5.0331878
11
11.0009386
21
5.0331878
0
LINE
8
DEFAULT_255_2_778
10
12.0820386
20
3.2074878
11
12.0820386
21
5.5532878
0
LINE
8
DEFAULT_255_2_778
10
12.0820386
20
5.5532878
11
13.5176386
21
5.5532878
0
LINE
8
DEFAULT_255_2_778
10
13.5176386
20
5.5532878
11
13.4499386
21
5.1659878
0
LINE
8
DEFAULT_255_2_778
10
13.4499386
20
5.1659878
11
12.5371386
21
5.1659878
0
LINE
8
DEFAULT_255_2_778
10
12.5371386
20
5.1659878
11
12.5371386
21
4.5753878
0
LINE
8
DEFAULT_255_2_778
10
12.5371386
20
4.5753878
11
13.3467386
21
4.5753878
0
LINE
8
DEFAULT_255_2_778
10
13.3467386
20
4.5753878
11
13.3467386
21
4.2041878
0
LINE
8
DEFAULT_255_2_778
10
13.3467386
20
4.2041878
11
12.5371386
21
4.2041878
0
LINE
8
DEFAULT_255_2_778
10
12.5371386
20
4.2041878
11
12.5371386
21
3.5784878
0
LINE
8
DEFAULT_255_2_778
10
12.5371386
20
3.5784878
11
13.4308386
21
3.5784878
0
LINE
8
DEFAULT_255_2_778
10
13.4308386
20
3.5784878
11
13.5663386
21
3.1910878
0
LINE
8
DEFAULT_255_2_778
10
13.5663386
20
3.1910878
11
12.0794386
21
3.1910878
0
LINE
8
DEFAULT_255_2_778
10
12.0794386
20
3.1910878
11
12.0794386
21
3.2069878
0
LINE
8
DEFAULT_255_2_778
10
12.0794386
20
3.2069878
11
12.0820386
21
3.2074878
0
LINE
8
DEFAULT_255_2_778
10
14.0082386
20
3.2101878
11
14.0082386
21
5.5559878
0
LINE
8
DEFAULT_255_2_778
10
14.0082386
20
5.5559878
11
15.4438386
21
5.5559878
0
LINE
8
DEFAULT_255_2_778
10
15.4438386
20
5.5559878
11
15.3734386
21
5.1680878
0
LINE
8
DEFAULT_255_2_778
10
15.3734386
20
5.1680878
11
14.4606386
21
5.1680878
0
LINE
8
DEFAULT_255_2_778
10
14.4606386
20
5.1680878
11
14.4606386
21
4.5774878
0
LINE
8
DEFAULT_255_2_778
10
14.4606386
20
4.5774878
11
15.2544386
21
4.5774878
0
LINE
8
DEFAULT_255_2_778
10
15.2544386
20
4.5774878
11
15.2544386
21
4.2062878
0
LINE
8
DEFAULT_255_2_778
10
15.2544386
20
4.2062878
11
14.4474386
21
4.2062878
0
LINE
8
DEFAULT_255_2_778
10
14.4474386
20
4.2062878
11
14.4474386
21
3.5805878
0
LINE
8
DEFAULT_255_2_778
10
14.4474386
20
3.5805878
11
15.3411386
21
3.5805878
0
LINE
8
DEFAULT_255_2_778
10
15.3411386
20
3.5805878
11
15.4792386
21
3.1931878
0
LINE
8
DEFAULT_255_2_778
10
15.4792386
20
3.1931878
11
14.0108386
21
3.1931878
0
LINE
8
DEFAULT_255_2_778
10
14.0108386
20
3.1931878
11
14.0082386
21
3.2101878
0
LINE
8
DEFAULT_255_2_778
10
16.4027386
20
4.0165878
11
16.4027386
21
3.2069878
0
LINE
8
DEFAULT_255_2_778
10
16.4027386
20
3.2069878
11
15.9476386
21
3.2069878
0
LINE
8
DEFAULT_255_2_778
10
15.9476386
20
3.2069878
11
15.9476386
21
5.5553878
0
LINE
8
DEFAULT_255_2_778
10
15.9476386
20
5.5553878
11
16.7572386
21
5.5553878
0
LINE
8
DEFAULT_255_2_778
10
17.3152386
20
4.2039878
11
17.3155386
21
4.2039878
0
LINE
8
DEFAULT_255_2_778
10
16.7249386
20
5.1844878
11
16.4053386
21
5.1844878
0
LINE
8
DEFAULT_255_2_778
10
16.4053386
20
5.1844878
11
16.4053386
21
4.3906878
0
LINE
8
DEFAULT_255_2_778
10
16.4053386
20
4.3906878
11
16.6085386
21
4.3906878
0
LINE
8
DEFAULT_255_2_778
10
16.7249386
20
5.1844878
11
16.7249386
21
5.1844878
0
ARC
8
DEFAULT_255_2_778
10
20.8272776
20
3.2704503
40
2.2855488
50
84.9967803
51
90.3115769
0
ARC
8
DEFAULT_255_2_778
10
20.9390879
20
4.4812785
40
1.0695986
50
74.5011663
51
85.3067206
0
ARC
8
DEFAULT_255_2_778
10
21.0660917
20
4.9367316
40
0.5967701
50
49.109243
51
74.566436
0
ARC
8
DEFAULT_255_2_778
10
21.0921775
20
4.9837904
40
0.5442322
50
4.6799548
51
47.9420702
0
ARC
8
DEFAULT_255_2_778
10
20.5235978
20
4.8867621
40
1.1199636
50
359.7290275
51
7.2548433
0
ARC
8
DEFAULT_255_2_778
10
20.9261292
20
4.8622981
40
0.7176755
50
0.0007902
51
1.530405
0
ARC
8
DEFAULT_255_2_778
10
20.927012
20
4.8623128
40
0.7167926
50
324.1552327
51
359.9996165
0
ARC
8
DEFAULT_255_2_778
10
21.1300379
20
4.6935596
40
0.4537513
50
285.829772
51
326.4163579
0
ARC
8
DEFAULT_255_2_778
10
20.8095098
20
5.5720921
40
1.3881028
50
284.5801568
51
288.6676971
0
ARC
8
DEFAULT_255_2_778
10
20.580731
20
6.414256
40
2.260757
50
284.2401931
51
284.818638
0
ARC
8
DEFAULT_255_2_778
10
20.7766999
20
5.2929251
40
0.7665726
50
269.0169946
51
282.5528595
0
ARC
8
DEFAULT_255_2_778
10
20.8910415
20
4.8223428
40
0.2825421
50
280.6601346
51
321.5810261
0
ARC
8
DEFAULT_255_2_778
10
20.8439772
20
4.8292662
40
0.3245941
50
325.7896918
51
358.5337512
0
ARC
8
DEFAULT_255_2_778
10
20.5400171
20
4.8641805
40
0.6299324
50
356.0658157
51
0.0804855
0
ARC
8
DEFAULT_255_2_778
10
20.8169314
20
4.8794106
40
0.3533086
50
357.6730107
51
27.0198685
0
ARC
8
DEFAULT_255_2_778
10
20.9064094
20
4.9054558
40
0.2623457
50
30.8331731
51
77.2966266
0
ARC
8
DEFAULT_255_2_778
10
20.7875387
20
4.4935897
40
0.6907367
50
75.1900764
51
89.5720083
0
ARC
8
DEFAULT_255_2_778
10
20.763865
20
4.0241447
40
1.1605207
50
88.576327
51
90.0156156
0
ARC
8
DEFAULT_255_2_778
10
19.1016282
20
4.5241188
40
0.6639837
50
60.2459476
51
65.4696783
0
ARC
8
DEFAULT_255_2_778
10
19.1298045
20
4.5674177
40
0.6129427
50
66.1853968
51
86.9219229
0
ARC
8
DEFAULT_255_2_778
10
19.0230703
20
3.248749
40
1.9357707
50
85.8630684
51
90.4298206
0
ARC
8
DEFAULT_255_2_778
10
18.9991134
20
4.3524369
40
0.832082
50
89.3502837
51
115.9560527
0
ARC
8
DEFAULT_255_2_778
10
18.9593049
20
4.4544377
40
0.7230006
50
116.6574785
51
170.9308536
0
ARC
8
DEFAULT_255_2_778
10
19.140304
20
4.408937
40
0.9090572
50
169.8970427
51
180.1179675
0
ARC
8
DEFAULT_255_2_778
10
18.7958512
20
4.4065613
40
0.5646027
50
179.9488418
51
180.017051
0
ARC
8
DEFAULT_255_2_778
10
19.1804889
20
4.3961415
40
0.9492958
50
179.3812324
51
201.2674609
0
ARC
8
DEFAULT_255_2_778
10
19.0019913
20
4.3331962
40
0.760147
50
201.7262336
51
260.3870356
0
ARC
8
DEFAULT_255_2_778
10
19.0729525
20
4.6014429
40
1.0367826
50
258.9959418
51
270.1821586
0
ARC
8
DEFAULT_255_2_778
10
19.0872207
20
5.1855608
40
1.6209326
50
269.6121663
51
274.8350583
0
ARC
8
DEFAULT_255_2_778
10
19.1587406
20
4.3506758
40
0.7829908
50
274.7695673
51
287.0873355
0
ARC
8
DEFAULT_255_2_778
10
19.0962542
20
4.5497524
40
0.9916409
50
287.1586143
51
289.7194621
0
ARC
8
DEFAULT_255_2_778
10
18.7889336
20
5.2137919
40
2.1163493
50
285.8161781
51
295.0599738
0
ARC
8
DEFAULT_255_2_778
10
18.9827212
20
4.7616317
40
1.6166096
50
259.1903804
51
270.4191929
0
ARC
8
DEFAULT_255_2_778
10
18.9210411
20
4.3916974
40
1.2417027
50
230.6092077
51
258.7845909
0
ARC
8
DEFAULT_255_2_778
10
18.9243174
20
4.318135
40
1.1879501
50
194.4544741
51
228.2348372
0
ARC
8
DEFAULT_255_2_778
10
19.086811
20
4.3772661
40
1.3601624
50
179.9916055
51
195.1579362
0
ARC
8
DEFAULT_255_2_778
10
18.996038
20
4.378523
40
1.2693897
50
145.4951857
51
180.047739
0
ARC
8
DEFAULT_255_2_778
10
18.898595
20
4.4406492
40
1.153903
50
135.1063872
51
145.296458
0
ARC
8
DEFAULT_255_2_778
10
18.815212
20
4.5377643
40
1.026338
50
96.1422206
51
135.6616978
0
ARC
8
DEFAULT_255_2_778
10
18.9616766
20
3.5760218
40
1.9986875
50
89.6195286
51
97.3669676
0
ARC
8
DEFAULT_255_2_778
10
18.9903925
20
4.0472185
40
1.5275249
50
77.5239634
51
90.5792893
0
ARC
8
DEFAULT_255_2_778
10
19.0971769
20
4.535842
40
1.0273715
50
52.8822952
51
77.451737
0
LINE
8
DEFAULT_255_2_778
10
21.2376487
20
3.2101654
11
20.6958487
21
4.1554654
0
LINE
8
DEFAULT_255_2_778
10
20.6958487
20
4.1554654
11
20.4762487
21
4.1554654
0
LINE
8
DEFAULT_255_2_778
10
20.4762487
20
4.1554654
11
20.4762487
21
3.2101654
0
LINE
8
DEFAULT_255_2_778
10
20.4762487
20
3.2101654
11
20.0211487
21
3.2101654
0
LINE
8
DEFAULT_255_2_778
10
20.0211487
20
3.2101654
11
20.0211487
21
5.5559654
0
LINE
8
DEFAULT_255_2_778
10
20.0211487
20
5.5559654
11
20.8148487
21
5.5559654
0
LINE
8
DEFAULT_255_2_778
10
21.1368487
20
4.2229654
11
21.7274487
21
3.2069654
0
LINE
8
DEFAULT_255_2_778
10
21.7274487
20
3.2069654
11
21.2376487
21
3.2101654
0
LINE
8
DEFAULT_255_2_778
10
20.7635487
20
5.1846654
11
20.4764487
21
5.1846654
0
LINE
8
DEFAULT_255_2_778
10
20.4764487
20
5.1846654
11
20.4764487
21
4.5264654
0
LINE
8
DEFAULT_255_2_778
10
20.4764487
20
4.5264654
11
20.7635487
21
4.5264654
0
LINE
8
DEFAULT_255_2_778
10
20.7635487
20
5.1846654
11
20.7635487
21
5.1846654
0
LINE
8
DEFAULT_255_2_778
10
23.4993487
20
3.2101654
11
23.3125487
21
3.8006654
0
LINE
8
DEFAULT_255_2_778
10
23.3125487
20
3.8006654
11
22.5187487
21
3.8006654
0
LINE
8
DEFAULT_255_2_778
10
22.5187487
20
3.8006654
11
22.3319487
21
3.2101654
0
LINE
8
DEFAULT_255_2_778
10
22.3319487
20
3.2101654
11
21.8557487
21
3.2101654
0
LINE
8
DEFAULT_255_2_778
10
21.8557487
20
3.2101654
11
22.7172487
21
5.5749654
0
LINE
8
DEFAULT_255_2_778
10
22.7172487
20
5.5749654
11
23.1257487
21
5.5749654
0
LINE
8
DEFAULT_255_2_778
10
23.1257487
20
5.5749654
11
23.9872487
21
3.2101654
0
LINE
8
DEFAULT_255_2_778
10
23.9872487
20
3.2101654
11
23.4993487
21
3.2101654
0
LINE
8
DEFAULT_255_2_778
10
22.9087487
20
5.0198654
11
22.6378487
21
4.1583654
0
LINE
8
DEFAULT_255_2_778
10
22.6378487
20
4.1583654
11
23.1797487
21
4.1583654
0
LINE
8
DEFAULT_255_2_778
10
23.1797487
20
4.1583654
11
22.9087487
21
5.0198654
0
LINE
8
DEFAULT_255_2_778
10
25.9832487
20
3.1585654
11
25.6636487
21
3.1585654
0
LINE
8
DEFAULT_255_2_778
10
25.6636487
20
3.1585654
11
25.3090487
21
4.1718654
0
LINE
8
DEFAULT_255_2_778
10
25.3090487
20
4.1718654
11
24.9545487
21
3.1585654
0
LINE
8
DEFAULT_255_2_778
10
24.9545487
20
3.1585654
11
24.6674487
21
3.1585654
0
LINE
8
DEFAULT_255_2_778
10
24.6674487
20
3.1585654
11
23.7736487
21
5.5556654
0
LINE
8
DEFAULT_255_2_778
10
23.7736487
20
5.5556654
11
24.2478487
21
5.5556654
0
LINE
8
DEFAULT_255_2_778
10
24.2478487
20
5.5556654
11
24.8545487
21
3.7813654
0
LINE
8
DEFAULT_255_2_778
10
24.8545487
20
3.7813654
11
25.1416487
21
4.5750654
0
LINE
8
DEFAULT_255_2_778
10
25.1416487
20
4.5750654
11
24.7542487
21
5.5556654
0
LINE
8
DEFAULT_255_2_778
10
24.7542487
20
5.5556654
11
25.1606487
21
5.5556654
0
LINE
8
DEFAULT_255_2_778
10
25.1606487
20
5.5556654
11
25.3474487
21
5.0815654
0
LINE
8
DEFAULT_255_2_778
10
25.3474487
20
5.0815654
11
25.4990487
21
5.5556654
0
LINE
8
DEFAULT_255_2_778
10
25.4990487
20
5.5556654
11
25.8864487
21
5.5556654
0
LINE
8
DEFAULT_255_2_778
10
25.8864487
20
5.5556654
11
25.5318487
21
4.6102654
0
LINE
8
DEFAULT_255_2_778
10
25.5318487
20
4.6102654
11
25.8705487
21
3.8006654
0
LINE
8
DEFAULT_255_2_778
10
25.8705487
20
3.8006654
11
26.4261487
21
5.5585654
0
LINE
8
DEFAULT_255_2_778
10
26.4261487
20
5.5585654
11
26.8486487
21
5.5585654
0
LINE
8
DEFAULT_255_2_778
10
26.8486487
20
5.5585654
11
25.9832487
21
3.1585654
0
LINE
8
DEFAULT_255_2_778
10
19.4308487
20
3.6162654
11
19.6853487
21
3.2966654
0
LINE
8
DEFAULT_255_2_778
10
19.3657487
20
3.1775654
11
18.9945487
21
3.1450654
0
LINE
8
DEFAULT_255_2_778
10
19.7171487
20
5.3550654
11
19.4311487
21
5.1005654
0
LINE
8
DEFAULT_255_2_778
10
27.1648487
20
3.2101654
11
27.1648487
21
5.5559654
0
LINE
8
DEFAULT_255_2_778
10
27.1648487
20
5.5559654
11
27.6199487
21
5.5559654
0
LINE
8
DEFAULT_255_2_778
10
27.6199487
20
5.5559654
11
27.6199487
21
3.5784654
0
LINE
8
DEFAULT_255_2_778
10
27.6199487
20
3.5784654
11
28.4488487
21
3.5784654
0
LINE
8
DEFAULT_255_2_778
10
28.4488487
20
3.5784654
11
28.5843487
21
3.1910654
0
LINE
8
DEFAULT_255_2_778
10
28.5843487
20
3.1910654
11
27.1648487
21
3.1910654
0
LINE
8
DEFAULT_255_2_778
10
27.1648487
20
3.1910654
11
27.1648487
21
3.2101654
0
ENDSEC
0
EOF