0
SECTION
2
HEADER
9
$MEASUREMENT
70
1
0
ENDSEC
0
SECTION
2
TABLES
0
TABLE
2
LTYPE
0
LTYPE
72
65
70
64
2
CONTINUOUS
3
______
73
0
40
0
0
ENDTAB
0
TABLE
2
LAYER
0
LAYER
2
DEFAULT_255_2_778
70
0
62
255
6
CONTINUOUS
0
ENDTAB
0
ENDSEC
0
SECTION
2
ENTITIES
0
ARC
8
DEFAULT_255_2_778
10
8.715796
20
8.3570141
40
8.4439529
50
89.9780319
51
100.5208844
0
ARC
8
DEFAULT_255_2_778
10
8.7064059
20
8.4218903
40
8.3784532
50
100.5387583
51
114.404462
0
ARC
8
DEFAULT_255_2_778
10
8.7716688
20
8.2942762
40
8.521633
50
114.4495421
51
156.9825016
0
ARC
8
DEFAULT_255_2_778
10
8.6402494
20
8.3599969
40
8.3749838
50
157.0447693
51
170.5638003
0
ARC
8
DEFAULT_255_2_778
10
8.7171121
20
8.3491871
40
8.452579
50
170.5769372
51
180.0184418
0
ARC
8
DEFAULT_255_2_778
10
8.7876312
20
8.3430184
40
8.5230984
50
179.9768207
51
190.1149993
0
ARC
8
DEFAULT_255_2_778
10
8.6882555
20
8.3273818
40
8.4225212
50
190.129008
51
203.4151263
0
ARC
8
DEFAULT_255_2_778
10
8.7729942
20
8.3691763
40
8.5168918
50
203.4465991
51
227.9879697
0
ARC
8
DEFAULT_255_2_778
10
8.7443105
20
8.325657
40
8.4653628
50
227.9350773
51
249.6660206
0
ARC
8
DEFAULT_255_2_778
10
8.7043282
20
8.2339731
40
8.3655007
50
249.7045896
51
262.3184931
0
ARC
8
DEFAULT_255_2_778
10
8.717042
20
8.3335211
40
8.4658548
50
262.3232751
51
270.013479
0
ARC
8
DEFAULT_255_2_778
10
8.722575
20
8.3878959
40
8.5202302
50
269.976185
51
280.1178024
0
ARC
8
DEFAULT_255_2_778
10
8.7393787
20
8.2822652
40
8.4132905
50
280.1315185
51
293.4329962
0
ARC
8
DEFAULT_255_2_778
10
8.6914916
20
8.3743283
40
8.5168074
50
293.4822831
51
335.1858362
0
ARC
8
DEFAULT_255_2_778
10
8.782626
20
8.3262251
40
8.4139011
50
335.2227108
51
348.9446836
0
ARC
8
DEFAULT_255_2_778
10
8.6932853
20
8.34142
40
8.5044979
50
348.9596318
51
359.3291254
0
ARC
8
DEFAULT_255_2_778
10
8.5607627
20
8.3464263
40
8.6370708
50
359.3062106
51
0.0002661
0
ARC
8
DEFAULT_255_2_778
10
8.7567877
20
8.3497991
40
8.4410465
50
359.9773785
51
10.5238912
0
ARC
8
DEFAULT_255_2_778
10
8.8280785
20
8.3604258
40
8.3690145
50
10.5415069
51
24.4237712
0
ARC
8
DEFAULT_255_2_778
10
8.6943409
20
8.2901373
40
8.5198517
50
24.482281
51
66.5656506
0
ARC
8
DEFAULT_255_2_778
10
8.7381646
20
8.3773769
40
8.4223812
50
66.6031611
51
79.657612
0
ARC
8
DEFAULT_255_2_778
10
8.7226262
20
8.2800077
40
8.5209582
50
79.6723693
51
90.0035617
0
LINE
8
DEFAULT_255_2_778
10
8.7220965
20
16.8009659
11
8.7190336
21
16.8009664
0
LINE
8
DEFAULT_255_2_778
10
8.7190336
20
16.8009664
11
8.7190336
21
16.8009664
0
ARC
8
DEFAULT_255_2_778
10
4.7071003
20
8.8670559
40
2.3875375
50
37.0965448
51
56.0610251
0
ARC
8
DEFAULT_255_2_778
10
4.7541834
20
8.9264279
40
2.3120011
50
56.2075789
51
90.1346852
0
ARC
8
DEFAULT_255_2_778
10
4.7383848
20
8.5152664
40
2.723176
50
89.7819437
51
105.1721836
0
ARC
8
DEFAULT_255_2_778
10
4.6711523
20
8.7869314
40
2.4433919
50
105.3178346
51
146.3703172
0
ARC
8
DEFAULT_255_2_778
10
5.0924425
20
8.4845425
40
2.9617001
50
146.0132105
51
159.3629959
0
ARC
8
DEFAULT_255_2_778
10
5.6576479
20
8.2686779
40
3.5667191
50
159.31788
51
169.5364923
0
ARC
8
DEFAULT_255_2_778
10
6.3658302
20
8.1349598
40
4.2874103
50
169.4979769
51
177.5931518
0
ARC
8
DEFAULT_255_2_778
10
6.9139192
20
8.1028999
40
4.8363707
50
177.486358
51
180.012762
0
ARC
8
DEFAULT_255_2_778
10
6.8637145
20
8.0927114
40
4.7861745
50
179.8909283
51
186.9161287
0
ARC
8
DEFAULT_255_2_778
10
6.0337159
20
7.9900274
40
3.9498512
50
186.8872396
51
195.521414
0
ARC
8
DEFAULT_255_2_778
10
5.3623125
20
7.801496
40
3.2524834
50
195.4863723
51
206.3937522
0
ARC
8
DEFAULT_255_2_778
10
4.8794105
20
7.5595564
40
2.7123686
50
206.350411
51
221.1927187
0
ARC
8
DEFAULT_255_2_778
10
4.6694812
20
7.3869979
40
2.4407657
50
221.390095
51
264.234328
0
ARC
8
DEFAULT_255_2_778
10
4.7465265
20
7.8247411
40
2.8842193
50
263.5851233
51
270.0441439
0
ARC
8
DEFAULT_255_2_778
10
4.7727806
20
7.2105391
40
2.2701436
50
269.3934501
51
313.2988343
0
ARC
8
DEFAULT_255_2_778
10
4.6055519
20
7.391675
40
2.5166591
50
313.241534
51
322.8490744
0
ARC
8
DEFAULT_255_2_778
10
5.4584101
20
7.7448276
40
1.3867305
50
304.9331113
51
326.2510586
0
ARC
8
DEFAULT_255_2_778
10
5.1644098
20
8.1484409
40
1.8859977
50
274.4537079
51
305.2341943
0
ARC
8
DEFAULT_255_2_778
10
5.1895689
20
7.9318726
40
1.66815
50
270.0199125
51
274.169803
0
ARC
8
DEFAULT_255_2_778
10
5.1801751
20
7.834325
40
1.570634
50
250.7316897
51
270.3638302
0
ARC
8
DEFAULT_255_2_778
10
5.1554487
20
7.7186801
40
1.4533831
50
208.5270473
51
250.1474154
0
ARC
8
DEFAULT_255_2_778
10
5.5499396
20
7.954586
40
1.912735
50
193.2617118
51
209.0922024
0
ARC
8
DEFAULT_255_2_778
10
6.0693498
20
8.0809266
40
2.447279
50
181.4538833
51
193.351123
0
ARC
8
DEFAULT_255_2_778
10
6.4305002
20
8.1012714
40
2.8088515
50
179.9948749
51
181.6818366
0
ARC
8
DEFAULT_255_2_778
10
5.982481
20
8.1106531
40
2.36085
50
167.083157
51
180.221588
0
ARC
8
DEFAULT_255_2_778
10
5.530435
20
8.217879
40
1.896277
50
149.6924538
51
167.1878148
0
ARC
8
DEFAULT_255_2_778
10
5.1630214
20
8.4519676
40
1.4610425
50
98.3333816
51
150.3467162
0
ARC
8
DEFAULT_255_2_778
10
5.1881353
20
8.2884601
40
1.6264639
50
89.9290765
51
98.3739343
0
ARC
8
DEFAULT_255_2_778
10
5.1894565
20
8.3681415
40
1.5467814
50
85.4547406
51
89.9743629
0
ARC
8
DEFAULT_255_2_778
10
5.1438935
20
8.0545315
40
1.8631293
50
50.006515
51
84.8222352
0
ARC
8
DEFAULT_255_2_778
10
5.4438494
20
8.4086016
40
1.3990901
50
33.4318388
51
50.098268
0
ARC
8
DEFAULT_255_2_778
10
11.0441277
20
7.9644387
40
4.3893319
50
359.871867
51
9.0047721
0
ARC
8
DEFAULT_255_2_778
10
11.7384416
20
8.0768861
40
3.6859762
50
8.9676254
51
20.3024188
0
ARC
8
DEFAULT_255_2_778
10
12.2996612
20
8.2880177
40
3.086367
50
20.2414251
51
35.7810234
0
ARC
8
DEFAULT_255_2_778
10
12.614019
20
8.5143355
40
2.6990165
50
35.7852593
51
72.6150326
0
ARC
8
DEFAULT_255_2_778
10
12.4876349
20
8.1282492
40
3.1052327
50
72.5181297
51
85.4523878
0
ARC
8
DEFAULT_255_2_778
10
12.4455973
20
7.7141947
40
3.5213286
50
85.3047131
51
90.0317078
0
ARC
8
DEFAULT_255_2_778
10
12.4361449
20
7.9223597
40
3.3131715
50
89.8702348
51
102.6135016
0
ARC
8
DEFAULT_255_2_778
10
12.3701157
20
8.2168299
40
3.0113891
50
102.6110066
51
120.4774183
0
ARC
8
DEFAULT_255_2_778
10
12.3790782
20
8.2343095
40
3.0009162
50
120.7941646
51
162.3375373
0
ARC
8
DEFAULT_255_2_778
10
12.7073235
20
8.110953
40
3.3511637
50
162.030656
51
177.9029334
0
ARC
8
DEFAULT_255_2_778
10
12.9000509
20
8.0964037
40
3.5443024
50
177.781899
51
180.0029263
0
ARC
8
DEFAULT_255_2_778
10
13.1215093
20
8.0872695
40
3.7657713
50
179.8637783
51
189.8091082
0
ARC
8
DEFAULT_255_2_778
10
12.5940394
20
7.994553
40
3.2302171
50
189.7825367
51
202.7405344
0
ARC
8
DEFAULT_255_2_778
10
12.2669685
20
7.8564464
40
2.875185
50
202.7218268
51
223.4005857
0
ARC
8
DEFAULT_255_2_778
10
12.3048556
20
7.9146359
40
2.9427393
50
223.7169111
51
249.8700347
0
ARC
8
DEFAULT_255_2_778
10
12.4830034
20
8.3724318
40
3.433894
50
249.7079405
51
263.7561015
0
ARC
8
DEFAULT_255_2_778
10
12.5383881
20
8.796824
40
3.8618025
50
263.6240742
51
270.0439246
0
ARC
8
DEFAULT_255_2_778
10
12.5507186
20
9.2992636
40
4.364251
50
269.8769865
51
287.9876082
0
ARC
8
DEFAULT_255_2_778
10
12.83223
20
8.4370163
40
3.4572139
50
287.9630755
51
302.1901431
0
ARC
8
DEFAULT_255_2_778
10
13.2069944
20
7.8211297
40
2.7363718
50
302.4192999
51
311.3960658
0
ARC
8
DEFAULT_255_2_778
10
13.1532579
20
7.9503884
40
1.6821946
50
300.1457398
51
314.4105322
0
ARC
8
DEFAULT_255_2_778
10
12.6774942
20
8.7799597
40
2.6385013
50
283.5799535
51
300.0329328
0
ARC
8
DEFAULT_255_2_778
10
12.6251577
20
8.9162222
40
2.783307
50
276.8318715
51
283.9685841
0
ARC
8
DEFAULT_255_2_778
10
12.6790091
20
8.4632857
40
2.3271808
50
271.0319581
51
276.8419816
0
ARC
8
DEFAULT_255_2_778
10
12.6885364
20
8.1548337
40
2.018611
50
270.0031855
51
270.9192594
0
ARC
8
DEFAULT_255_2_778
10
12.6801653
20
8.3738499
40
2.2376432
50
258.884779
51
270.2172196
0
ARC
8
DEFAULT_255_2_778
10
12.5960576
20
7.9534645
40
1.80893
50
243.5038916
51
258.9318779
0
ARC
8
DEFAULT_255_2_778
10
12.488932
20
7.7372624
40
1.5676439
50
219.0733329
51
243.4826146
0
ARC
8
DEFAULT_255_2_778
10
12.5554517
20
7.7746899
40
1.6429274
50
186.7310989
51
218.6244316
0
ARC
8
DEFAULT_255_2_778
10
12.4357366
20
8.5220968
40
1.5404622
50
168.7031338
51
175.5834717
0
ARC
8
DEFAULT_255_2_778
10
12.4626039
20
8.5173047
40
1.5677479
50
167.0502514
51
168.7237389
0
ARC
8
DEFAULT_255_2_778
10
12.4143869
20
8.5336332
40
1.5171065
50
142.1342078
51
167.2431596
0
ARC
8
DEFAULT_255_2_778
10
12.297738
20
8.6179539
40
1.3732699
50
119.8488767
51
141.9241955
0
ARC
8
DEFAULT_255_2_778
10
12.3458329
20
8.5260496
40
1.4769253
50
104.0907714
51
119.692638
0
ARC
8
DEFAULT_255_2_778
10
12.4232609
20
8.2177311
40
1.7948174
50
92.3006024
51
104.0919029
0
ARC
8
DEFAULT_255_2_778
10
12.443157
20
7.9206979
40
2.0924249
50
89.9865387
51
92.5184704
0
ARC
8
DEFAULT_255_2_778
10
12.4507783
20
7.9896939
40
2.0234413
50
80.3587331
51
90.201884
0
ARC
8
DEFAULT_255_2_778
10
12.5196283
20
8.390468
40
1.6167972
50
67.5510306
51
80.3855365
0
ARC
8
DEFAULT_255_2_778
10
12.6038668
20
8.5970762
40
1.3936787
50
50.4357126
51
67.5082523
0
ARC
8
DEFAULT_255_2_778
10
12.5913426
20
8.5915262
40
1.4059478
50
27.9437549
51
50.1863084
0
ARC
8
DEFAULT_255_2_778
10
12.464598
20
8.519861
40
1.5515025
50
15.9265198
51
28.0883878
0
ARC
8
DEFAULT_255_2_778
10
12.4360025
20
8.5100822
40
1.5816844
50
8.8563685
51
15.9829113
0
ARC
8
DEFAULT_255_2_778
10
12.4849865
20
8.5177308
40
1.5321069
50
4.604448
51
8.8557706
0
LINE
8
DEFAULT_255_2_778
10
6.6114486
20
5.8718227
11
6.6114486
21
5.0876227
0
LINE
8
DEFAULT_255_2_778
10
6.6114486
20
5.0876227
11
8.1063486
21
5.0876227
0
LINE
8
DEFAULT_255_2_778
10
8.1063486
20
5.0876227
11
8.1063486
21
13.6154227
0
LINE
8
DEFAULT_255_2_778
10
8.1063486
20
13.6154227
11
6.6114486
21
13.6154227
0
LINE
8
DEFAULT_255_2_778
10
6.6114486
20
13.6154227
11
6.6114486
21
10.3071227
0
LINE
8
DEFAULT_255_2_778
10
6.6114486
20
9.1794227
11
6.6114486
21
6.9744227
0
LINE
8
DEFAULT_255_2_778
10
15.0164486
20
5.7684227
11
14.3304486
21
6.7487227
0
LINE
8
DEFAULT_255_2_778
10
10.9238486
20
7.5821227
11
15.4331486
21
7.5821227
0
LINE
8
DEFAULT_255_2_778
10
15.4331486
20
7.5821227
11
15.4334486
21
7.9546227
0
LINE
8
DEFAULT_255_2_778
10
14.0121486
20
8.6407227
11
10.8998486
21
8.6407227
0
ENDSEC
0
EOF