0
SECTION
2
HEADER
9
$MEASUREMENT
70
1
0
ENDSEC
0
SECTION
2
TABLES
0
TABLE
2
LTYPE
0
LTYPE
72
65
70
64
2
CONTINUOUS
3
______
73
0
40
0
0
ENDTAB
0
TABLE
2
LAYER
0
LAYER
2
DEFAULT_255_2_778
70
0
62
255
6
CONTINUOUS
0
ENDTAB
0
ENDSEC
0
SECTION
2
ENTITIES
0
ARC
8
DEFAULT_255_2_778
10
3.7930985
20
4.7073264
40
4.8396039
50
269.8796582
51
281.5063278
0
ARC
8
DEFAULT_255_2_778
10
3.9191566
20
4.113247
40
4.2323212
50
281.4383688
51
297.56573
0
ARC
8
DEFAULT_255_2_778
10
4.1262711
20
3.7121446
40
3.7809068
50
297.5962422
51
318.161074
0
ARC
8
DEFAULT_255_2_778
10
3.8166025
20
3.9176907
40
4.1490681
50
318.8988489
51
347.1459473
0
ARC
8
DEFAULT_255_2_778
10
2.8369854
20
4.1881064
40
5.1644971
50
346.6388793
51
359.7506784
0
ARC
8
DEFAULT_255_2_778
10
2.4886578
20
4.1994957
40
5.5128798
50
359.6480625
51
359.9999404
0
ARC
8
DEFAULT_255_2_778
10
2.9799226
20
4.2212132
40
5.0216619
50
359.7521431
51
15.2467744
0
ARC
8
DEFAULT_255_2_778
10
4.1086416
20
4.5468129
40
3.8470852
50
14.9889365
51
37.990936
0
ARC
8
DEFAULT_255_2_778
10
4.5368807
20
4.8425963
40
3.3276604
50
38.5158806
51
43.6884447
0
ARC
8
DEFAULT_255_2_778
10
4.380635
20
4.6561073
40
3.5695592
50
44.1206574
51
68.4673284
0
ARC
8
DEFAULT_255_2_778
10
3.954068
20
3.6478578
40
4.6640816
50
68.1388799
51
79.9768343
0
ARC
8
DEFAULT_255_2_778
10
3.7434551
20
2.4897906
40
5.8411331
50
79.9195392
51
89.2674619
0
ARC
8
DEFAULT_255_2_778
10
3.7167135
20
1.7959496
40
6.5352835
50
89.1108037
51
90.0015773
0
ARC
8
DEFAULT_255_2_778
10
3.7114857
20
4.524746
40
1.8261054
50
71.9868805
51
90.2557802
0
ARC
8
DEFAULT_255_2_778
10
3.6798532
20
4.5211855
40
1.8395016
50
28.2175872
51
71.0841597
0
ARC
8
DEFAULT_255_2_778
10
3.1537589
20
4.1964141
40
2.4569178
50
12.1230748
51
29.0904124
0
ARC
8
DEFAULT_255_2_778
10
2.7437985
20
4.0996677
40
2.8780662
50
1.3770618
51
12.2921341
0
ARC
8
DEFAULT_255_2_778
10
2.5556954
20
4.0893003
40
3.0663698
50
0.0016752
51
1.4862566
0
ARC
8
DEFAULT_255_2_778
10
2.7968777
20
4.0806324
40
2.8252011
50
346.048668
51
0.1776047
0
ARC
8
DEFAULT_255_2_778
10
3.2499258
20
3.9640818
40
2.3574206
50
328.8248392
51
346.1430592
0
ARC
8
DEFAULT_255_2_778
10
3.7143627
20
3.6531349
40
1.7992724
50
281.6541162
51
329.6408351
0
ARC
8
DEFAULT_255_2_778
10
3.7072064
20
3.7581782
40
1.9036489
50
269.8834372
51
281.2264127
0
ARC
8
DEFAULT_255_2_778
10
13.3376281
20
5.4686014
40
3.3592048
50
310.4366962
51
332.2408705
0
ARC
8
DEFAULT_255_2_778
10
12.9500135
20
5.7325326
40
3.8255051
50
331.4467099
51
349.0279773
0
ARC
8
DEFAULT_255_2_778
10
13.5204482
20
5.6081643
40
3.2418549
50
349.2670006
51
359.9100496
0
ARC
8
DEFAULT_255_2_778
10
13.6749577
20
5.6030747
40
3.0873415
50
0.0000039
51
0.4880407
0
ARC
8
DEFAULT_255_2_778
10
13.7588499
20
5.6052572
40
3.003434
50
0.4600388
51
7.9340989
0
ARC
8
DEFAULT_255_2_778
10
14.1692172
20
5.7050778
40
2.5835613
50
6.9977317
51
41.2469038
0
ARC
8
DEFAULT_255_2_778
10
14.1913927
20
5.6447531
40
2.6073505
50
42.5649989
51
66.6544931
0
ARC
8
DEFAULT_255_2_778
10
13.8631988
20
4.926291
40
3.3970891
50
66.3742301
51
80.5655597
0
ARC
8
DEFAULT_255_2_778
10
13.7392319
20
4.2408194
40
4.0936214
50
80.4265985
51
90.1105473
0
ARC
8
DEFAULT_255_2_778
10
13.4747087
20
5.4304259
40
1.1186344
50
52.7166681
51
90.3982399
0
ARC
8
DEFAULT_255_2_778
10
13.4928509
20
5.4621977
40
1.082376
50
39.6002083
51
52.4619903
0
ARC
8
DEFAULT_255_2_778
10
13.3889068
20
5.394342
40
1.2058002
50
359.4883291
51
38.9362275
0
ARC
8
DEFAULT_255_2_778
10
13.2985374
20
5.383615
40
1.2961216
50
355.9570625
51
359.9981851
0
ARC
8
DEFAULT_255_2_778
10
13.350987
20
5.3617921
40
1.2423953
50
301.2837263
51
356.7904596
0
ARC
8
DEFAULT_255_2_778
10
13.2867583
20
5.5382103
40
1.4269883
50
275.7263069
51
299.8092186
0
ARC
8
DEFAULT_255_2_778
10
13.1449763
20
6.5239187
40
2.4223012
50
269.7932035
51
276.7369252
0
LINE
8
DEFAULT_255_2_778
10
0.2645336
20
8.3344332
11
0.2645336
21
-0.1322668
0
LINE
8
DEFAULT_255_2_778
10
0.2645336
20
-0.1322668
11
3.7829336
21
-0.1322668
0
LINE
8
DEFAULT_255_2_778
10
3.7165336
20
8.3312332
11
0.2645336
21
8.3344332
0
LINE
8
DEFAULT_255_2_778
10
2.6450336
20
6.3508332
11
3.7033336
21
6.3508332
0
LINE
8
DEFAULT_255_2_778
10
3.7033336
20
1.8545332
11
2.6450336
21
1.8545332
0
LINE
8
DEFAULT_255_2_778
10
2.6450336
20
1.8545332
11
2.6450336
21
6.3508332
0
LINE
8
DEFAULT_255_2_778
10
9.9620336
20
8.3344332
11
9.9620336
21
-0.1322668
0
LINE
8
DEFAULT_255_2_778
10
9.9620336
20
-0.1322668
11
12.3425336
21
-0.1322668
0
LINE
8
DEFAULT_255_2_778
10
12.3425336
20
-0.1322668
11
12.3441336
21
2.3805332
0
LINE
8
DEFAULT_255_2_778
10
12.3441336
20
2.3805332
11
13.3336336
21
2.3805332
0
LINE
8
DEFAULT_255_2_778
10
13.3336336
20
2.3805332
11
14.5898336
21
-0.1322668
0
LINE
8
DEFAULT_255_2_778
10
14.5898336
20
-0.1322668
11
17.1978336
21
-0.1322668
0
LINE
8
DEFAULT_255_2_778
10
17.1978336
20
-0.1322668
11
15.5164336
21
2.9118332
0
LINE
8
DEFAULT_255_2_778
10
13.7313336
20
8.3344332
11
9.9620336
21
8.3344332
0
LINE
8
DEFAULT_255_2_778
10
12.3425336
20
6.5490332
11
13.4669336
21
6.5490332
0
LINE
8
DEFAULT_255_2_778
10
13.1362336
20
4.1016332
11
12.3425336
21
4.1016332
0
LINE
8
DEFAULT_255_2_778
10
12.3425336
20
4.1016332
11
12.3425336
21
6.5490332
0
ENDSEC
0
EOF