0
SECTION
2
HEADER
9
$MEASUREMENT
70
1
0
ENDSEC
0
SECTION
2
TABLES
0
TABLE
2
LTYPE
0
LTYPE
72
65
70
64
2
CONTINUOUS
3
______
73
0
40
0
0
ENDTAB
0
TABLE
2
LAYER
0
LAYER
2
DEFAULT_255_2_778
70
0
62
255
6
CONTINUOUS
0
ENDTAB
0
ENDSEC
0
SECTION
2
ENTITIES
0
ARC
8
DEFAULT_255_2_778
10
20.8572485
20
114.8863835
40
20.7249804
50
173.886013
51
180.011755
0
ARC
8
DEFAULT_255_2_778
10
20.501686
20
114.9237827
40
20.3674571
50
166.8527399
51
173.8840907
0
ARC
8
DEFAULT_255_2_778
10
20.3358695
20
114.9613545
40
20.1974409
50
158.3761194
51
166.8495381
0
ARC
8
DEFAULT_255_2_778
10
20.3476891
20
114.9546487
40
20.2109
50
147.2481015
51
158.3707948
0
ARC
8
DEFAULT_255_2_778
10
20.4344182
20
114.8989904
40
20.3139522
50
117.5455429
51
147.2484141
0
ARC
8
DEFAULT_255_2_778
10
20.368849
20
115.0105666
40
20.1847022
50
108.1855724
51
117.5269853
0
ARC
8
DEFAULT_255_2_778
10
20.3846018
20
114.9577633
40
20.2397843
50
100.3371356
51
108.1812872
0
ARC
8
DEFAULT_255_2_778
10
20.4264294
20
114.7242745
40
20.4769889
50
93.8756307
51
100.3350412
0
ARC
8
DEFAULT_255_2_778
10
20.4504369
20
114.3942384
40
20.8078931
50
89.9949565
51
93.8801608
0
ARC
8
DEFAULT_255_2_778
10
115.2832206
20
114.4771515
40
20.7249804
50
83.886013
51
90.011755
0
ARC
8
DEFAULT_255_2_778
10
115.3206198
20
114.832714
40
20.3674571
50
76.8527399
51
83.8840907
0
ARC
8
DEFAULT_255_2_778
10
115.3581916
20
114.9985305
40
20.1974409
50
68.3761194
51
76.8495381
0
ARC
8
DEFAULT_255_2_778
10
115.3514858
20
114.9867109
40
20.2109
50
57.2481015
51
68.3707948
0
ARC
8
DEFAULT_255_2_778
10
115.2958275
20
114.8999818
40
20.3139522
50
27.5455429
51
57.2484141
0
ARC
8
DEFAULT_255_2_778
10
115.4074037
20
114.965551
40
20.1847022
50
18.1855724
51
27.5269853
0
ARC
8
DEFAULT_255_2_778
10
115.3546004
20
114.9497982
40
20.2397843
50
10.3371356
51
18.1812872
0
ARC
8
DEFAULT_255_2_778
10
115.1211116
20
114.9079706
40
20.4769889
50
3.8756307
51
10.3350412
0
ARC
8
DEFAULT_255_2_778
10
114.7910755
20
114.8839631
40
20.8078931
50
359.9949565
51
3.8801608
0
ARC
8
DEFAULT_255_2_778
10
114.8739886
20
20.0511794
40
20.7249804
50
353.886013
51
0.011755
0
ARC
8
DEFAULT_255_2_778
10
115.2295511
20
20.0137802
40
20.3674571
50
346.8527399
51
353.8840907
0
ARC
8
DEFAULT_255_2_778
10
115.3953676
20
19.9762084
40
20.1974409
50
338.3761194
51
346.8495381
0
ARC
8
DEFAULT_255_2_778
10
115.383548
20
19.9829142
40
20.2109
50
327.2481015
51
338.3707948
0
ARC
8
DEFAULT_255_2_778
10
115.2968189
20
20.0385725
40
20.3139522
50
297.5455429
51
327.2484141
0
ARC
8
DEFAULT_255_2_778
10
115.3623881
20
19.9269963
40
20.1847022
50
288.1855724
51
297.5269853
0
ARC
8
DEFAULT_255_2_778
10
115.3466353
20
19.9797996
40
20.2397843
50
280.3371356
51
288.1812872
0
ARC
8
DEFAULT_255_2_778
10
115.3048077
20
20.2132884
40
20.4769889
50
273.8756307
51
280.3350412
0
ARC
8
DEFAULT_255_2_778
10
115.2808002
20
20.5433245
40
20.8078931
50
269.9949565
51
273.8801608
0
ARC
8
DEFAULT_255_2_778
10
20.4480165
20
20.4604114
40
20.7249804
50
263.886013
51
270.011755
0
ARC
8
DEFAULT_255_2_778
10
20.4106173
20
20.1048489
40
20.3674571
50
256.8527399
51
263.8840907
0
ARC
8
DEFAULT_255_2_778
10
20.3730455
20
19.9390324
40
20.1974409
50
248.3761194
51
256.8495381
0
ARC
8
DEFAULT_255_2_778
10
20.3797513
20
19.950852
40
20.2109
50
237.2481015
51
248.3707948
0
ARC
8
DEFAULT_255_2_778
10
20.4354096
20
20.0375811
40
20.3139522
50
207.5455429
51
237.2484141
0
ARC
8
DEFAULT_255_2_778
10
20.3238334
20
19.9720119
40
20.1847022
50
198.1855724
51
207.5269853
0
ARC
8
DEFAULT_255_2_778
10
20.3766367
20
19.9877647
40
20.2397843
50
190.3371356
51
198.1812872
0
ARC
8
DEFAULT_255_2_778
10
20.6101255
20
20.0295923
40
20.4769889
50
183.8756307
51
190.3350412
0
ARC
8
DEFAULT_255_2_778
10
20.9401616
20
20.0535998
40
20.8078931
50
179.9949565
51
183.8801608
0
LINE
8
DEFAULT_255_2_778
10
20.4522686
20
135.2021314
11
115.2789686
21
135.2021314
0
LINE
8
DEFAULT_255_2_778
10
135.5989686
20
114.8821314
11
135.5989686
21
20.0554314
0
LINE
8
DEFAULT_255_2_778
10
115.2789686
20
-0.2645686
11
20.4522686
21
-0.2645686
0
LINE
8
DEFAULT_255_2_778
10
0.1322686
20
20.0554314
11
0.1322686
21
114.8821314
0
ARC
8
DEFAULT_255_2_778
10
67.8690692
20
68.235698
40
51.3022828
50
269.9961084
51
273.6231368
0
ARC
8
DEFAULT_255_2_778
10
67.9047469
20
67.6716371
40
50.7370948
50
273.6231805
51
277.794015
0
ARC
8
DEFAULT_255_2_778
10
67.9571327
20
67.284419
40
50.3463496
50
277.7947088
51
282.4069261
0
ARC
8
DEFAULT_255_2_778
10
67.996565
20
67.1007874
40
50.1585341
50
282.4080026
51
287.3503309
0
ARC
8
DEFAULT_255_2_778
10
67.9939438
20
67.1055217
40
50.1638347
50
287.351576
51
293.0824499
0
ARC
8
DEFAULT_255_2_778
10
67.9187462
20
67.2775913
40
50.3516103
50
293.0844033
51
300.2554467
0
ARC
8
DEFAULT_255_2_778
10
67.7538765
20
67.5555795
40
50.6748036
50
300.2580995
51
310.3599052
0
ARC
8
DEFAULT_255_2_778
10
67.6744649
20
67.6594976
40
50.8054147
50
310.3522534
51
327.008382
0
ARC
8
DEFAULT_255_2_778
10
67.9744034
20
67.458913
40
50.4446198
50
327.013969
51
334.8218396
0
ARC
8
DEFAULT_255_2_778
10
68.1916603
20
67.3546931
40
50.203666
50
334.8239959
51
341.0150135
0
ARC
8
DEFAULT_255_2_778
10
68.2504119
20
67.3331002
40
50.1410858
50
341.016505
51
346.3010612
0
ARC
8
DEFAULT_255_2_778
10
68.1195613
20
67.3640344
40
50.27554
50
346.3021254
51
350.9863946
0
ARC
8
DEFAULT_255_2_778
10
67.7848663
20
67.4162895
40
50.6142887
50
350.9873302
51
355.346384
0
ARC
8
DEFAULT_255_2_778
10
67.2397673
20
67.4601208
40
51.1611467
50
355.3469865
51
359.3490034
0
ARC
8
DEFAULT_255_2_778
10
66.8251023
20
67.4686856
40
51.5758824
50
359.3447232
51
0.000144
0
ARC
8
DEFAULT_255_2_778
10
67.098702
20
67.4722997
40
51.3022828
50
359.9961084
51
3.6231368
0
ARC
8
DEFAULT_255_2_778
10
67.6627629
20
67.5079774
40
50.7370948
50
3.6231805
51
7.794015
0
ARC
8
DEFAULT_255_2_778
10
68.049981
20
67.5603632
40
50.3463496
50
7.7947088
51
12.4069261
0
ARC
8
DEFAULT_255_2_778
10
68.2336126
20
67.5997955
40
50.1585341
50
12.4080026
51
17.3503309
0
ARC
8
DEFAULT_255_2_778
10
68.2288783
20
67.5971743
40
50.1638347
50
17.351576
51
23.0824499
0
ARC
8
DEFAULT_255_2_778
10
68.0568087
20
67.5219767
40
50.3516103
50
23.0844033
51
30.2554467
0
ARC
8
DEFAULT_255_2_778
10
67.7788205
20
67.3571071
40
50.6748036
50
30.2580995
51
40.3599052
0
ARC
8
DEFAULT_255_2_778
10
67.6749024
20
67.2776954
40
50.8054147
50
40.3522534
51
57.008382
0
ARC
8
DEFAULT_255_2_778
10
67.875487
20
67.5776339
40
50.4446198
50
57.013969
51
64.8218396
0
ARC
8
DEFAULT_255_2_778
10
67.9797069
20
67.7948908
40
50.203666
50
64.8239959
51
71.0150135
0
ARC
8
DEFAULT_255_2_778
10
68.0012998
20
67.8536424
40
50.1410858
50
71.016505
51
76.3010612
0
ARC
8
DEFAULT_255_2_778
10
67.9703656
20
67.7227918
40
50.27554
50
76.3021254
51
80.9863946
0
ARC
8
DEFAULT_255_2_778
10
67.9181105
20
67.3880968
40
50.6142887
50
80.9873302
51
85.346384
0
ARC
8
DEFAULT_255_2_778
10
67.8742792
20
66.8429979
40
51.1611467
50
85.3469865
51
89.3490034
0
ARC
8
DEFAULT_255_2_778
10
67.8657144
20
66.4283329
40
51.5758824
50
89.3447232
51
90.000144
0
ARC
8
DEFAULT_255_2_778
10
67.8621003
20
66.7019325
40
51.3022828
50
89.9961084
51
93.6231368
0
ARC
8
DEFAULT_255_2_778
10
67.8264226
20
67.2659934
40
50.7370948
50
93.6231805
51
97.794015
0
ARC
8
DEFAULT_255_2_778
10
67.7740368
20
67.6532115
40
50.3463496
50
97.7947088
51
102.4069261
0
ARC
8
DEFAULT_255_2_778
10
67.7346045
20
67.8368431
40
50.1585341
50
102.4080026
51
107.3503309
0
ARC
8
DEFAULT_255_2_778
10
67.7372257
20
67.8321088
40
50.1638347
50
107.351576
51
113.0824499
0
ARC
8
DEFAULT_255_2_778
10
67.8124233
20
67.6600392
40
50.3516103
50
113.0844033
51
120.2554467
0
ARC
8
DEFAULT_255_2_778
10
67.9772929
20
67.382051
40
50.6748036
50
120.2580995
51
130.3599052
0
ARC
8
DEFAULT_255_2_778
10
68.0567046
20
67.2781329
40
50.8054147
50
130.3522534
51
147.008382
0
ARC
8
DEFAULT_255_2_778
10
67.7567661
20
67.4787175
40
50.4446198
50
147.013969
51
154.8218396
0
ARC
8
DEFAULT_255_2_778
10
67.5395092
20
67.5829374
40
50.203666
50
154.8239959
51
161.0150135
0
ARC
8
DEFAULT_255_2_778
10
67.4807576
20
67.6045304
40
50.1410858
50
161.016505
51
166.3010612
0
ARC
8
DEFAULT_255_2_778
10
67.6116082
20
67.5735961
40
50.27554
50
166.3021254
51
170.9863946
0
ARC
8
DEFAULT_255_2_778
10
67.9463032
20
67.521341
40
50.6142887
50
170.9873302
51
175.346384
0
ARC
8
DEFAULT_255_2_778
10
68.4914021
20
67.4775097
40
51.1611467
50
175.3469865
51
179.3490034
0
ARC
8
DEFAULT_255_2_778
10
68.9060671
20
67.4689449
40
51.5758824
50
179.3447232
51
180.000144
0
ARC
8
DEFAULT_255_2_778
10
68.2629199
20
67.4728021
40
31.3535354
50
174.9312009
51
180.0072856
0
ARC
8
DEFAULT_255_2_778
10
67.8603561
20
67.5076321
40
30.9494685
50
169.4718132
51
174.9295838
0
ARC
8
DEFAULT_255_2_778
10
67.6578294
20
67.544359
40
30.7436407
50
163.132667
51
169.4701416
0
ARC
8
DEFAULT_255_2_778
10
67.6485665
20
67.5456494
40
30.7344018
50
155.6370172
51
163.1299587
0
ARC
8
DEFAULT_255_2_778
10
67.8058681
20
67.4718376
40
30.9081443
50
145.577672
51
155.6326619
0
ARC
8
DEFAULT_255_2_778
10
67.9750301
20
67.3577925
40
31.1121533
50
119.6375586
51
145.580527
0
ARC
8
DEFAULT_255_2_778
10
67.8197372
20
67.612334
40
30.8141206
50
110.9916024
51
119.6206337
0
ARC
8
DEFAULT_255_2_778
10
67.7823542
20
67.7046123
40
30.7145749
50
103.9319407
51
110.9881607
0
ARC
8
DEFAULT_255_2_778
10
67.8049901
20
67.6079225
40
30.8138705
50
97.8608746
51
103.9295049
0
ARC
8
DEFAULT_255_2_778
10
67.8442208
20
67.3212638
40
31.103201
50
92.9490863
51
97.8602415
0
ARC
8
DEFAULT_255_2_778
10
67.8641343
20
66.9630945
40
31.4619206
50
89.9973586
51
92.9517448
0
ARC
8
DEFAULT_255_2_778
10
67.869571
20
67.0714454
40
31.3535701
50
84.9312039
51
90.0072846
0
ARC
8
DEFAULT_255_2_778
10
67.9043982
20
67.473976
40
30.9495365
50
79.4718234
51
84.9295871
0
ARC
8
DEFAULT_255_2_778
10
67.9411124
20
67.6764304
40
30.7437821
50
73.1326984
51
79.4701534
0
ARC
8
DEFAULT_255_2_778
10
67.9423863
20
67.6856446
40
30.7345947
50
65.6370775
51
73.129987
0
ARC
8
DEFAULT_255_2_778
10
67.8685759
20
67.5283473
40
30.9083326
50
55.5777685
51
65.632721
0
ARC
8
DEFAULT_255_2_778
10
67.7545749
20
67.359239
40
31.1122723
50
29.6377114
51
55.5806339
0
ARC
8
DEFAULT_255_2_778
10
68.0092171
20
67.5146014
40
30.8141175
50
20.991727
51
29.6207684
0
ARC
8
DEFAULT_255_2_778
10
68.1016057
20
67.5520278
40
30.7144532
50
13.9320317
51
20.9882837
0
ARC
8
DEFAULT_255_2_778
10
68.0049929
20
67.5294098
40
30.8136696
50
7.8609265
51
13.9295979
0
ARC
8
DEFAULT_255_2_778
10
67.7183505
20
67.4901765
40
31.1029842
50
2.9491118
51
7.8603016
0
ARC
8
DEFAULT_255_2_778
10
67.360267
20
67.4702619
40
31.461618
50
359.9973656
51
2.9517802
0
ARC
8
DEFAULT_255_2_778
10
67.4684182
20
67.4648357
40
31.3534668
50
354.9311749
51
0.0072723
0
ARC
8
DEFAULT_255_2_778
10
67.8710176
20
67.4300073
40
30.9493647
50
349.471754
51
354.9295487
0
ARC
8
DEFAULT_255_2_778
10
68.0734742
20
67.3932924
40
30.7436081
50
343.1325909
51
349.4700841
0
ARC
8
DEFAULT_255_2_778
10
68.0826076
20
67.3920392
40
30.7345041
50
335.6369488
51
343.1298861
0
ARC
8
DEFAULT_255_2_778
10
67.9252383
20
67.465882
40
30.908321
50
325.5776235
51
335.6325933
0
ARC
8
DEFAULT_255_2_778
10
67.7559996
20
67.579978
40
31.1124219
50
299.6376261
51
325.5804814
0
ARC
8
DEFAULT_255_2_778
10
67.9113463
20
67.3253519
40
30.8142888
50
290.9916801
51
299.6206929
0
ARC
8
DEFAULT_255_2_778
10
67.9487755
20
67.232951
40
30.7146121
50
283.9320117
51
290.9882399
0
ARC
8
DEFAULT_255_2_778
10
67.9261683
20
67.329525
40
30.8137881
50
277.8609204
51
283.929576
0
ARC
8
DEFAULT_255_2_778
10
67.8869442
20
67.6161012
40
31.1030359
50
272.9491107
51
277.8602955
0
ARC
8
DEFAULT_255_2_778
10
67.8670313
20
67.9741466
40
31.4616315
50
269.9973656
51
272.9517795
0
LINE
8
DEFAULT_255_2_778
10
20.7697847
20
36.5125153
11
20.7697847
21
48.9480153
0
LINE
8
DEFAULT_255_2_778
10
20.7697847
20
48.9480153
11
33.2051847
21
48.9480153
0
LINE
8
DEFAULT_255_2_778
10
33.2051847
20
48.9480153
11
33.2051847
21
21.4313153
0
LINE
8
DEFAULT_255_2_778
10
33.2051847
20
21.4313153
11
48.2863847
21
21.4313153
0
LINE
8
DEFAULT_255_2_778
10
48.2863847
20
21.4313153
11
48.2863847
21
55.8271153
0
LINE
8
DEFAULT_255_2_778
10
48.2863847
20
55.8271153
11
67.8655847
21
55.8271153
0
LINE
8
DEFAULT_255_2_778
10
67.8655847
20
55.8271153
11
67.8655847
21
16.9334153
0
LINE
8
DEFAULT_255_2_778
10
17.3301847
20
67.4688153
11
36.9093847
21
67.4688153
0
ENDSEC
0
EOF