0
SECTION
2
HEADER
9
$MEASUREMENT
70
1
0
ENDSEC
0
SECTION
2
TABLES
0
TABLE
2
LTYPE
0
LTYPE
72
65
70
64
2
CONTINUOUS
3
______
73
0
40
0
0
ENDTAB
0
TABLE
2
LAYER
0
LAYER
2
DEFAULT_255_2_778
70
0
62
255
6
CONTINUOUS
0
ENDTAB
0
ENDSEC
0
SECTION
2
ENTITIES
0
ARC
8
DEFAULT_255_2_778
10
9.1382332
20
5.8330937
40
2.2995875
50
270.0358
51
275.1806276
0
ARC
8
DEFAULT_255_2_778
10
9.1204648
20
6.0141287
40
2.4814878
50
275.211777
51
288.6977564
0
ARC
8
DEFAULT_255_2_778
10
9.2089742
20
5.7606305
40
2.2129962
50
288.6311475
51
293.5824175
0
ARC
8
DEFAULT_255_2_778
10
9.4160587
20
5.2981774
40
1.7063234
50
293.4220026
51
300.9369482
0
ARC
8
DEFAULT_255_2_778
10
11.407183
20
4.6448875
40
1.3774458
50
185.8766194
51
216.0328352
0
ARC
8
DEFAULT_255_2_778
10
11.7766241
20
4.7187208
40
1.7528668
50
185.3065927
51
187.0409901
0
ARC
8
DEFAULT_255_2_778
10
11.7822128
20
4.7173842
40
1.7583088
50
180.7697382
51
185.2463817
0
ARC
8
DEFAULT_255_2_778
10
11.8824711
20
4.7199859
40
1.8585934
50
179.9996537
51
180.8084157
0
ARC
8
DEFAULT_255_2_778
10
11.9186834
20
4.7198178
40
1.8948055
50
172.4283659
51
179.9945767
0
ARC
8
DEFAULT_255_2_778
10
11.463772
20
4.8039446
40
1.4329675
50
150.9691015
51
173.3660972
0
ARC
8
DEFAULT_255_2_778
10
10.9857471
20
5.048047
40
0.896736
50
139.4010946
51
149.784198
0
ARC
8
DEFAULT_255_2_778
10
9.4273115
20
4.1503187
40
1.8846527
50
16.711383
51
52.9715872
0
ARC
8
DEFAULT_255_2_778
10
9.9983833
20
4.3781634
40
1.2733288
50
6.6403376
51
14.2803916
0
ARC
8
DEFAULT_255_2_778
10
11.7783223
20
2.7619288
40
1.8371815
50
90.60337
51
106.2842924
0
ARC
8
DEFAULT_255_2_778
10
11.7794135
20
2.7637982
40
1.835324
50
89.9994652
51
90.6380492
0
ARC
8
DEFAULT_255_2_778
10
11.7967595
20
2.9902946
40
1.608921
50
64.9823485
51
90.6171128
0
ARC
8
DEFAULT_255_2_778
10
11.916488
20
3.2907656
40
1.2861422
50
60.0097266
51
64.1549153
0
ARC
8
DEFAULT_255_2_778
10
11.4529327
20
4.7549811
40
1.3215528
50
312.5340589
51
333.165219
0
ARC
8
DEFAULT_255_2_778
10
11.2914222
20
5.0048727
40
1.6156489
50
274.5858842
51
310.7634415
0
ARC
8
DEFAULT_255_2_778
10
11.1532089
20
5.8154128
40
2.4357382
50
269.9229728
51
276.3025028
0
ARC
8
DEFAULT_255_2_778
10
11.1500757
20
6.0368244
40
2.6571475
50
268.6704181
51
269.9969523
0
ARC
8
DEFAULT_255_2_778
10
11.1521391
20
6.122806
40
2.7431538
50
267.0020199
51
268.6690038
0
ARC
8
DEFAULT_255_2_778
10
5.2804806
20
5.6732017
40
6.168899
50
330.0650599
51
338.2113599
0
ARC
8
DEFAULT_255_2_778
10
5.8689984
20
5.3335697
40
5.4894121
50
319.5394627
51
330.0717672
0
ARC
8
DEFAULT_255_2_778
10
6.021457
20
5.2342372
40
5.3090055
50
288.4898732
51
319.2873924
0
ARC
8
DEFAULT_255_2_778
10
5.596226
20
6.3678655
40
6.519119
50
278.7507522
51
288.8745209
0
ARC
8
DEFAULT_255_2_778
10
5.4104522
20
7.5442504
40
7.7100744
50
270.9421607
51
278.7852362
0
ARC
8
DEFAULT_255_2_778
10
5.3825785
20
8.3048364
40
8.4710298
50
269.9979136
51
271.0460758
0
ARC
8
DEFAULT_255_2_778
10
5.3594514
20
4.4885985
40
4.6548477
50
256.8975112
51
270.2808719
0
ARC
8
DEFAULT_255_2_778
10
5.0257493
20
3.2311584
40
3.3547336
50
222.5499444
51
257.5800242
0
ARC
8
DEFAULT_255_2_778
10
5.0072176
20
3.165102
40
3.2966102
50
210.3939423
51
221.9219631
0
ARC
8
DEFAULT_255_2_778
10
4.7945291
20
2.9282719
40
2.9948902
50
205.1778598
51
208.5441399
0
ARC
8
DEFAULT_255_2_778
10
15.460837
20
8.1001158
40
14.8487496
50
205.7159159
51
205.7285389
0
ARC
8
DEFAULT_255_2_778
10
-4.7255013
20
-1.6098954
40
7.551536
50
25.6344023
51
26.1691792
0
ARC
8
DEFAULT_255_2_778
10
4.944367
20
3.0081648
40
3.1660738
50
179.6063744
51
203.9980172
0
ARC
8
DEFAULT_255_2_778
10
5.3910413
20
3.0284436
40
3.6126738
50
174.8897039
51
179.976652
0
ARC
8
DEFAULT_255_2_778
10
5.4734754
20
3.0226124
40
3.6952999
50
174.7006663
51
174.9134993
0
LINE
8
DEFAULT_255_2_778
10
7.4576701
20
4.6754067
11
8.5747701
21
4.6754067
0
LINE
8
DEFAULT_255_2_778
10
8.5747701
20
4.6754067
11
8.5747701
21
3.5335067
0
LINE
8
DEFAULT_255_2_778
10
8.5747701
20
3.5335067
11
9.1396701
21
3.5335067
0
LINE
8
DEFAULT_255_2_778
10
10.3048701
20
5.6316067
11
10.4223701
21
5.7673067
0
LINE
8
DEFAULT_255_2_778
10
10.4223701
20
5.7673067
11
10.5622701
21
5.6549067
0
LINE
8
DEFAULT_255_2_778
10
12.5593701
20
4.4047067
11
12.7128701
21
4.3161067
0
LINE
8
DEFAULT_255_2_778
10
12.7128701
20
4.3161067
11
12.6321701
21
4.1584067
0
LINE
8
DEFAULT_255_2_778
10
1.7939701
20
3.3639067
11
1.8095701
21
3.5327067
0
LINE
8
DEFAULT_255_2_778
10
1.8095701
20
3.5327067
11
2.7650701
21
3.5327067
0
LINE
8
DEFAULT_255_2_778
10
2.7650701
20
3.5327067
11
2.7650701
21
4.6754067
0
LINE
8
DEFAULT_255_2_778
10
2.7650701
20
4.6754067
11
3.8820701
21
4.6754067
0
LINE
8
DEFAULT_255_2_778
10
3.8820701
20
4.6754067
11
3.8820701
21
5.7927067
0
LINE
8
DEFAULT_255_2_778
10
3.8820701
20
5.7927067
11
6.1164701
21
5.7927067
0
LINE
8
DEFAULT_255_2_778
10
6.1164701
20
5.7927067
11
6.1164701
21
6.9098067
0
LINE
8
DEFAULT_255_2_778
10
6.1164701
20
6.9098067
11
7.4571701
21
6.9098067
0
LINE
8
DEFAULT_255_2_778
10
7.4571701
20
6.9098067
11
7.4571701
21
4.6754067
0
ARC
8
DEFAULT_255_2_778
10
11.4496561
20
4.7603443
40
1.1398908
50
308.214472
51
333.1585173
0
ARC
8
DEFAULT_255_2_778
10
11.3125212
20
4.9745987
40
1.3932839
50
279.8142349
51
307.1948924
0
ARC
8
DEFAULT_255_2_778
10
11.1627842
20
5.6673715
40
2.1016483
50
269.7453305
51
280.6173964
0
ARC
8
DEFAULT_255_2_778
10
11.1570792
20
6.1955805
40
2.629839
50
264.0821
51
269.9207747
0
ARC
8
DEFAULT_255_2_778
10
5.1473382
20
5.7353497
40
6.130095
50
331.7415453
51
339.412278
0
ARC
8
DEFAULT_255_2_778
10
5.7763376
20
5.3967256
40
5.4157377
50
322.2049902
51
331.7464927
0
ARC
8
DEFAULT_255_2_778
10
6.1034269
20
5.1447319
40
5.0028378
50
308.1365528
51
322.1898121
0
ARC
8
DEFAULT_255_2_778
10
5.91339
20
5.4378749
40
5.3508549
50
285.956062
51
307.7986658
0
ARC
8
DEFAULT_255_2_778
10
5.5270521
20
6.6808537
40
6.6522163
50
276.0090896
51
286.212373
0
ARC
8
DEFAULT_255_2_778
10
5.3910798
20
7.8561099
40
7.8352589
50
269.931659
51
276.0982445
0
ARC
8
DEFAULT_255_2_778
10
5.3670614
20
4.785386
40
4.764552
50
260.4235661
51
270.1764455
0
ARC
8
DEFAULT_255_2_778
10
5.1989346
20
3.8177004
40
3.7823846
50
247.260992
51
260.4962264
0
ARC
8
DEFAULT_255_2_778
10
4.8982346
20
3.1226199
40
3.0251108
50
221.9177065
51
247.4249346
0
ARC
8
DEFAULT_255_2_778
10
3.4171466
20
1.6462885
40
0.9430743
50
212.9604391
51
215.2753761
0
ARC
8
DEFAULT_255_2_778
10
4.0158537
20
2.0366109
40
1.657777
50
212.3801066
51
213.0214813
0
ARC
8
DEFAULT_255_2_778
10
0.5857298
20
-0.1042585
40
2.3856935
50
31.6847524
51
34.3608274
0
ARC
8
DEFAULT_255_2_778
10
1.2948313
20
0.3662733
40
1.5348064
50
34.8011523
51
36.6229537
0
ARC
8
DEFAULT_255_2_778
10
4.3362227
20
2.6651598
40
2.2777485
50
210.1054593
51
217.3953678
0
ARC
8
DEFAULT_255_2_778
10
4.8111984
20
2.9654186
40
2.8408598
50
188.9488017
51
206.8244517
0
ARC
8
DEFAULT_255_2_778
10
5.1446297
20
3.0232071
40
3.179226
50
179.9175979
51
189.0428628
0
ARC
8
DEFAULT_255_2_778
10
5.4396925
20
3.0262205
40
3.4742858
50
175.369574
51
179.9742906
0
ARC
8
DEFAULT_255_2_778
10
5.5779935
20
3.0166593
40
3.6129078
50
174.7514252
51
175.3954999
0
ARC
8
DEFAULT_255_2_778
10
9.1277897
20
5.978683
40
2.6315516
50
270.2513528
51
286.037454
0
ARC
8
DEFAULT_255_2_778
10
9.1946849
20
5.7851302
40
2.4270748
50
285.7820335
51
295.524854
0
ARC
8
DEFAULT_255_2_778
10
9.5326642
20
5.0871331
40
1.6515727
50
295.3783413
51
305.6417629
0
ARC
8
DEFAULT_255_2_778
10
9.8648575
20
4.6121025
40
1.0719743
50
306.0074661
51
311.4689643
0
ARC
8
DEFAULT_255_2_778
10
11.1909395
20
4.5326403
40
0.950564
50
197.1572314
51
229.5900258
0
ARC
8
DEFAULT_255_2_778
10
11.6714803
20
4.7063836
40
1.4611748
50
182.5919509
51
198.1083422
0
ARC
8
DEFAULT_255_2_778
10
11.8567088
20
4.7233152
40
1.6470016
50
179.9959621
51
182.8889662
0
ARC
8
DEFAULT_255_2_778
10
11.8260096
20
4.7260343
40
1.6163044
50
166.9651092
51
180.0922716
0
ARC
8
DEFAULT_255_2_778
10
11.4694878
20
4.8104215
40
1.2499374
50
156.0083099
51
167.0476776
0
ARC
8
DEFAULT_255_2_778
10
11.0820357
20
4.9849991
40
0.8249778
50
142.7879657
51
156.144107
0
ARC
8
DEFAULT_255_2_778
10
10.9104107
20
5.1080252
40
0.6139207
50
139.1774164
51
142.2452911
0
ARC
8
DEFAULT_255_2_778
10
9.0618191
20
3.7866562
40
2.2097951
50
48.5766349
51
51.2216563
0
ARC
8
DEFAULT_255_2_778
10
9.0578607
20
3.7815344
40
2.2162546
50
45.5220415
51
48.5875044
0
ARC
8
DEFAULT_255_2_778
10
9.1125106
20
3.837318
40
2.1381623
50
43.481032
51
45.5196278
0
ARC
8
DEFAULT_255_2_778
10
9.3225544
20
4.0273138
40
1.855027
50
33.0831451
51
43.6871323
0
ARC
8
DEFAULT_255_2_778
10
9.8101959
20
4.3307575
40
1.2808615
50
10.2314201
51
33.6169272
0
ARC
8
DEFAULT_255_2_778
10
10.0373672
20
4.3857631
40
1.0476229
50
0.0258765
51
9.4777673
0
ARC
8
DEFAULT_255_2_778
10
10.0477845
20
4.3863218
40
1.0372056
50
353.7693106
51
359.9952711
0
ARC
8
DEFAULT_255_2_778
10
10.0331578
20
4.3877863
40
1.0519048
50
352.6137919
51
353.7764799
0
ARC
8
DEFAULT_255_2_778
10
11.6898119
20
3.021819
40
1.3751618
50
107.7946599
51
116.4945793
0
ARC
8
DEFAULT_255_2_778
10
11.7893974
20
2.7200752
40
1.6929057
50
98.0666461
51
107.8828691
0
ARC
8
DEFAULT_255_2_778
10
11.7932697
20
2.7119779
40
1.7014685
50
90.0496606
51
98.1574905
0
ARC
8
DEFAULT_255_2_778
10
11.7929575
20
2.8418533
40
1.5715929
50
83.774353
51
90.0423817
0
ARC
8
DEFAULT_255_2_778
10
11.8318442
20
3.1060089
40
1.3048166
50
62.4234945
51
84.2139589
0
ARC
8
DEFAULT_255_2_778
10
11.8927688
20
3.2433934
40
1.154876
50
60.2101716
51
61.9473793
0
LINE
8
DEFAULT_255_2_778
10
2.3657341
20
1.5226567
11
2.3586341
21
1.5353567
0
LINE
8
DEFAULT_255_2_778
10
2.3586341
20
1.5353567
11
2.2760341
21
1.6834567
0
LINE
8
DEFAULT_255_2_778
10
1.9802341
20
3.3471567
11
9.1393341
21
3.3471567
0
LINE
8
DEFAULT_255_2_778
10
12.4665341
20
4.2456567
11
12.4667341
21
4.2456567
0
LINE
8
DEFAULT_255_2_778
10
6.3033161
20
6.723588
11
7.2717161
21
6.723588
0
LINE
8
DEFAULT_255_2_778
10
7.2717161
20
6.723588
11
7.2717161
21
5.755188
0
LINE
8
DEFAULT_255_2_778
10
7.2717161
20
5.755188
11
6.3033161
21
5.755188
0
LINE
8
DEFAULT_255_2_778
10
6.3033161
20
5.755188
11
6.3033161
21
6.723588
0
LINE
8
DEFAULT_255_2_778
10
6.4221365
20
5.836192
11
6.4221365
21
6.643192
0
LINE
8
DEFAULT_255_2_778
10
6.5674365
20
5.836192
11
6.5674365
21
6.643192
0
LINE
8
DEFAULT_255_2_778
10
6.7139365
20
5.836192
11
6.7139365
21
6.643192
0
LINE
8
DEFAULT_255_2_778
10
6.8608365
20
5.836192
11
6.8608365
21
6.643192
0
LINE
8
DEFAULT_255_2_778
10
7.0076365
20
5.836192
11
7.0076365
21
6.643192
0
LINE
8
DEFAULT_255_2_778
10
7.1526365
20
5.836192
11
7.1526365
21
6.643192
0
LINE
8
DEFAULT_255_2_778
10
2.951812
20
3.5205547
11
3.920212
21
3.5205547
0
LINE
8
DEFAULT_255_2_778
10
3.920212
20
3.5205547
11
3.920212
21
4.4886547
0
LINE
8
DEFAULT_255_2_778
10
3.920212
20
4.4886547
11
2.951812
21
4.4886547
0
LINE
8
DEFAULT_255_2_778
10
2.951812
20
4.4886547
11
2.951812
21
3.5205547
0
LINE
8
DEFAULT_255_2_778
10
3.0706405
20
4.408688
11
3.0706405
21
3.601688
0
LINE
8
DEFAULT_255_2_778
10
3.2159405
20
4.408688
11
3.2159405
21
3.601688
0
LINE
8
DEFAULT_255_2_778
10
3.3624405
20
4.408688
11
3.3624405
21
3.601688
0
LINE
8
DEFAULT_255_2_778
10
3.5093405
20
4.408688
11
3.5093405
21
3.601688
0
LINE
8
DEFAULT_255_2_778
10
3.6561405
20
4.408688
11
3.6561405
21
3.601688
0
LINE
8
DEFAULT_255_2_778
10
3.8011405
20
4.408688
11
3.8011405
21
3.601688
0
LINE
8
DEFAULT_255_2_778
10
4.0689161
20
5.6070547
11
5.0373161
21
5.6070547
0
LINE
8
DEFAULT_255_2_778
10
5.0373161
20
5.6070547
11
5.0373161
21
4.6389547
0
LINE
8
DEFAULT_255_2_778
10
5.0373161
20
4.6389547
11
4.0689161
21
4.6389547
0
LINE
8
DEFAULT_255_2_778
10
4.0689161
20
4.6389547
11
4.0689161
21
5.6070547
0
LINE
8
DEFAULT_255_2_778
10
4.0689161
20
4.489388
11
5.0373161
21
4.489388
0
LINE
8
DEFAULT_255_2_778
10
5.0373161
20
4.489388
11
5.0373161
21
3.520988
0
LINE
8
DEFAULT_255_2_778
10
5.0373161
20
3.520988
11
4.0689161
21
3.520988
0
LINE
8
DEFAULT_255_2_778
10
4.0689161
20
3.520988
11
4.0689161
21
4.489388
0
LINE
8
DEFAULT_255_2_778
10
4.1876445
20
4.718792
11
4.1876445
21
5.525792
0
LINE
8
DEFAULT_255_2_778
10
4.3329445
20
4.718792
11
4.3329445
21
5.525792
0
LINE
8
DEFAULT_255_2_778
10
4.4794445
20
4.718792
11
4.4794445
21
5.525792
0
LINE
8
DEFAULT_255_2_778
10
4.6263445
20
4.718792
11
4.6263445
21
5.525792
0
LINE
8
DEFAULT_255_2_778
10
4.7731445
20
4.718792
11
4.7731445
21
5.525792
0
LINE
8
DEFAULT_255_2_778
10
4.9181445
20
4.718792
11
4.9181445
21
5.525792
0
LINE
8
DEFAULT_255_2_778
10
4.1876445
20
3.601688
11
4.1876445
21
4.408688
0
LINE
8
DEFAULT_255_2_778
10
4.3329445
20
3.601688
11
4.3329445
21
4.408688
0
LINE
8
DEFAULT_255_2_778
10
4.4794445
20
3.601688
11
4.4794445
21
4.408688
0
LINE
8
DEFAULT_255_2_778
10
4.6263445
20
3.601688
11
4.6263445
21
4.408688
0
LINE
8
DEFAULT_255_2_778
10
4.7731445
20
3.601688
11
4.7731445
21
4.408688
0
LINE
8
DEFAULT_255_2_778
10
4.9181445
20
3.601688
11
4.9181445
21
4.408688
0
LINE
8
DEFAULT_255_2_778
10
5.186008
20
3.5205547
11
6.154408
21
3.5205547
0
LINE
8
DEFAULT_255_2_778
10
6.154408
20
3.5205547
11
6.154408
21
4.4886547
0
LINE
8
DEFAULT_255_2_778
10
6.154408
20
4.4886547
11
5.186008
21
4.4886547
0
LINE
8
DEFAULT_255_2_778
10
5.186008
20
4.4886547
11
5.186008
21
3.5205547
0
LINE
8
DEFAULT_255_2_778
10
5.186008
20
4.638088
11
6.154408
21
4.638088
0
LINE
8
DEFAULT_255_2_778
10
6.154408
20
4.638088
11
6.154408
21
5.606488
0
LINE
8
DEFAULT_255_2_778
10
6.154408
20
5.606488
11
5.186008
21
5.606488
0
LINE
8
DEFAULT_255_2_778
10
5.186008
20
5.606488
11
5.186008
21
4.638088
0
LINE
8
DEFAULT_255_2_778
10
5.3050445
20
4.408688
11
5.3050445
21
3.601688
0
LINE
8
DEFAULT_255_2_778
10
5.4503445
20
4.408688
11
5.4503445
21
3.601688
0
LINE
8
DEFAULT_255_2_778
10
5.5968445
20
4.408688
11
5.5968445
21
3.601688
0
LINE
8
DEFAULT_255_2_778
10
5.7437445
20
4.408688
11
5.7437445
21
3.601688
0
LINE
8
DEFAULT_255_2_778
10
5.8905445
20
4.408688
11
5.8905445
21
3.601688
0
LINE
8
DEFAULT_255_2_778
10
6.0355445
20
4.408688
11
6.0355445
21
3.601688
0
LINE
8
DEFAULT_255_2_778
10
5.3050445
20
5.525792
11
5.3050445
21
4.718792
0
LINE
8
DEFAULT_255_2_778
10
5.4503445
20
5.525792
11
5.4503445
21
4.718792
0
LINE
8
DEFAULT_255_2_778
10
5.5968445
20
5.525792
11
5.5968445
21
4.718792
0
LINE
8
DEFAULT_255_2_778
10
5.7437445
20
5.525792
11
5.7437445
21
4.718792
0
LINE
8
DEFAULT_255_2_778
10
5.8905445
20
5.525792
11
5.8905445
21
4.718792
0
LINE
8
DEFAULT_255_2_778
10
6.0355445
20
5.525792
11
6.0355445
21
4.718792
0
LINE
8
DEFAULT_255_2_778
10
6.3033161
20
5.6070547
11
7.2717161
21
5.6070547
0
LINE
8
DEFAULT_255_2_778
10
7.2717161
20
5.6070547
11
7.2717161
21
4.6389547
0
LINE
8
DEFAULT_255_2_778
10
7.2717161
20
4.6389547
11
6.3033161
21
4.6389547
0
LINE
8
DEFAULT_255_2_778
10
6.3033161
20
4.6389547
11
6.3033161
21
5.6070547
0
LINE
8
DEFAULT_255_2_778
10
6.3033161
20
4.489388
11
7.2717161
21
4.489388
0
LINE
8
DEFAULT_255_2_778
10
7.2717161
20
4.489388
11
7.2717161
21
3.520988
0
LINE
8
DEFAULT_255_2_778
10
7.2717161
20
3.520988
11
6.3033161
21
3.520988
0
LINE
8
DEFAULT_255_2_778
10
6.3033161
20
3.520988
11
6.3033161
21
4.489388
0
LINE
8
DEFAULT_255_2_778
10
6.4221365
20
4.718792
11
6.4221365
21
5.525792
0
LINE
8
DEFAULT_255_2_778
10
6.5674365
20
4.718792
11
6.5674365
21
5.525792
0
LINE
8
DEFAULT_255_2_778
10
6.7139365
20
4.718792
11
6.7139365
21
5.525792
0
LINE
8
DEFAULT_255_2_778
10
6.8608365
20
4.718792
11
6.8608365
21
5.525792
0
LINE
8
DEFAULT_255_2_778
10
7.0076365
20
4.718792
11
7.0076365
21
5.525792
0
LINE
8
DEFAULT_255_2_778
10
7.1526365
20
4.718792
11
7.1526365
21
5.525792
0
LINE
8
DEFAULT_255_2_778
10
6.4221365
20
3.601688
11
6.4221365
21
4.408688
0
LINE
8
DEFAULT_255_2_778
10
6.5674365
20
3.601688
11
6.5674365
21
4.408688
0
LINE
8
DEFAULT_255_2_778
10
6.7139365
20
3.601688
11
6.7139365
21
4.408688
0
LINE
8
DEFAULT_255_2_778
10
6.8608365
20
3.601688
11
6.8608365
21
4.408688
0
LINE
8
DEFAULT_255_2_778
10
7.0076365
20
3.601688
11
7.0076365
21
4.408688
0
LINE
8
DEFAULT_255_2_778
10
7.1526365
20
3.601688
11
7.1526365
21
4.408688
0
LINE
8
DEFAULT_255_2_778
10
7.420408
20
3.5205547
11
8.388808
21
3.5205547
0
LINE
8
DEFAULT_255_2_778
10
8.388808
20
3.5205547
11
8.388808
21
4.4886547
0
LINE
8
DEFAULT_255_2_778
10
8.388808
20
4.4886547
11
7.420408
21
4.4886547
0
LINE
8
DEFAULT_255_2_778
10
7.420408
20
4.4886547
11
7.420408
21
3.5205547
0
LINE
8
DEFAULT_255_2_778
10
7.5391445
20
4.408688
11
7.5391445
21
3.601688
0
LINE
8
DEFAULT_255_2_778
10
7.6843445
20
4.408688
11
7.6843445
21
3.601688
0
LINE
8
DEFAULT_255_2_778
10
7.8309445
20
4.408688
11
7.8309445
21
3.601688
0
LINE
8
DEFAULT_255_2_778
10
7.9778445
20
4.408688
11
7.9778445
21
3.601688
0
LINE
8
DEFAULT_255_2_778
10
8.1246445
20
4.408688
11
8.1246445
21
3.601688
0
LINE
8
DEFAULT_255_2_778
10
8.2696445
20
4.408688
11
8.2696445
21
3.601688
0
ARC
8
DEFAULT_255_2_778
10
4.9761243
20
1.6841652
40
0.2673439
50
315.0009761
51
359.9919654
0
ARC
8
DEFAULT_255_2_778
10
4.9761311
20
1.6841714
40
0.2673435
50
270.0079609
51
314.9990041
0
ARC
8
DEFAULT_255_2_778
10
4.976282
20
1.6841136
40
0.267286
50
224.9957837
51
269.9756146
0
ARC
8
DEFAULT_255_2_778
10
4.9763113
20
1.6841647
40
0.267343
50
180.0079336
51
224.999082
0
ARC
8
DEFAULT_255_2_778
10
4.9762544
20
1.684014
40
0.2672861
50
134.9958121
51
179.9756207
0
ARC
8
DEFAULT_255_2_778
10
4.9762818
20
1.6840412
40
0.2672864
50
90.024333
51
135.0040901
0
ARC
8
DEFAULT_255_2_778
10
4.9761308
20
1.6839838
40
0.2673439
50
45.0009761
51
89.9919654
0
ARC
8
DEFAULT_255_2_778
10
4.976181
20
1.6840137
40
0.2672873
50
0.0244433
51
45.0040514
0
LINE
8
DEFAULT_255_2_778
10
5.2434683
20
1.6841277
11
5.2434683
21
1.6841277
0
ARC
8
DEFAULT_255_2_778
10
5.0852082
20
1.7949336
40
0.0781985
50
120.2993057
51
179.8350637
0
ARC
8
DEFAULT_255_2_778
10
5.0834446
20
1.7951573
40
0.0764344
50
179.9988827
51
187.0041134
0
ARC
8
DEFAULT_255_2_778
10
5.083621
20
1.7951835
40
0.0766129
50
187.0075013
51
195.3908446
0
ARC
8
DEFAULT_255_2_778
10
5.0857077
20
1.7955755
40
0.0787288
50
195.2628874
51
269.45279
0
ARC
8
DEFAULT_255_2_778
10
5.0850227
20
1.7946409
40
0.0777907
50
269.950697
51
331.60712
0
ARC
8
DEFAULT_255_2_778
10
4.9777829
20
1.6848123
40
0.1901745
50
0.08332
51
22.5200188
0
ARC
8
DEFAULT_255_2_778
10
4.9975339
20
1.6850889
40
0.1704233
50
359.7516972
51
359.9999983
0
ARC
8
DEFAULT_255_2_778
10
4.9765891
20
1.684417
40
0.1913667
50
270.0199697
51
359.9800303
0
ARC
8
DEFAULT_255_2_778
10
4.9767867
20
1.6844813
40
0.191431
50
180.039197
51
269.960818
0
ARC
8
DEFAULT_255_2_778
10
4.9767867
20
1.6842194
40
0.191431
50
90.039182
51
179.960803
0
ARC
8
DEFAULT_255_2_778
10
4.9767541
20
1.6849635
40
0.1906869
50
68.7211385
51
90.0295384
0
ARC
8
DEFAULT_255_2_778
10
12.0739335
20
0.1182075
40
2.4618173
50
75.8043145
51
75.876754
0
ARC
8
DEFAULT_255_2_778
10
12.0419195
20
-0.0100021
40
2.5939633
50
75.8820097
51
75.9505017
0
ARC
8
DEFAULT_255_2_778
10
11.9678539
20
-0.3074431
40
2.9004869
50
75.9575489
51
76.0185588
0
ARC
8
DEFAULT_255_2_778
10
11.9681331
20
-0.3083575
40
2.9013068
50
76.0282714
51
76.0890071
0
ARC
8
DEFAULT_255_2_778
10
11.925339
20
-0.4812668
40
3.0794332
50
76.0895828
51
76.1465517
0
ARC
8
DEFAULT_255_2_778
10
12.0459257
20
0.0078101
40
2.5757095
50
76.1459901
51
76.2137837
0
ARC
8
DEFAULT_255_2_778
10
12.0136413
20
-0.1216153
40
2.7090999
50
76.2029493
51
76.267092
0
ARC
8
DEFAULT_255_2_778
10
11.9779549
20
-0.2658686
40
2.8577011
50
76.2586497
51
76.3191497
0
ARC
8
DEFAULT_255_2_778
10
11.6862889
20
-1.4633594
40
4.0901999
50
76.316792
51
76.3588399
0
ARC
8
DEFAULT_255_2_778
10
11.8938514
20
-0.6076473
40
3.2096743
50
76.3569857
51
76.4102778
0
ARC
8
DEFAULT_255_2_778
10
11.6045545
20
-1.8042707
40
4.4407715
50
76.4098967
51
76.4481988
0
ARC
8
DEFAULT_255_2_778
10
11.5015932
20
-2.2325084
40
4.8812129
50
76.451155
51
76.4857995
0
ARC
8
DEFAULT_255_2_778
10
11.7914088
20
-1.0249857
40
3.6393982
50
76.479653
51
76.5258425
0
ARC
8
DEFAULT_255_2_778
10
11.7251542
20
-1.2992366
40
3.9215382
50
76.518119
51
76.5607234
0
ARC
8
DEFAULT_255_2_778
10
11.2238002
20
-3.3952945
40
6.0767214
50
76.5562859
51
76.5836079
0
ARC
8
DEFAULT_255_2_778
10
11.6553379
20
-1.5851604
40
4.2158587
50
76.580378
51
76.6195071
0
ARC
8
DEFAULT_255_2_778
10
11.562916
20
-1.9699225
40
4.6115643
50
76.6086635
51
76.6442004
0
ARC
8
DEFAULT_255_2_778
10
10.742281
20
-5.4265549
40
8.1642745
50
76.6444297
51
76.6643681
0
ARC
8
DEFAULT_255_2_778
10
10.3260744
20
-7.1864197
40
9.9726858
50
76.669755
51
76.6859661
0
ARC
8
DEFAULT_255_2_778
10
11.3200956
20
-2.9841346
40
5.6544365
50
76.6815895
51
76.7099817
0
ARC
8
DEFAULT_255_2_778
10
11.3334346
20
-2.9246029
40
5.5934328
50
76.7027775
51
76.7312756
0
ARC
8
DEFAULT_255_2_778
10
8.4259367
20
-15.2514321
40
18.2585133
50
76.7292512
51
76.7379185
0
ARC
8
DEFAULT_255_2_778
10
11.1691791
20
-3.6118405
40
6.3000238
50
76.7369607
51
76.7618954
0
ARC
8
DEFAULT_255_2_778
10
15.617925
20
15.4737786
40
13.2972452
50
256.396553
51
256.9344466
0
ARC
8
DEFAULT_255_2_778
10
13.2446
20
5.6627269
40
3.2032171
50
253.9411079
51
256.3818963
0
ARC
8
DEFAULT_255_2_778
10
12.675274
20
3.7696988
40
1.2267933
50
241.0472974
51
255.036393
0
ARC
8
DEFAULT_255_2_778
10
12.2741286
20
3.0478705
40
0.4009931
50
214.8619528
51
241.2733528
0
ARC
8
DEFAULT_255_2_778
10
12.1379571
20
2.9448852
40
0.2304899
50
179.8335801
51
213.204443
0
ARC
8
DEFAULT_255_2_778
10
12.1767563
20
2.9448828
40
0.2692889
50
170.0189578
51
179.8570405
0
ARC
8
DEFAULT_255_2_778
10
12.2258423
20
2.9367633
40
0.3190396
50
164.737047
51
170.1107547
0
ARC
8
DEFAULT_255_2_778
10
11.161805
20
3.7010281
40
1.0171987
50
288.2571775
51
318.0273527
0
ARC
8
DEFAULT_255_2_778
10
10.9295574
20
4.349457
40
1.7058338
50
272.4418801
51
288.8421106
0
ARC
8
DEFAULT_255_2_778
10
10.8927837
20
4.7658501
40
2.1235005
50
269.9878785
51
272.9545281
0
ARC
8
DEFAULT_255_2_778
10
10.8932996
20
4.8791879
40
2.2368385
50
260.4317226
51
269.9752769
0
ARC
8
DEFAULT_255_2_778
10
10.8414565
20
4.5876754
40
1.9407656
50
253.6041457
51
260.5104261
0
ARC
8
DEFAULT_255_2_778
10
10.68155
20
4.0518942
40
1.3816369
50
246.0555998
51
253.6940398
0
ARC
8
DEFAULT_255_2_778
10
10.4503873
20
3.5368461
40
0.8170998
50
236.2538934
51
246.2124276
0
ARC
8
DEFAULT_255_2_778
10
10.2579842
20
3.2453546
40
0.467844
50
227.2240324
51
236.0159462
0
ARC
8
DEFAULT_255_2_778
10
9.6188803
20
3.1320016
40
0.3952288
50
303.4304375
51
324.4036505
0
ARC
8
DEFAULT_255_2_778
10
9.4362752
20
3.3995214
40
0.7191077
50
291.8422603
51
303.8296917
0
ARC
8
DEFAULT_255_2_778
10
9.2399899
20
3.8798547
40
1.237992
50
283.7676442
51
292.0035525
0
ARC
8
DEFAULT_255_2_778
10
9.0590238
20
4.6075554
40
1.9878539
50
277.4909792
51
283.8421477
0
ARC
8
DEFAULT_255_2_778
10
8.9294508
20
5.5840171
40
2.9728744
50
271.7588974
51
277.5134477
0
ARC
8
DEFAULT_255_2_778
10
8.8999072
20
6.2557755
40
3.645234
50
269.9870059
51
271.898958
0
ARC
8
DEFAULT_255_2_778
10
8.8998593
20
6.5350126
40
3.9244711
50
267.8981761
51
269.9886299
0
ARC
8
DEFAULT_255_2_778
10
8.8991613
20
6.6003459
40
3.989736
50
261.1002449
51
267.9426047
0
ARC
8
DEFAULT_255_2_778
10
8.7503393
20
5.6560964
40
3.0338313
50
256.1588785
51
261.1181671
0
ARC
8
DEFAULT_255_2_778
10
8.5007516
20
4.6479358
40
1.9952361
50
250.7350429
51
256.1921236
0
ARC
8
DEFAULT_255_2_778
10
8.2207631
20
3.8543473
40
1.1537104
50
243.2924685
51
250.8579939
0
ARC
8
DEFAULT_255_2_778
10
7.9561568
20
3.334635
40
0.5705282
50
231.5544445
51
243.573502
0
ARC
8
DEFAULT_255_2_778
10
7.7446205
20
3.0745217
40
0.2353137
50
207.581452
51
232.5148629
0
ARC
8
DEFAULT_255_2_778
10
7.6655517
20
3.0275671
40
0.1435776
50
199.7921923
51
205.5822277
0
ARC
8
DEFAULT_255_2_778
10
6.9370349
20
3.4980207
40
0.788405
50
300.4002994
51
318.8235286
0
ARC
8
DEFAULT_255_2_778
10
6.7006993
20
3.8912907
40
1.2472087
50
288.0685263
51
300.6222975
0
ARC
8
DEFAULT_255_2_778
10
6.5174291
20
4.4464507
40
1.8318349
50
276.742288
51
288.1325572
0
ARC
8
DEFAULT_255_2_778
10
6.4659629
20
4.8105016
40
2.1994264
50
269.9720896
51
276.9603136
0
ARC
8
DEFAULT_255_2_778
10
6.4576221
20
4.7048834
40
2.0938204
50
256.70153
51
270.1969182
0
ARC
8
DEFAULT_255_2_778
10
6.3215907
20
4.1263449
40
1.4995053
50
245.5877162
51
256.6750159
0
ARC
8
DEFAULT_255_2_778
10
6.1071277
20
3.6600907
40
0.9863024
50
231.0422264
51
245.7379565
0
ARC
8
DEFAULT_255_2_778
10
5.9323933
20
3.4362513
40
0.7023958
50
220.6214808
51
230.6455117
0
ARC
8
DEFAULT_255_2_778
10
5.2082802
20
3.0564356
40
0.2060962
50
309.4531915
51
337.9159199
0
ARC
8
DEFAULT_255_2_778
10
5.0047827
20
3.2875876
40
0.5139928
50
297.5240629
51
310.5952314
0
ARC
8
DEFAULT_255_2_778
10
4.7466954
20
3.7687299
40
1.0599657
50
290.0538129
51
297.8770502
0
ARC
8
DEFAULT_255_2_778
10
4.4620106
20
4.5388782
40
1.8810427
50
284.2895256
51
290.1555104
0
ARC
8
DEFAULT_255_2_778
10
4.1990984
20
5.5597236
40
2.935198
50
279.3282623
51
284.344397
0
ARC
8
DEFAULT_255_2_778
10
4.0360347
20
6.5429402
40
3.9318438
50
273.1772987
51
279.3506631
0
ARC
8
DEFAULT_255_2_778
10
4.0244807
20
6.6748534
40
4.0641969
50
272.1029574
51
273.2368592
0
ARC
8
DEFAULT_255_2_778
10
4.0289925
20
6.5373991
40
3.9266695
50
270.0116985
51
272.110766
0
ARC
8
DEFAULT_255_2_778
10
4.021801
20
5.9208822
40
3.3101622
50
264.2815584
51
270.1383557
0
ARC
8
DEFAULT_255_2_778
10
3.9188963
20
4.8948351
40
2.2789678
50
258.3919798
51
264.2855105
0
ARC
8
DEFAULT_255_2_778
10
3.7534135
20
4.0964359
40
1.4636012
50
251.0949478
51
258.4486749
0
ARC
8
DEFAULT_255_2_778
10
3.5600054
20
3.5379407
40
0.8725711
50
240.8159434
51
251.2277278
0
ARC
8
DEFAULT_255_2_778
10
3.369257
20
3.2014907
40
0.485825
50
224.2286745
51
241.107922
0
ARC
8
DEFAULT_255_2_778
10
3.261605
20
3.0907784
40
0.3314884
50
214.724906
51
223.4953881
0
ARC
8
DEFAULT_255_2_778
10
2.6259957
20
3.3015093
40
0.5399375
50
299.261635
51
312.2677705
0
ARC
8
DEFAULT_255_2_778
10
2.3851042
20
3.7212682
40
1.0238934
50
290.727128
51
299.540061
0
ARC
8
DEFAULT_255_2_778
10
2.172907
20
4.2726752
40
1.614715
50
283.5755674
51
290.8445896
0
ARC
8
DEFAULT_255_2_778
10
2.0521506
20
4.7623342
40
2.1190398
50
275.9542186
51
283.6417076
0
ARC
8
DEFAULT_255_2_778
10
2.0363306
20
4.8784303
40
2.2361536
50
270.0239396
51
276.0488066
0
ARC
8
DEFAULT_255_2_778
10
2.0368113
20
4.7647944
40
2.1225175
50
267.0349608
51
270.0122437
0
ARC
8
DEFAULT_255_2_778
10
1.9928886
20
4.2994248
40
1.6556171
50
248.7667508
51
267.7199135
0
ARC
8
DEFAULT_255_2_778
10
1.7505618
20
3.6799665
40
0.9904502
50
221.7262461
51
248.8552426
0
ARC
8
DEFAULT_255_2_778
10
0.7139423
20
2.9389158
40
0.3084666
50
7.2599777
51
15.3844633
0
ARC
8
DEFAULT_255_2_778
10
0.7599735
20
2.9450658
40
0.2620276
50
0.0700708
51
7.1979518
0
ARC
8
DEFAULT_255_2_778
10
0.7506054
20
2.9566694
40
0.27163
50
301.0816076
51
357.619318
0
ARC
8
DEFAULT_255_2_778
10
0.4125517
20
3.4268458
40
0.850116
50
289.0851998
51
304.2365817
0
ARC
8
DEFAULT_255_2_778
10
0.0728401
20
4.3163379
40
1.8020455
50
286.0473049
51
290.0453932
0
ARC
8
DEFAULT_255_2_778
10
-0.4178873
20
6.0441411
40
3.5981801
50
283.1319171
51
285.9515639
0
ARC
8
DEFAULT_255_2_778
10
-1.4626015
20
10.3699826
40
8.0483258
50
283.3594856
51
283.378162
0
ARC
8
DEFAULT_255_2_778
10
-1.3927281
20
10.0743782
40
7.7445758
50
283.3427904
51
283.3618512
0
ARC
8
DEFAULT_255_2_778
10
-5.1722939
20
26.019751
40
24.1317668
50
283.3313845
51
283.337392
0
ARC
8
DEFAULT_255_2_778
10
-4.9347984
20
25.0371512
40
23.1208834
50
283.3140132
51
283.3201709
0
ARC
8
DEFAULT_255_2_778
10
-2.6408717
20
15.3473908
40
13.1632957
50
283.2997404
51
283.3103624
0
ARC
8
DEFAULT_255_2_778
10
-2.5215502
20
14.8495732
40
12.6513803
50
283.2816373
51
283.292491
0
ARC
8
DEFAULT_255_2_778
10
-2.4104536
20
14.3814071
40
12.1702136
50
283.2678753
51
283.278956
0
ARC
8
DEFAULT_255_2_778
10
-4.1206978
20
21.6329196
40
19.6206747
50
283.2621251
51
283.268875
0
ARC
8
DEFAULT_255_2_778
10
4.6188373
20
-15.6609073
40
18.6835225
50
103.1119097
51
103.4247535
0
ARC
8
DEFAULT_255_2_778
10
0.9596178
20
-0.2989351
40
2.891761
50
103.5699254
51
104.169176
0
LINE
8
DEFAULT_255_2_778
10
5.0459558
20
1.8626503
11
5.0457558
21
1.8624503
0
LINE
8
DEFAULT_255_2_778
10
0.2517558
20
2.5048503
11
12.6776558
21
2.5048503
0
ARC
8
DEFAULT_255_2_778
10
4.8172866
20
2.9689953
40
2.8478265
50
188.2274355
51
206.8318118
0
ARC
8
DEFAULT_255_2_778
10
5.9367623
20
5.2854753
40
5.2203635
50
317.7762411
51
328.5465902
0
ARC
8
DEFAULT_255_2_778
10
5.9932838
20
5.2773885
40
5.1731723
50
286.7452952
51
317.4218703
0
ARC
8
DEFAULT_255_2_778
10
5.5451602
20
6.5870118
40
6.556578
50
276.6144031
51
287.1979227
0
ARC
8
DEFAULT_255_2_778
10
5.3926127
20
7.8041074
40
7.7831521
50
269.9179755
51
276.6978729
0
ARC
8
DEFAULT_255_2_778
10
5.3667977
20
4.7854926
40
4.764552
50
260.4235661
51
270.1764455
0
ARC
8
DEFAULT_255_2_778
10
5.1986709
20
3.817807
40
3.7823846
50
247.260992
51
260.4962264
0
ARC
8
DEFAULT_255_2_778
10
4.8979709
20
3.1227264
40
3.0251108
50
221.9177065
51
247.4249346
0
ARC
8
DEFAULT_255_2_778
10
3.4223104
20
1.6502351
40
0.9497229
50
212.9671869
51
215.2754131
0
ARC
8
DEFAULT_255_2_778
10
4.025505
20
2.0436111
40
1.6698525
50
212.3982174
51
213.0290155
0
ARC
8
DEFAULT_255_2_778
10
0.5607337
20
-0.120497
40
2.415315
50
31.7061554
51
34.3490663
0
ARC
8
DEFAULT_255_2_778
10
1.2808418
20
0.357312
40
1.5512321
50
34.7857428
51
36.5893252
0
ARC
8
DEFAULT_255_2_778
10
4.3433128
20
2.6706574
40
2.286865
50
210.1320595
51
217.3907812
0
LINE
8
DEFAULT_255_2_778
10
2.3657704
20
1.5226632
11
2.3585704
21
1.5353632
0
LINE
8
DEFAULT_255_2_778
10
2.3585704
20
1.5353632
11
2.2760704
21
1.6835632
0
LINE
8
DEFAULT_255_2_778
10
1.9987704
20
2.5614632
11
10.3900704
21
2.5614632
0
LINE
8
DEFAULT_255_2_778
10
2.3654704
20
1.5226632
11
2.3657704
21
1.5226632
0
ARC
8
DEFAULT_255_2_778
10
7.0041855
20
2.8211272
40
3.0901987
50
236.6756517
51
244.7608401
0
ARC
8
DEFAULT_255_2_778
10
6.6692336
20
2.3129482
40
2.4815624
50
226.2381029
51
236.6916922
0
ARC
8
DEFAULT_255_2_778
10
6.456515
20
2.0878178
40
2.1718399
50
212.1841143
51
226.1831069
0
ARC
8
DEFAULT_255_2_778
10
6.5137844
20
2.1198148
40
2.237355
50
203.3671403
51
212.0964382
0
ARC
8
DEFAULT_255_2_778
10
4.9369414
20
3.169771
40
3.0851024
50
222.0850981
51
252.1826758
0
ARC
8
DEFAULT_255_2_778
10
5.2648326
20
4.0818245
40
4.0538752
50
251.7149699
51
263.6025254
0
ARC
8
DEFAULT_255_2_778
10
5.3745093
20
4.9510727
40
4.9299462
50
263.4614614
51
270.0839433
0
ARC
8
DEFAULT_255_2_778
10
5.3803266
20
8.3135307
40
8.2923992
50
270.0097114
51
272.1058166
0
LINE
8
DEFAULT_255_2_778
10
4.4599321
20
1.2324317
11
2.6142321
21
1.1520317
0
LINE
8
DEFAULT_255_2_778
10
2.6142321
20
1.1520317
11
2.6473321
21
1.1020317
0
LINE
8
DEFAULT_255_2_778
10
5.6850321
20
0.0267317
11
5.6963321
21
0.0272317
0
ARC
8
DEFAULT_255_2_778
10
11.7258862
20
2.9252528
40
1.478285
50
105.6537699
51
114.0854301
0
ARC
8
DEFAULT_255_2_778
10
11.79357
20
2.6933844
40
1.7198181
50
95.2343846
51
105.740716
0
ARC
8
DEFAULT_255_2_778
10
11.7906933
20
2.7346792
40
1.6784333
50
90.0238997
51
95.2651992
0
ARC
8
DEFAULT_255_2_778
10
11.7911662
20
2.8460048
40
1.5671081
50
83.7481594
51
90.0428855
0
ARC
8
DEFAULT_255_2_778
10
11.8304685
20
3.1116283
40
1.2988239
50
62.1894479
51
84.195584
0
ARC
8
DEFAULT_255_2_778
10
11.8920515
20
3.2490647
40
1.1485711
50
60.0078638
51
61.7080088
0
ARC
8
DEFAULT_255_2_778
10
11.4533375
20
4.7565118
40
1.1352219
50
307.5805183
51
333.1530338
0
ARC
8
DEFAULT_255_2_778
10
11.31063
20
4.981673
40
1.4009049
50
279.6827733
51
306.5896835
0
ARC
8
DEFAULT_255_2_778
10
11.1632982
20
5.6723999
40
2.1067723
50
269.7521782
51
280.4730447
0
ARC
8
DEFAULT_255_2_778
10
11.1578278
20
6.1965584
40
2.6309136
50
264.0674006
51
269.9206855
0
ARC
8
DEFAULT_255_2_778
10
5.1474197
20
5.7353756
40
6.1300039
50
331.7408581
51
339.4114861
0
ARC
8
DEFAULT_255_2_778
10
5.7762367
20
5.3968406
40
5.4158494
50
322.2046307
51
331.7457987
0
ARC
8
DEFAULT_255_2_778
10
6.1032361
20
5.1449145
40
5.0030618
50
308.1368291
51
322.1894432
0
ARC
8
DEFAULT_255_2_778
10
5.9132321
20
5.4379993
40
5.3510126
50
285.9569653
51
307.7990428
0
ARC
8
DEFAULT_255_2_778
10
5.5269791
20
6.6806445
40
6.6520303
50
276.0096003
51
286.2131929
0
ARC
8
DEFAULT_255_2_778
10
5.3910478
20
7.8554621
40
7.8346323
50
269.9316423
51
276.0987228
0
ARC
8
DEFAULT_255_2_778
10
5.3670279
20
4.7853647
40
4.764552
50
260.4235661
51
270.1764455
0
ARC
8
DEFAULT_255_2_778
10
5.198901
20
3.8176791
40
3.7823846
50
247.260992
51
260.4962264
0
ARC
8
DEFAULT_255_2_778
10
4.898201
20
3.1225985
40
3.0251108
50
221.9177065
51
247.4249346
0
ARC
8
DEFAULT_255_2_778
10
3.4171131
20
1.6462672
40
0.9430743
50
212.9604391
51
215.2753761
0
ARC
8
DEFAULT_255_2_778
10
4.0158201
20
2.0365896
40
1.657777
50
212.3801066
51
213.0214813
0
ARC
8
DEFAULT_255_2_778
10
0.5856963
20
-0.1042798
40
2.3856935
50
31.6847524
51
34.3608274
0
ARC
8
DEFAULT_255_2_778
10
1.2947977
20
0.3662519
40
1.5348064
50
34.8011523
51
36.6229537
0
ARC
8
DEFAULT_255_2_778
10
4.3535063
20
2.6767096
40
2.298534
50
210.1384639
51
217.3623625
0
ARC
8
DEFAULT_255_2_778
10
4.8083101
20
2.964441
40
2.8378356
50
189.1577905
51
206.8314304
0
ARC
8
DEFAULT_255_2_778
10
5.1433894
20
3.0233269
40
3.1780195
50
179.9133916
51
189.2444388
0
ARC
8
DEFAULT_255_2_778
10
5.4448054
20
3.0265587
40
3.4794322
50
175.3730004
51
179.9741132
0
ARC
8
DEFAULT_255_2_778
10
5.5835955
20
3.0169846
40
3.6185428
50
174.7555929
51
175.3991745
0
ARC
8
DEFAULT_255_2_778
10
5.9129303
20
3.238745
40
3.5102222
50
178.2207134
51
179.9651195
0
ARC
8
DEFAULT_255_2_778
10
5.9306571
20
3.2387819
40
3.5279489
50
179.9658949
51
179.9931786
0
ARC
8
DEFAULT_255_2_778
10
5.4530843
20
3.2290857
40
3.0503927
50
179.8099845
51
189.860985
0
ARC
8
DEFAULT_255_2_778
10
4.8610116
20
3.1236782
40
2.4490167
50
189.8036002
51
203.7495285
0
ARC
8
DEFAULT_255_2_778
10
4.5341496
20
2.9796701
40
2.0918373
50
203.7448011
51
235.1963625
0
ARC
8
DEFAULT_255_2_778
10
4.7854522
20
3.4074344
40
2.5899165
50
242.9837572
51
252.9530419
0
ARC
8
DEFAULT_255_2_778
10
4.9204652
20
3.8433704
40
3.0462797
50
252.9288883
51
260.8978943
0
ARC
8
DEFAULT_255_2_778
10
5.0056558
20
4.3656869
40
3.5754962
50
260.8740119
51
267.3424125
0
ARC
8
DEFAULT_255_2_778
10
5.0302098
20
4.7943011
40
4.0047906
50
267.2758279
51
270.0162063
0
ARC
8
DEFAULT_255_2_778
10
5.0255042
20
5.2778678
40
4.4883609
50
270.0745296
51
275.7254451
0
ARC
8
DEFAULT_255_2_778
10
4.9530857
20
6.0094327
40
5.2235008
50
275.7152996
51
280.720475
0
ARC
8
DEFAULT_255_2_778
10
4.8066189
20
6.7883916
40
6.0161095
50
280.7110494
51
285.1458429
0
ARC
8
DEFAULT_255_2_778
10
4.5842701
20
7.611681
40
6.8688959
50
285.1418286
51
289.2743165
0
ARC
8
DEFAULT_255_2_778
10
4.3693119
20
8.2405323
40
7.5334566
50
289.2388078
51
291.0231321
0
ARC
8
DEFAULT_255_2_778
10
3.9165432
20
9.3273874
40
8.7104557
50
291.2384037
51
302.8287225
0
ARC
8
DEFAULT_255_2_778
10
3.1860018
20
10.4869183
40
10.0808627
50
302.7449134
51
318.4295862
0
ARC
8
DEFAULT_255_2_778
10
3.6211465
20
10.0958882
40
9.4958497
50
318.452573
51
322.1986288
0
LINE
8
DEFAULT_255_2_778
10
2.3657006
20
1.5226353
11
2.3586006
21
1.5353353
0
LINE
8
DEFAULT_255_2_778
10
2.3586006
20
1.5353353
11
2.2760006
21
1.6835353
0
LINE
8
DEFAULT_255_2_778
10
1.9802006
20
3.3477353
11
2.4044006
21
3.3477353
0
LINE
8
DEFAULT_255_2_778
10
3.3402006
20
1.2620353
11
3.6090006
21
1.1001353
0
LINE
8
DEFAULT_255_2_778
10
11.1242006
20
4.2756353
11
11.1224006
21
4.2729353
0
ARC
8
DEFAULT_255_2_778
10
3.2012698
20
13.4787901
40
12.3078884
50
266.644459
51
269.7726425
0
ARC
8
DEFAULT_255_2_778
10
3.1525809
20
9.5479762
40
8.3769774
50
269.9989722
51
270.1512845
0
ARC
8
DEFAULT_255_2_778
10
3.224389
20
6.5699409
40
5.3991416
50
269.4726866
51
280.4453734
0
ARC
8
DEFAULT_255_2_778
10
3.5586783
20
4.5513368
40
3.3535899
50
281.081276
51
287.2967013
0
ENDSEC
0
EOF