0
SECTION
2
HEADER
9
$MEASUREMENT
70
1
0
ENDSEC
0
SECTION
2
TABLES
0
TABLE
2
LTYPE
0
LTYPE
72
65
70
64
2
CONTINUOUS
3
______
73
0
40
0
0
ENDTAB
0
TABLE
2
LAYER
0
LAYER
2
DEFAULT_255_2_778
70
0
62
255
6
CONTINUOUS
0
LAYER
2
DEFAULT_255_1_234
70
0
62
255
6
CONTINUOUS
0
LAYER
2
DEFAULT_255_2_778_1
70
0
62
255
6
CONTINUOUS
0
ENDTAB
0
ENDSEC
0
SECTION
2
ENTITIES
0
ARC
8
DEFAULT_255_2_778
10
3.5700693
20
75.805203
40
0.7914215
50
129.1312896
51
180.1450914
0
ARC
8
DEFAULT_255_2_778
10
3.5703345
20
75.8056901
40
0.7912112
50
89.854026
51
129.1684493
0
ARC
8
DEFAULT_255_2_778
10
25.7993937
20
75.8053767
40
0.7915249
50
39.4792447
51
90.147911
0
ARC
8
DEFAULT_255_2_778
10
25.7999935
20
75.8052233
40
0.7911595
50
359.8533901
51
39.5154338
0
ARC
8
DEFAULT_255_2_778
10
25.7996693
20
-1.9863492
40
0.7914836
50
309.4761667
51
0.1482649
0
ARC
8
DEFAULT_255_2_778
10
25.799398
20
-1.9867803
40
0.7913235
50
269.8517415
51
309.511178
0
ARC
8
DEFAULT_255_2_778
10
3.570342
20
-1.9867221
40
0.7913815
50
219.1282118
51
270.1454017
0
ARC
8
DEFAULT_255_2_778
10
3.5700247
20
-1.9863397
40
0.7913769
50
179.8524075
51
219.1641908
0
LINE
8
DEFAULT_255_2_778
10
3.5723503
20
76.5968989
11
25.7973503
21
76.5968989
0
LINE
8
DEFAULT_255_2_778
10
26.5911503
20
75.8031989
11
26.5911503
21
-1.9843011
0
LINE
8
DEFAULT_255_2_778
10
25.7973503
20
-2.7781011
11
3.5723503
21
-2.7781011
0
LINE
8
DEFAULT_255_2_778
10
2.7786503
20
-1.9843011
11
2.7786503
21
75.8031989
0
LINE
8
DEFAULT_255_1_234
10
9.5549344
20
-0.1934909
11
9.2794458
21
-0.1934909
0
LINE
8
DEFAULT_255_1_234
10
9.2794458
20
-0.1934909
11
9.2794458
21
-0.6513
0
LINE
8
DEFAULT_255_1_234
10
9.2794458
20
-0.6513
11
9.1252364
21
-0.6513
0
LINE
8
DEFAULT_255_1_234
10
9.1252364
20
-0.6513
11
9.1252364
21
0.5181211
0
LINE
8
DEFAULT_255_1_234
10
9.1252364
20
0.5181211
11
9.5565407
21
0.5181211
0
LINE
8
DEFAULT_255_1_234
10
9.2794458
20
0.3912196
11
9.2794458
21
-0.0673926
0
LINE
8
DEFAULT_255_1_234
10
9.2794458
20
-0.0673926
11
9.5565407
21
-0.0673926
0
LINE
8
DEFAULT_255_1_234
10
9.5653756
20
0.3912196
11
9.2794458
21
0.3912196
0
ARC
8
DEFAULT_255_1_234
10
9.5607534
20
-0.0877805
40
0.6059162
50
78.8378113
51
90.3983573
0
ARC
8
DEFAULT_255_1_234
10
9.6023548
20
0.1142879
40
0.3996205
50
58.9632738
51
79.0810598
0
ARC
8
DEFAULT_255_1_234
10
9.632509
20
0.1702721
40
0.3361177
50
48.0197965
51
58.447194
0
ARC
8
DEFAULT_255_1_234
10
9.6413951
20
0.1788225
40
0.3238191
50
3.3375044
51
48.1766626
0
ARC
8
DEFAULT_255_1_234
10
9.518379
20
0.1611171
40
0.4477806
50
359.9477528
51
4.6829065
0
ARC
8
DEFAULT_255_1_234
10
9.5307107
20
0.1568628
40
0.4354656
50
346.1877825
51
0.5060252
0
ARC
8
DEFAULT_255_1_234
10
9.6665975
20
0.1215731
40
0.295089
50
310.8831995
51
346.5426355
0
ARC
8
DEFAULT_255_1_234
10
9.6357395
20
0.1632695
40
0.3468331
50
286.6925341
51
310.2288297
0
ARC
8
DEFAULT_255_1_234
10
9.5788226
20
0.3422882
40
0.5346654
50
274.6850312
51
287.0245141
0
ARC
8
DEFAULT_255_1_234
10
9.5562949
20
0.5631932
40
0.7566852
50
269.8969846
51
275.018904
0
ARC
8
DEFAULT_255_1_234
10
9.559054
20
0.3552707
40
0.4226708
50
269.6593078
51
279.4153575
0
ARC
8
DEFAULT_255_1_234
10
9.5847815
20
0.2062133
40
0.2714146
50
279.2049762
51
294.9900808
0
ARC
8
DEFAULT_255_1_234
10
9.6138141
20
0.1414508
40
0.2004525
50
295.2888114
51
311.2911209
0
ARC
8
DEFAULT_255_1_234
10
9.6209035
20
0.130922
40
0.1878703
50
311.7854996
51
347.2861051
0
ARC
8
DEFAULT_255_1_234
10
9.5225194
20
0.1562092
40
0.2894234
50
346.6893224
51
0.1059443
0
ARC
8
DEFAULT_255_1_234
10
9.4470089
20
0.1590685
40
0.3649409
50
359.6350983
51
0.0053152
0
ARC
8
DEFAULT_255_1_234
10
9.5440417
20
0.1615937
40
0.2679199
50
359.4672059
51
15.5933957
0
ARC
8
DEFAULT_255_1_234
10
9.6065306
20
0.1784779
40
0.2031932
50
15.7442113
51
46.6203375
0
ARC
8
DEFAULT_255_1_234
10
9.5917527
20
0.1614484
40
0.2257226
50
46.8628658
51
75.6676503
0
ARC
8
DEFAULT_255_1_234
10
9.5623347
20
0.0555718
40
0.3355939
50
75.276167
51
88.2915297
0
ARC
8
DEFAULT_255_1_234
10
9.5565054
20
-0.0322476
40
0.4235602
50
87.8575022
51
88.8000139
0
LINE
8
DEFAULT_255_1_234
10
10.162937
20
0.5181211
11
10.3621241
21
0.5181211
0
LINE
8
DEFAULT_255_1_234
10
10.3621241
20
0.5181211
11
10.7444348
21
-0.4360494
0
LINE
8
DEFAULT_255_1_234
10
10.7444348
20
-0.4360494
11
11.1267456
21
0.5181211
0
LINE
8
DEFAULT_255_1_234
10
11.1267456
20
0.5181211
11
11.3267358
21
0.5181211
0
LINE
8
DEFAULT_255_1_234
10
11.3267358
20
0.5181211
11
11.3267358
21
-0.6513
0
LINE
8
DEFAULT_255_1_234
10
11.3267358
20
-0.6513
11
11.1725265
21
-0.6513
0
LINE
8
DEFAULT_255_1_234
10
11.1725265
20
-0.6513
11
11.1725265
21
-0.1959004
0
LINE
8
DEFAULT_255_1_234
10
11.1725265
20
-0.1959004
11
11.1869836
21
0.2956419
0
LINE
8
DEFAULT_255_1_234
10
11.1869836
20
0.2956419
11
10.8030665
21
-0.6513
0
LINE
8
DEFAULT_255_1_234
10
10.8030665
20
-0.6513
11
10.685
21
-0.6513
0
LINE
8
DEFAULT_255_1_234
10
10.685
20
-0.6513
11
10.301886
21
0.2932324
0
LINE
8
DEFAULT_255_1_234
10
10.301886
20
0.2932324
11
10.3171463
21
-0.1959004
0
LINE
8
DEFAULT_255_1_234
10
10.3171463
20
-0.1959004
11
10.3171463
21
-0.6513
0
LINE
8
DEFAULT_255_1_234
10
10.3171463
20
-0.6513
11
10.162937
21
-0.6513
0
LINE
8
DEFAULT_255_1_234
10
10.162937
20
-0.6513
11
10.162937
21
0.5181211
0
LINE
8
DEFAULT_255_1_234
10
11.7475989
20
-0.0955037
11
11.6287292
21
-0.0649831
0
LINE
8
DEFAULT_255_1_234
10
11.6287292
20
-0.0649831
11
11.6881641
21
0.5181211
0
LINE
8
DEFAULT_255_1_234
10
11.6881641
20
0.5181211
11
12.2873317
21
0.5181211
0
LINE
8
DEFAULT_255_1_234
10
12.2873317
20
0.5181211
11
12.2873317
21
0.3807784
0
LINE
8
DEFAULT_255_1_234
10
12.2873317
20
0.3807784
11
11.8142624
21
0.3807784
0
LINE
8
DEFAULT_255_1_234
10
11.8142624
20
0.3807784
11
11.7789227
21
0.0619184
0
LINE
8
DEFAULT_255_1_234
10
11.5869642
20
-0.3436844
11
11.7275196
21
-0.3436844
0
LINE
8
DEFAULT_255_1_234
10
11.7869544
20
-0.0633768
11
11.7475989
21
-0.0955037
0
ARC
8
DEFAULT_255_1_234
10
11.9644011
20
-0.256077
40
0.3681349
50
93.7182161
51
120.2538958
0
ARC
8
DEFAULT_255_1_234
10
11.9738274
20
-0.3368606
40
0.449379
50
89.9660152
51
94.2496022
0
ARC
8
DEFAULT_255_1_234
10
11.9779008
20
-0.2779451
40
0.390482
50
73.8043271
51
90.5585896
0
ARC
8
DEFAULT_255_1_234
10
12.0013905
20
-0.1921398
40
0.3015334
50
41.3071453
51
73.5430202
0
ARC
8
DEFAULT_255_1_234
10
11.9597732
20
-0.2279676
40
0.3564457
50
13.5075983
51
41.2174222
0
ARC
8
DEFAULT_255_1_234
10
11.7955936
20
-0.2709514
40
0.5261351
50
1.1331335
51
13.8829381
0
ARC
8
DEFAULT_255_1_234
10
11.6544305
20
-0.2785335
40
0.6674378
50
359.9919444
51
1.544251
0
ARC
8
DEFAULT_255_1_234
10
11.7821131
20
-0.282672
40
0.5397702
50
347.8572367
51
0.4293338
0
ARC
8
DEFAULT_255_1_234
10
11.9571449
20
-0.3223264
40
0.3603188
50
323.673004
51
348.1672506
0
ARC
8
DEFAULT_255_1_234
10
11.9865957
20
-0.3402832
40
0.3259678
50
316.8171152
51
323.1492751
0
ARC
8
DEFAULT_255_1_234
10
11.9927146
20
-0.343954
40
0.3189975
50
281.8396411
51
316.5457803
0
ARC
8
DEFAULT_255_1_234
10
11.9551409
20
-0.1884238
40
0.4789527
50
269.5770101
51
282.4214771
0
ARC
8
DEFAULT_255_1_234
10
11.9480221
20
-0.2097875
40
0.45759
50
256.2427136
51
270.4486331
0
ARC
8
DEFAULT_255_1_234
10
11.9181123
20
-0.3297771
40
0.3339303
50
228.9023911
51
256.3314342
0
ARC
8
DEFAULT_255_1_234
10
11.9107356
20
-0.3414254
40
0.32031
50
193.753695
51
228.5271154
0
ARC
8
DEFAULT_255_1_234
10
12.034531
20
-0.30512
40
0.4492253
50
184.924711
51
194.497588
0
ARC
8
DEFAULT_255_1_234
10
12.0537877
20
-0.3015409
40
0.3289787
50
187.3600538
51
198.6732863
0
ARC
8
DEFAULT_255_1_234
10
11.9488171
20
-0.3379326
40
0.217884
50
198.4451669
51
217.794479
0
ARC
8
DEFAULT_255_1_234
10
11.9192346
20
-0.3588915
40
0.1816698
50
218.2887171
51
228.5612368
0
ARC
8
DEFAULT_255_1_234
10
11.9290133
20
-0.3457037
40
0.1980329
50
228.9654866
51
258.1234728
0
ARC
8
DEFAULT_255_1_234
10
11.9495843
20
-0.2576167
40
0.2884748
50
257.7258293
51
270.401361
0
ARC
8
DEFAULT_255_1_234
10
11.9540729
20
-0.3021179
40
0.2439788
50
269.4204404
51
286.4209037
0
ARC
8
DEFAULT_255_1_234
10
11.9689217
20
-0.3560343
40
0.1880666
50
286.7251356
51
320.600362
0
ARC
8
DEFAULT_255_1_234
10
11.9306042
20
-0.3249405
40
0.2374121
50
320.6712579
51
344.5441685
0
ARC
8
DEFAULT_255_1_234
10
11.8149368
20
-0.2909955
40
0.3579479
50
344.2412205
51
356.7357071
0
ARC
8
DEFAULT_255_1_234
10
11.6900517
20
-0.2806556
40
0.4832297
50
356.3548756
51
0.0500261
0
ARC
8
DEFAULT_255_1_234
10
11.8237026
20
-0.277535
40
0.3495889
50
359.5576869
51
12.953486
0
ARC
8
DEFAULT_255_1_234
10
11.9291923
20
-0.2519566
40
0.2410532
50
12.6490276
51
41.6081334
0
ARC
8
DEFAULT_255_1_234
10
11.9522294
20
-0.2323679
40
0.2108218
50
41.7850273
51
85.9892764
0
ARC
8
DEFAULT_255_1_234
10
11.9399031
20
-0.3136538
40
0.2928454
50
84.6957577
51
90.0676183
0
ARC
8
DEFAULT_255_1_234
10
11.9375515
20
-0.3805284
40
0.3597255
50
89.6804936
51
99.1614436
0
ARC
8
DEFAULT_255_1_234
10
11.9170146
20
-0.2577869
40
0.235281
50
98.9830931
51
113.8908934
0
ARC
8
DEFAULT_255_1_234
10
11.8940556
20
-0.2036413
40
0.176479
50
114.1950727
51
127.3641004
0
LINE
8
DEFAULT_255_1_234
10
13.0407088
20
0.5189243
11
13.0672135
21
0.5189243
0
LINE
8
DEFAULT_255_1_234
10
13.0672135
20
0.5189243
11
13.0672135
21
0.392826
0
LINE
8
DEFAULT_255_1_234
10
13.0672135
20
0.392826
11
13.0399056
21
0.392826
0
LINE
8
DEFAULT_255_1_234
10
12.4929442
20
-0.2063417
11
12.4929442
21
-0.1493164
0
LINE
8
DEFAULT_255_1_234
10
12.6423346
20
-0.1685925
11
12.6423346
21
-0.2232083
0
ARC
8
DEFAULT_255_1_234
10
13.0451404
20
-0.1069545
40
0.4998079
50
90.6001036
51
104.514704
0
ARC
8
DEFAULT_255_1_234
10
13.0062919
20
0.0375131
40
0.3502176
50
104.2855254
51
133.862935
0
ARC
8
DEFAULT_255_1_234
10
13.0226677
20
0.026683
40
0.3693984
50
134.5302688
51
161.6210873
0
ARC
8
DEFAULT_255_1_234
10
13.1879865
20
-0.0316105
40
0.5446739
50
161.2849839
51
174.2076652
0
ARC
8
DEFAULT_255_1_234
10
13.3286803
20
-0.0510213
40
0.6866274
50
173.7810589
51
174.9254635
0
ARC
8
DEFAULT_255_1_234
10
12.8736635
20
-0.1893161
40
0.3033419
50
95.8330959
51
138.9954921
0
ARC
8
DEFAULT_255_1_234
10
12.8959991
20
-0.3171625
40
0.4328947
50
89.8753725
51
97.0544009
0
ARC
8
DEFAULT_255_1_234
10
12.9007457
20
-0.2336252
40
0.3493769
50
71.6407809
51
90.6240094
0
ARC
8
DEFAULT_255_1_234
10
12.915803
20
-0.1781918
40
0.2920396
50
39.6367836
51
71.019018
0
ARC
8
DEFAULT_255_1_234
10
12.8521503
20
-0.2332002
40
0.3761538
50
10.658731
51
39.9043955
0
ARC
8
DEFAULT_255_1_234
10
12.6973586
20
-0.2668314
40
0.5345136
50
359.682601
51
11.132623
0
ARC
8
DEFAULT_255_1_234
10
12.6933717
20
-0.273899
40
0.5385081
50
347.2486944
51
0.4369317
0
ARC
8
DEFAULT_255_1_234
10
12.8601194
20
-0.3140193
40
0.3670249
50
318.1409698
51
347.6118597
0
ARC
8
DEFAULT_255_1_234
10
12.8926187
20
-0.3407298
40
0.3250007
50
275.6342139
51
317.8248465
0
ARC
8
DEFAULT_255_1_234
10
12.8705298
20
-0.2107781
40
0.4565864
50
269.8874292
51
276.7917694
0
ARC
8
DEFAULT_255_1_234
10
12.8650369
20
-0.3133257
40
0.3540676
50
246.9140195
51
270.7437342
0
ARC
8
DEFAULT_255_1_234
10
12.8656759
20
-0.3275616
40
0.3412781
50
218.1665114
51
245.878116
0
ARC
8
DEFAULT_255_1_234
10
12.953622
20
-0.2539721
40
0.455911
50
191.4115814
51
218.6077802
0
ARC
8
DEFAULT_255_1_234
10
13.1474309
20
-0.2105167
40
0.6545001
50
179.6345085
51
191.7836486
0
ARC
8
DEFAULT_255_1_234
10
13.7056646
20
-0.1426303
40
1.2127388
50
171.4525249
51
180.3158839
0
ARC
8
DEFAULT_255_1_234
10
13.2661522
20
-0.0742392
40
0.7679464
50
157.9802646
51
171.6246686
0
ARC
8
DEFAULT_255_1_234
10
13.0447542
20
0.0140421
40
0.5296008
50
141.4298019
51
157.854097
0
ARC
8
DEFAULT_255_1_234
10
12.9805863
20
0.0594381
40
0.4511509
50
102.8715806
51
140.8564722
0
ARC
8
DEFAULT_255_1_234
10
13.0453479
20
-0.1845448
40
0.7034845
50
90.3778349
51
103.5869322
0
ARC
8
DEFAULT_255_1_234
10
12.8715255
20
-0.245027
40
0.2370698
50
89.8751008
51
126.2071704
0
ARC
8
DEFAULT_255_1_234
10
12.8761045
20
-0.2604697
40
0.2522934
50
124.9745049
51
144.895901
0
ARC
8
DEFAULT_255_1_234
10
12.8585235
20
-0.246144
40
0.2296779
50
145.2974905
51
160.2660252
0
ARC
8
DEFAULT_255_1_234
10
13.1657774
20
-0.2263929
40
0.5234525
50
179.6514266
51
190.2855912
0
ARC
8
DEFAULT_255_1_234
10
12.9963911
20
-0.2583214
40
0.3510893
50
190.0945431
51
207.5098196
0
ARC
8
DEFAULT_255_1_234
10
12.9398181
20
-0.2852377
40
0.288489
50
207.9583163
51
216.3251085
0
ARC
8
DEFAULT_255_1_234
10
12.9058289
20
-0.3131895
40
0.2445587
50
215.7661442
51
232.5456785
0
ARC
8
DEFAULT_255_1_234
10
12.8675272
20
-0.3618518
40
0.1826382
50
232.8005391
51
270.6605633
0
ARC
8
DEFAULT_255_1_234
10
12.8720973
20
-0.3254388
40
0.2190529
50
269.35537
51
288.4744281
0
ARC
8
DEFAULT_255_1_234
10
12.881387
20
-0.3603882
40
0.1829749
50
289.1833337
51
322.9683818
0
ARC
8
DEFAULT_255_1_234
10
12.8202392
20
-0.3121609
40
0.2608399
50
322.6007884
51
346.5182367
0
ARC
8
DEFAULT_255_1_234
10
12.7044988
20
-0.2826384
40
0.3802777
50
346.2582162
51
358.7741648
0
ARC
8
DEFAULT_255_1_234
10
12.6026657
20
-0.2771035
40
0.4822176
50
358.3755224
51
0.0098023
0
ARC
8
DEFAULT_255_1_234
10
12.6782844
20
-0.2743343
40
0.4066078
50
359.6214041
51
11.2839074
0
ARC
8
DEFAULT_255_1_234
10
12.8059991
20
-0.2476934
40
0.2761514
50
11.0482309
51
31.8146458
0
ARC
8
DEFAULT_255_1_234
10
12.8369034
20
-0.2309416
40
0.2410679
50
32.3035391
51
38.082671
0
ARC
8
DEFAULT_255_1_234
10
12.8789694
20
-0.1928338
40
0.1844966
50
36.825067
51
85.7415724
0
ARC
8
DEFAULT_255_1_234
10
12.8722527
20
-0.2428699
40
0.2349122
50
85.0140713
51
90.0513278
0
LINE
8
DEFAULT_255_1_234
10
14.035038
20
0.5181211
11
14.035038
21
-0.258548
0
LINE
8
DEFAULT_255_1_234
10
14.035038
20
-0.258548
11
14.1972791
21
-0.258548
0
LINE
8
DEFAULT_255_1_234
10
14.1972791
20
-0.258548
11
14.1972791
21
-0.3798272
0
LINE
8
DEFAULT_255_1_234
10
14.1972791
20
-0.3798272
11
14.035038
21
-0.3798272
0
LINE
8
DEFAULT_255_1_234
10
14.035038
20
-0.3798272
11
14.035038
21
-0.6513
0
LINE
8
DEFAULT_255_1_234
10
14.035038
20
-0.6513
11
13.8856477
21
-0.6513
0
LINE
8
DEFAULT_255_1_234
10
13.8856477
20
-0.6513
11
13.8856477
21
-0.3798272
0
LINE
8
DEFAULT_255_1_234
10
13.8856477
20
-0.3798272
11
13.3531434
21
-0.3798272
0
LINE
8
DEFAULT_255_1_234
10
13.3531434
20
-0.3798272
11
13.3531434
21
-0.2922813
0
LINE
8
DEFAULT_255_1_234
10
13.3531434
20
-0.2922813
11
13.8768127
21
0.5181211
0
LINE
8
DEFAULT_255_1_234
10
13.8768127
20
0.5181211
11
14.035038
21
0.5181211
0
LINE
8
DEFAULT_255_1_234
10
13.8679778
20
0.2827912
11
13.5218099
21
-0.258548
0
LINE
8
DEFAULT_255_1_234
10
13.5218099
20
-0.258548
11
13.8856477
21
-0.258548
0
LINE
8
DEFAULT_255_1_234
10
13.8856477
20
-0.258548
11
13.8856477
21
0.3149181
0
LINE
8
DEFAULT_255_1_234
10
13.8856477
20
0.3149181
11
13.8679778
21
0.2827912
0
LINE
8
DEFAULT_255_1_234
10
14.6558914
20
-0.0938974
11
14.6558914
21
-0.2151766
0
LINE
8
DEFAULT_255_1_234
10
14.6558914
20
-0.2151766
11
14.2639425
21
-0.2151766
0
LINE
8
DEFAULT_255_1_234
10
14.2639425
20
-0.2151766
11
14.2639425
21
-0.0938974
0
LINE
8
DEFAULT_255_1_234
10
14.2639425
20
-0.0938974
11
14.6558914
21
-0.0938974
0
LINE
8
DEFAULT_255_1_234
10
15.5064524
20
-0.6513
11
15.2526495
21
-0.1782306
0
LINE
8
DEFAULT_255_1_234
10
15.2526495
20
-0.1782306
11
14.9779641
21
-0.1782306
0
LINE
8
DEFAULT_255_1_234
10
14.9779641
20
-0.1782306
11
14.9779641
21
-0.6513
0
LINE
8
DEFAULT_255_1_234
10
14.9779641
20
-0.6513
11
14.8229515
21
-0.6513
0
LINE
8
DEFAULT_255_1_234
10
14.8229515
20
-0.6513
11
14.8229515
21
0.5181211
0
LINE
8
DEFAULT_255_1_234
10
14.8229515
20
0.5181211
11
15.2100813
21
0.5181211
0
LINE
8
DEFAULT_255_1_234
10
15.3972208
20
-0.1453005
11
15.6719063
21
-0.6416619
0
LINE
8
DEFAULT_255_1_234
10
15.6719063
20
-0.6416619
11
15.6719063
21
-0.6513
0
LINE
8
DEFAULT_255_1_234
10
15.6719063
20
-0.6513
11
15.5064524
21
-0.6513
0
LINE
8
DEFAULT_255_1_234
10
14.9779641
20
0.3912196
11
14.9779641
21
-0.0521323
0
LINE
8
DEFAULT_255_1_234
10
14.9779641
20
-0.0521323
11
15.2149003
21
-0.0521323
0
LINE
8
DEFAULT_255_1_234
10
15.2140972
20
0.3912196
11
14.9779641
21
0.3912196
0
ARC
8
DEFAULT_255_1_234
10
15.2142452
20
-0.1780239
40
0.6961575
50
80.653586
51
90.3427061
0
ARC
8
DEFAULT_255_1_234
10
15.2561927
20
0.0682348
40
0.4463577
50
65.6987447
51
80.8329603
0
ARC
8
DEFAULT_255_1_234
10
15.3039568
20
0.1777322
40
0.3269094
50
50.0017161
51
65.4305835
0
ARC
8
DEFAULT_255_1_234
10
15.3258032
20
0.2072482
40
0.2902647
50
11.628416
51
49.5603263
0
ARC
8
DEFAULT_255_1_234
10
15.1722368
20
0.1697299
40
0.4482792
50
359.5655735
51
12.3691
0
ARC
8
DEFAULT_255_1_234
10
15.2799228
20
0.1634644
40
0.3405924
50
341.9983148
51
0.4822259
0
ARC
8
DEFAULT_255_1_234
10
15.3194068
20
0.1527471
40
0.2997359
50
323.8609373
51
341.61416
0
ARC
8
DEFAULT_255_1_234
10
15.2892312
20
0.1760484
40
0.3378487
50
296.7018614
51
323.6876402
0
ARC
8
DEFAULT_255_1_234
10
15.2451208
20
0.2549235
40
0.4281516
50
290.8086567
51
297.2323311
0
ARC
8
DEFAULT_255_1_234
10
15.2174737
20
0.3072351
40
0.3593766
50
269.589728
51
281.8058135
0
ARC
8
DEFAULT_255_1_234
10
15.2425636
20
0.1924743
40
0.2419125
50
281.5501019
51
303.9357432
0
ARC
8
DEFAULT_255_1_234
10
15.2562824
20
0.1686936
40
0.2145323
50
304.4415616
51
311.2106213
0
ARC
8
DEFAULT_255_1_234
10
15.2694929
20
0.1547632
40
0.1953505
50
310.9875673
51
356.2715578
0
ARC
8
DEFAULT_255_1_234
10
15.1938578
20
0.1660422
40
0.2716331
50
354.9348262
51
0.0609027
0
ARC
8
DEFAULT_255_1_234
10
15.1751452
20
0.1687435
40
0.2903554
50
359.5239371
51
12.8808918
0
ARC
8
DEFAULT_255_1_234
10
15.2729008
20
0.1926728
40
0.1897315
50
12.4173452
51
43.1022135
0
ARC
8
DEFAULT_255_1_234
10
15.2790612
20
0.1963724
40
0.1827118
50
43.5751728
51
48.203944
0
ARC
8
DEFAULT_255_1_234
10
15.2621104
20
0.1742302
40
0.2105272
50
48.7809703
51
72.6969569
0
ARC
8
DEFAULT_255_1_234
10
15.2266729
20
0.066682
40
0.3237537
50
72.3702241
51
84.8791103
0
ARC
8
DEFAULT_255_1_234
10
15.2119205
20
-0.0675231
40
0.4587478
50
84.5400526
51
89.7281406
0
LINE
8
DEFAULT_255_1_234
10
16.2662549
20
-0.1934909
11
15.9907663
21
-0.1934909
0
LINE
8
DEFAULT_255_1_234
10
15.9907663
20
-0.1934909
11
15.9907663
21
-0.6513
0
LINE
8
DEFAULT_255_1_234
10
15.9907663
20
-0.6513
11
15.8365569
21
-0.6513
0
LINE
8
DEFAULT_255_1_234
10
15.8365569
20
-0.6513
11
15.8365569
21
0.5181211
0
LINE
8
DEFAULT_255_1_234
10
15.8365569
20
0.5181211
11
16.2678612
21
0.5181211
0
LINE
8
DEFAULT_255_1_234
10
15.9907663
20
0.3912196
11
15.9907663
21
-0.0673926
0
LINE
8
DEFAULT_255_1_234
10
15.9907663
20
-0.0673926
11
16.2678612
21
-0.0673926
0
LINE
8
DEFAULT_255_1_234
10
16.2766961
20
0.3912196
11
15.9907663
21
0.3912196
0
ARC
8
DEFAULT_255_1_234
10
16.2720739
20
-0.0877805
40
0.6059162
50
78.8378113
51
90.3983573
0
ARC
8
DEFAULT_255_1_234
10
16.3136753
20
0.1142879
40
0.3996205
50
58.9632738
51
79.0810598
0
ARC
8
DEFAULT_255_1_234
10
16.3438295
20
0.1702721
40
0.3361177
50
48.0197965
51
58.447194
0
ARC
8
DEFAULT_255_1_234
10
16.3527156
20
0.1788225
40
0.3238191
50
3.3375044
51
48.1766626
0
ARC
8
DEFAULT_255_1_234
10
16.2296996
20
0.1611171
40
0.4477806
50
359.9477528
51
4.6829065
0
ARC
8
DEFAULT_255_1_234
10
16.2420312
20
0.1568628
40
0.4354656
50
346.1877825
51
0.5060252
0
ARC
8
DEFAULT_255_1_234
10
16.377918
20
0.1215731
40
0.295089
50
310.8831995
51
346.5426355
0
ARC
8
DEFAULT_255_1_234
10
16.34706
20
0.1632695
40
0.3468331
50
286.6925341
51
310.2288297
0
ARC
8
DEFAULT_255_1_234
10
16.2901431
20
0.3422882
40
0.5346654
50
274.6850312
51
287.0245141
0
ARC
8
DEFAULT_255_1_234
10
16.2676154
20
0.5631932
40
0.7566852
50
269.8969846
51
275.018904
0
ARC
8
DEFAULT_255_1_234
10
16.2703745
20
0.3552707
40
0.4226708
50
269.6593078
51
279.4153575
0
ARC
8
DEFAULT_255_1_234
10
16.296102
20
0.2062133
40
0.2714146
50
279.2049762
51
294.9900808
0
ARC
8
DEFAULT_255_1_234
10
16.3251346
20
0.1414508
40
0.2004525
50
295.2888114
51
311.2911209
0
ARC
8
DEFAULT_255_1_234
10
16.332224
20
0.130922
40
0.1878703
50
311.7854996
51
347.2861051
0
ARC
8
DEFAULT_255_1_234
10
16.2338399
20
0.1562092
40
0.2894234
50
346.6893224
51
0.1059443
0
ARC
8
DEFAULT_255_1_234
10
16.1583294
20
0.1590685
40
0.3649409
50
359.6350983
51
0.0053152
0
ARC
8
DEFAULT_255_1_234
10
16.2553622
20
0.1615937
40
0.2679199
50
359.4672059
51
15.5933957
0
ARC
8
DEFAULT_255_1_234
10
16.3178511
20
0.1784779
40
0.2031932
50
15.7442113
51
46.6203375
0
ARC
8
DEFAULT_255_1_234
10
16.3030732
20
0.1614484
40
0.2257226
50
46.8628658
51
75.6676503
0
ARC
8
DEFAULT_255_1_234
10
16.2736552
20
0.0555718
40
0.3355939
50
75.276167
51
88.2915297
0
ARC
8
DEFAULT_255_1_234
10
16.2678259
20
-0.0322476
40
0.4235602
50
87.8575022
51
88.8000139
0
LINE
8
DEFAULT_255_1_234
10
17.1601874
20
-0.0938974
11
17.1601874
21
-0.2151766
0
LINE
8
DEFAULT_255_1_234
10
17.1601874
20
-0.2151766
11
16.7682385
21
-0.2151766
0
LINE
8
DEFAULT_255_1_234
10
16.7682385
20
-0.2151766
11
16.7682385
21
-0.0938974
0
LINE
8
DEFAULT_255_1_234
10
16.7682385
20
-0.0938974
11
17.1601874
21
-0.0938974
0
LINE
8
DEFAULT_255_1_234
10
18.0854436
20
-0.6513
11
17.9738024
21
-0.3460939
0
LINE
8
DEFAULT_255_1_234
10
17.9738024
20
-0.3460939
11
17.4838664
21
-0.3460939
0
LINE
8
DEFAULT_255_1_234
10
17.4838664
20
-0.3460939
11
17.3738316
21
-0.6513
0
LINE
8
DEFAULT_255_1_234
10
17.3738316
20
-0.6513
11
17.2148032
21
-0.6513
0
LINE
8
DEFAULT_255_1_234
10
17.2148032
20
-0.6513
11
17.6613678
21
0.5181211
0
LINE
8
DEFAULT_255_1_234
10
17.6613678
20
0.5181211
11
17.796301
21
0.5181211
0
LINE
8
DEFAULT_255_1_234
10
17.796301
20
0.5181211
11
18.2436688
21
-0.6513
0
LINE
8
DEFAULT_255_1_234
10
18.2436688
20
-0.6513
11
18.0854436
21
-0.6513
0
LINE
8
DEFAULT_255_1_234
10
17.7288344
20
0.3277689
11
17.5304505
21
-0.2191925
0
LINE
8
DEFAULT_255_1_234
10
17.5304505
20
-0.2191925
11
17.9280215
21
-0.2191925
0
LINE
8
DEFAULT_255_1_234
10
17.9280215
20
-0.2191925
11
17.7288344
21
0.3277689
0
LINE
8
DEFAULT_255_1_234
10
19.0974426
20
-0.2802337
11
19.2524552
21
-0.2802337
0
LINE
8
DEFAULT_255_1_234
10
18.3520973
20
-0.1212053
11
18.3520973
21
-0.0087609
0
LINE
8
DEFAULT_255_1_234
10
19.2524552
20
0.1422357
11
19.0974426
21
0.1422357
0
LINE
8
DEFAULT_255_1_234
10
18.5071099
20
-0.0127768
11
18.5071099
21
-0.1260243
0
ARC
8
DEFAULT_255_1_234
10
18.7043939
20
-0.2205154
40
0.5513052
50
340.1774281
51
353.7814284
0
ARC
8
DEFAULT_255_1_234
10
18.8615291
20
-0.2790418
40
0.3836379
50
311.4558989
51
340.4421614
0
ARC
8
DEFAULT_255_1_234
10
18.8581959
20
-0.2679472
40
0.3941894
50
282.4333181
51
310.7513653
0
ARC
8
DEFAULT_255_1_234
10
18.8142699
20
-0.0864321
40
0.5809175
50
269.9358511
51
282.809604
0
ARC
8
DEFAULT_255_1_234
10
18.8090765
20
0.0593212
40
0.7266847
50
270.0021091
51
270.3581957
0
ARC
8
DEFAULT_255_1_234
10
18.8038182
20
-0.2007415
40
0.4666519
50
250.7884749
51
270.6489167
0
ARC
8
DEFAULT_255_1_234
10
18.7870016
20
-0.2644681
40
0.4009729
50
219.3627325
51
250.0611886
0
ARC
8
DEFAULT_255_1_234
10
18.8699227
20
-0.1939958
40
0.5097822
50
193.5479632
51
219.5756669
0
ARC
8
DEFAULT_255_1_234
10
19.1070848
20
-0.1324081
40
0.7547848
50
181.1218675
51
193.87563
0
ARC
8
DEFAULT_255_1_234
10
19.3141029
20
-0.121342
40
0.9620055
50
179.9918545
51
181.5394234
0
ARC
8
DEFAULT_255_1_234
10
19.1290131
20
-0.0050212
40
0.7769248
50
169.5837241
51
180.2757934
0
ARC
8
DEFAULT_255_1_234
10
18.9453069
20
0.0289229
40
0.590109
50
155.0365899
51
169.6003176
0
ARC
8
DEFAULT_255_1_234
10
18.8317533
20
0.0836677
40
0.4640625
50
136.783148
51
155.2472683
0
ARC
8
DEFAULT_255_1_234
10
18.792801
20
0.1167562
40
0.4130255
50
121.7633186
51
136.428115
0
ARC
8
DEFAULT_255_1_234
10
18.8062972
20
0.0918227
40
0.4413323
50
95.6459699
51
121.5490577
0
ARC
8
DEFAULT_255_1_234
10
18.8220254
20
-0.0190051
40
0.55319
50
89.924208
51
96.1377933
0
ARC
8
DEFAULT_255_1_234
10
18.8270687
20
-0.0071458
40
0.5413475
50
76.6779277
51
90.4563316
0
ARC
8
DEFAULT_255_1_234
10
18.866431
20
0.1519114
40
0.3775041
50
47.485847
51
76.9287264
0
ARC
8
DEFAULT_255_1_234
10
18.8517283
20
0.1419159
40
0.3948286
50
16.5424086
51
46.8933463
0
ARC
8
DEFAULT_255_1_234
10
18.690944
20
0.0890861
40
0.564021
50
5.4072051
51
17.0365086
0
ARC
8
DEFAULT_255_1_234
10
18.5470457
20
0.0659679
40
0.5556559
50
7.8891745
51
15.9239216
0
ARC
8
DEFAULT_255_1_234
10
18.7457471
20
0.1236631
40
0.3487515
50
15.7653144
51
27.9410532
0
ARC
8
DEFAULT_255_1_234
10
18.8561689
20
0.182779
40
0.2235026
50
27.8166557
51
46.4008329
0
ARC
8
DEFAULT_255_1_234
10
18.8611331
20
0.1822082
40
0.2205286
50
47.4371857
51
75.0698205
0
ARC
8
DEFAULT_255_1_234
10
18.8302726
20
0.0747765
40
0.3322915
50
74.7008593
51
87.8124495
0
ARC
8
DEFAULT_255_1_234
10
18.8229413
20
-0.0308156
40
0.4380987
50
87.3814673
51
90.0240855
0
ARC
8
DEFAULT_255_1_234
10
18.8190957
20
0.0869291
40
0.3203749
50
89.3451631
51
108.5745436
0
ARC
8
DEFAULT_255_1_234
10
18.8054062
20
0.1382908
40
0.2673494
50
109.2998449
51
143.3037509
0
ARC
8
DEFAULT_255_1_234
10
18.8816135
20
0.0796881
40
0.3634757
50
143.0753173
51
163.1916937
0
ARC
8
DEFAULT_255_1_234
10
19.0767862
20
0.0180967
40
0.5681262
50
162.9373603
51
174.6208611
0
ARC
8
DEFAULT_255_1_234
10
19.3393904
20
-0.010699
40
0.8322832
50
174.3419979
51
180.1430411
0
ARC
8
DEFAULT_255_1_234
10
19.2463061
20
-0.1301302
40
0.7392076
50
179.6817502
51
189.150529
0
ARC
8
DEFAULT_255_1_234
10
18.9962309
20
-0.171781
40
0.4856932
50
188.9910863
51
203.5773039
0
ARC
8
DEFAULT_255_1_234
10
18.8882642
20
-0.2165789
40
0.3688271
50
203.9077269
51
215.1312379
0
ARC
8
DEFAULT_255_1_234
10
18.7959735
20
-0.2881059
40
0.2522457
50
213.9071664
51
263.8849284
0
ARC
8
DEFAULT_255_1_234
10
18.8085065
20
-0.2096482
40
0.3316174
50
263.1758525
51
270.1031083
0
ARC
8
DEFAULT_255_1_234
10
18.8117156
20
-0.0849635
40
0.4563091
50
269.6719807
51
279.0609165
0
ARC
8
DEFAULT_255_1_234
10
18.8383924
20
-0.2462093
40
0.2928759
50
278.8750225
51
293.6346586
0
ARC
8
DEFAULT_255_1_234
10
18.8704132
20
-0.32141
40
0.2111472
50
293.8553404
51
310.0518804
0
ARC
8
DEFAULT_255_1_234
10
18.8708986
20
-0.3276484
40
0.2060917
50
311.0646779
51
332.0108348
0
ARC
8
DEFAULT_255_1_234
10
18.7516713
20
-0.2619022
40
0.3422352
50
331.6588543
51
343.2878891
0
ARC
8
DEFAULT_255_1_234
10
18.5454228
20
-0.1985202
40
0.5580003
50
343.1446044
51
351.010618
0
ARC
8
DEFAULT_255_1_234
10
18.3912874
20
-0.1704129
40
0.7146438
50
350.7157277
51
351.1602153
0
LINE
8
DEFAULT_255_1_234
10
11.0360293
20
70.1247
11
10.9243881
21
70.4299061
0
LINE
8
DEFAULT_255_1_234
10
10.9243881
20
70.4299061
11
10.4344521
21
70.4299061
0
LINE
8
DEFAULT_255_1_234
10
10.4344521
20
70.4299061
11
10.3244173
21
70.1247
0
LINE
8
DEFAULT_255_1_234
10
10.3244173
20
70.1247
11
10.1653889
21
70.1247
0
LINE
8
DEFAULT_255_1_234
10
10.1653889
20
70.1247
11
10.6119535
21
71.2941211
0
LINE
8
DEFAULT_255_1_234
10
10.6119535
20
71.2941211
11
10.7468867
21
71.2941211
0
LINE
8
DEFAULT_255_1_234
10
10.7468867
20
71.2941211
11
11.1942545
21
70.1247
0
LINE
8
DEFAULT_255_1_234
10
11.1942545
20
70.1247
11
11.0360293
21
70.1247
0
LINE
8
DEFAULT_255_1_234
10
10.6794201
20
71.1037689
11
10.4810362
21
70.5568075
0
LINE
8
DEFAULT_255_1_234
10
10.4810362
20
70.5568075
11
10.8786072
21
70.5568075
0
LINE
8
DEFAULT_255_1_234
10
10.8786072
20
70.5568075
11
10.6794201
21
71.1037689
0
LINE
8
DEFAULT_255_1_234
10
12.0480283
20
70.4957663
11
12.2030409
21
70.4957663
0
LINE
8
DEFAULT_255_1_234
10
11.302683
20
70.6547947
11
11.302683
21
70.7672391
0
LINE
8
DEFAULT_255_1_234
10
12.2030409
20
70.9182357
11
12.0480283
21
70.9182357
0
LINE
8
DEFAULT_255_1_234
10
11.4576956
20
70.7632232
11
11.4576956
21
70.6499757
0
ARC
8
DEFAULT_255_1_234
10
11.6549796
20
70.5554846
40
0.5513052
50
340.1774281
51
353.7814284
0
ARC
8
DEFAULT_255_1_234
10
11.8121148
20
70.4969582
40
0.3836379
50
311.4558989
51
340.4421614
0
ARC
8
DEFAULT_255_1_234
10
11.8087816
20
70.5080528
40
0.3941894
50
282.4333181
51
310.7513653
0
ARC
8
DEFAULT_255_1_234
10
11.7648555
20
70.6895679
40
0.5809175
50
269.9358511
51
282.809604
0
ARC
8
DEFAULT_255_1_234
10
11.7596622
20
70.8353212
40
0.7266847
50
270.0021091
51
270.3581957
0
ARC
8
DEFAULT_255_1_234
10
11.7544039
20
70.5752585
40
0.4666519
50
250.7884749
51
270.6489167
0
ARC
8
DEFAULT_255_1_234
10
11.7375873
20
70.5115319
40
0.4009729
50
219.3627325
51
250.0611886
0
ARC
8
DEFAULT_255_1_234
10
11.8205084
20
70.5820042
40
0.5097822
50
193.5479632
51
219.5756669
0
ARC
8
DEFAULT_255_1_234
10
12.0576705
20
70.6435919
40
0.7547848
50
181.1218675
51
193.87563
0
ARC
8
DEFAULT_255_1_234
10
12.2646886
20
70.654658
40
0.9620055
50
179.9918545
51
181.5394234
0
ARC
8
DEFAULT_255_1_234
10
12.0795988
20
70.7709788
40
0.7769248
50
169.5837241
51
180.2757934
0
ARC
8
DEFAULT_255_1_234
10
11.8958926
20
70.8049229
40
0.590109
50
155.0365899
51
169.6003176
0
ARC
8
DEFAULT_255_1_234
10
11.782339
20
70.8596677
40
0.4640625
50
136.783148
51
155.2472683
0
ARC
8
DEFAULT_255_1_234
10
11.7433867
20
70.8927562
40
0.4130255
50
121.7633186
51
136.428115
0
ARC
8
DEFAULT_255_1_234
10
11.7568829
20
70.8678227
40
0.4413323
50
95.6459699
51
121.5490577
0
ARC
8
DEFAULT_255_1_234
10
11.7726111
20
70.7569949
40
0.55319
50
89.924208
51
96.1377933
0
ARC
8
DEFAULT_255_1_234
10
11.7776544
20
70.7688542
40
0.5413475
50
76.6779277
51
90.4563316
0
ARC
8
DEFAULT_255_1_234
10
11.8170167
20
70.9279114
40
0.3775041
50
47.485847
51
76.9287264
0
ARC
8
DEFAULT_255_1_234
10
11.802314
20
70.9179159
40
0.3948286
50
16.5424086
51
46.8933463
0
ARC
8
DEFAULT_255_1_234
10
11.6415297
20
70.8650861
40
0.564021
50
5.4072051
51
17.0365086
0
ARC
8
DEFAULT_255_1_234
10
11.4976314
20
70.8419679
40
0.5556559
50
7.8891745
51
15.9239216
0
ARC
8
DEFAULT_255_1_234
10
11.6963328
20
70.8996631
40
0.3487515
50
15.7653144
51
27.9410532
0
ARC
8
DEFAULT_255_1_234
10
11.8067546
20
70.958779
40
0.2235026
50
27.8166557
51
46.4008329
0
ARC
8
DEFAULT_255_1_234
10
11.8117188
20
70.9582082
40
0.2205286
50
47.4371857
51
75.0698205
0
ARC
8
DEFAULT_255_1_234
10
11.7808583
20
70.8507765
40
0.3322915
50
74.7008593
51
87.8124495
0
ARC
8
DEFAULT_255_1_234
10
11.773527
20
70.7451844
40
0.4380987
50
87.3814673
51
90.0240855
0
ARC
8
DEFAULT_255_1_234
10
11.7696814
20
70.8629291
40
0.3203749
50
89.3451631
51
108.5745436
0
ARC
8
DEFAULT_255_1_234
10
11.7559919
20
70.9142908
40
0.2673494
50
109.2998449
51
143.3037509
0
ARC
8
DEFAULT_255_1_234
10
11.8321992
20
70.8556881
40
0.3634757
50
143.0753173
51
163.1916937
0
ARC
8
DEFAULT_255_1_234
10
12.0273719
20
70.7940967
40
0.5681262
50
162.9373603
51
174.6208611
0
ARC
8
DEFAULT_255_1_234
10
12.2899761
20
70.765301
40
0.8322832
50
174.3419979
51
180.1430411
0
ARC
8
DEFAULT_255_1_234
10
12.1968918
20
70.6458698
40
0.7392076
50
179.6817502
51
189.150529
0
ARC
8
DEFAULT_255_1_234
10
11.9468166
20
70.604219
40
0.4856932
50
188.9910863
51
203.5773039
0
ARC
8
DEFAULT_255_1_234
10
11.8388498
20
70.5594211
40
0.3688271
50
203.9077269
51
215.1312379
0
ARC
8
DEFAULT_255_1_234
10
11.7465592
20
70.4878941
40
0.2522457
50
213.9071664
51
263.8849284
0
ARC
8
DEFAULT_255_1_234
10
11.7590921
20
70.5663518
40
0.3316174
50
263.1758525
51
270.1031083
0
ARC
8
DEFAULT_255_1_234
10
11.7623013
20
70.6910365
40
0.4563091
50
269.6719807
51
279.0609165
0
ARC
8
DEFAULT_255_1_234
10
11.7889781
20
70.5297907
40
0.2928759
50
278.8750225
51
293.6346586
0
ARC
8
DEFAULT_255_1_234
10
11.8209989
20
70.45459
40
0.2111472
50
293.8553404
51
310.0518804
0
ARC
8
DEFAULT_255_1_234
10
11.8214843
20
70.4483516
40
0.2060917
50
311.0646779
51
332.0108348
0
ARC
8
DEFAULT_255_1_234
10
11.702257
20
70.5140978
40
0.3422352
50
331.6588543
51
343.2878891
0
ARC
8
DEFAULT_255_1_234
10
11.4960085
20
70.5774798
40
0.5580003
50
343.1446044
51
351.010618
0
ARC
8
DEFAULT_255_1_234
10
11.3418731
20
70.6055871
40
0.7146438
50
350.7157277
51
351.1602153
0
LINE
8
DEFAULT_255_1_234
10
12.5620596
20
70.6804963
11
12.4431898
21
70.7110169
0
LINE
8
DEFAULT_255_1_234
10
12.4431898
20
70.7110169
11
12.5026247
21
71.2941211
0
LINE
8
DEFAULT_255_1_234
10
12.5026247
20
71.2941211
11
13.1017924
21
71.2941211
0
LINE
8
DEFAULT_255_1_234
10
13.1017924
20
71.2941211
11
13.1017924
21
71.1567784
0
LINE
8
DEFAULT_255_1_234
10
13.1017924
20
71.1567784
11
12.628723
21
71.1567784
0
LINE
8
DEFAULT_255_1_234
10
12.628723
20
71.1567784
11
12.5933833
21
70.8379184
0
LINE
8
DEFAULT_255_1_234
10
12.4014248
20
70.4323156
11
12.5419802
21
70.4323156
0
LINE
8
DEFAULT_255_1_234
10
12.6014151
20
70.7126232
11
12.5620596
21
70.6804963
0
ARC
8
DEFAULT_255_1_234
10
12.7788617
20
70.519923
40
0.3681349
50
93.7182161
51
120.2538958
0
ARC
8
DEFAULT_255_1_234
10
12.788288
20
70.4391394
40
0.449379
50
89.9660152
51
94.2496022
0
ARC
8
DEFAULT_255_1_234
10
12.7923614
20
70.4980549
40
0.390482
50
73.8043271
51
90.5585896
0
ARC
8
DEFAULT_255_1_234
10
12.8158511
20
70.5838602
40
0.3015334
50
41.3071453
51
73.5430202
0
ARC
8
DEFAULT_255_1_234
10
12.7742339
20
70.5480324
40
0.3564457
50
13.5075983
51
41.2174222
0
ARC
8
DEFAULT_255_1_234
10
12.6100542
20
70.5050486
40
0.5261351
50
1.1331335
51
13.8829381
0
ARC
8
DEFAULT_255_1_234
10
12.4688911
20
70.4974665
40
0.6674378
50
359.9919444
51
1.544251
0
ARC
8
DEFAULT_255_1_234
10
12.5965738
20
70.493328
40
0.5397702
50
347.8572367
51
0.4293338
0
ARC
8
DEFAULT_255_1_234
10
12.7716055
20
70.4536736
40
0.3603188
50
323.673004
51
348.1672506
0
ARC
8
DEFAULT_255_1_234
10
12.8010563
20
70.4357168
40
0.3259678
50
316.8171152
51
323.1492751
0
ARC
8
DEFAULT_255_1_234
10
12.8071752
20
70.432046
40
0.3189975
50
281.8396411
51
316.5457803
0
ARC
8
DEFAULT_255_1_234
10
12.7696016
20
70.5875762
40
0.4789527
50
269.5770101
51
282.4214771
0
ARC
8
DEFAULT_255_1_234
10
12.7624828
20
70.5662125
40
0.45759
50
256.2427136
51
270.4486331
0
ARC
8
DEFAULT_255_1_234
10
12.732573
20
70.4462229
40
0.3339303
50
228.9023911
51
256.3314342
0
ARC
8
DEFAULT_255_1_234
10
12.7251963
20
70.4345746
40
0.32031
50
193.753695
51
228.5271154
0
ARC
8
DEFAULT_255_1_234
10
12.8489917
20
70.47088
40
0.4492253
50
184.924711
51
194.497588
0
ARC
8
DEFAULT_255_1_234
10
12.8682483
20
70.4744591
40
0.3289787
50
187.3600538
51
198.6732863
0
ARC
8
DEFAULT_255_1_234
10
12.7632777
20
70.4380674
40
0.217884
50
198.4451669
51
217.794479
0
ARC
8
DEFAULT_255_1_234
10
12.7336953
20
70.4171085
40
0.1816698
50
218.2887171
51
228.5612368
0
ARC
8
DEFAULT_255_1_234
10
12.743474
20
70.4302963
40
0.1980329
50
228.9654866
51
258.1234728
0
ARC
8
DEFAULT_255_1_234
10
12.764045
20
70.5183833
40
0.2884748
50
257.7258293
51
270.401361
0
ARC
8
DEFAULT_255_1_234
10
12.7685336
20
70.4738821
40
0.2439788
50
269.4204404
51
286.4209037
0
ARC
8
DEFAULT_255_1_234
10
12.7833823
20
70.4199657
40
0.1880666
50
286.7251356
51
320.600362
0
ARC
8
DEFAULT_255_1_234
10
12.7450648
20
70.4510595
40
0.2374121
50
320.6712579
51
344.5441685
0
ARC
8
DEFAULT_255_1_234
10
12.6293975
20
70.4850045
40
0.3579479
50
344.2412205
51
356.7357071
0
ARC
8
DEFAULT_255_1_234
10
12.5045123
20
70.4953444
40
0.4832297
50
356.3548756
51
0.0500261
0
ARC
8
DEFAULT_255_1_234
10
12.6381632
20
70.498465
40
0.3495889
50
359.5576869
51
12.953486
0
ARC
8
DEFAULT_255_1_234
10
12.743653
20
70.5240434
40
0.2410532
50
12.6490276
51
41.6081334
0
ARC
8
DEFAULT_255_1_234
10
12.7666901
20
70.5436321
40
0.2108218
50
41.7850273
51
85.9892764
0
ARC
8
DEFAULT_255_1_234
10
12.7543637
20
70.4623462
40
0.2928454
50
84.6957577
51
90.0676183
0
ARC
8
DEFAULT_255_1_234
10
12.7520121
20
70.3954716
40
0.3597255
50
89.6804936
51
99.1614436
0
ARC
8
DEFAULT_255_1_234
10
12.7314753
20
70.5182131
40
0.235281
50
98.9830931
51
113.8908934
0
ARC
8
DEFAULT_255_1_234
10
12.7085163
20
70.5723587
40
0.176479
50
114.1950727
51
127.3641004
0
LINE
8
DEFAULT_255_1_234
10
14.0318677
20
70.8162327
11
14.0318677
21
70.6234709
0
LINE
8
DEFAULT_255_1_234
10
13.2937509
20
70.6033916
11
13.2937509
21
70.8017755
0
LINE
8
DEFAULT_255_1_234
10
13.8832805
20
70.5833123
11
13.8832805
21
70.8266739
0
LINE
8
DEFAULT_255_1_234
10
13.4423381
20
70.8379184
11
13.4423381
21
70.6001789
0
ARC
8
DEFAULT_255_1_234
10
12.8071566
20
70.6185805
40
1.2247208
50
353.8441951
51
0.2287902
0
ARC
8
DEFAULT_255_1_234
10
13.271107
20
70.5667806
40
0.7578929
50
344.4934747
51
353.9765454
0
ARC
8
DEFAULT_255_1_234
10
13.570366
20
70.4816981
40
0.4467846
50
329.2803592
51
344.7472793
0
ARC
8
DEFAULT_255_1_234
10
13.6696485
20
70.4272018
40
0.3336173
50
324.9352394
51
328.6160465
0
ARC
8
DEFAULT_255_1_234
10
13.7073594
20
70.4008427
40
0.2876076
50
280.580143
51
324.9173126
0
ARC
8
DEFAULT_255_1_234
10
13.6672386
20
70.5679099
40
0.4592847
50
269.5977311
51
281.6734359
0
ARC
8
DEFAULT_255_1_234
10
13.6600292
20
70.5559173
40
0.4472986
50
256.6228859
51
270.51044
0
ARC
8
DEFAULT_255_1_234
10
13.619827
20
70.4010877
40
0.2873874
50
215.8618325
51
257.2788573
0
ARC
8
DEFAULT_255_1_234
10
13.7219301
20
70.4695977
40
0.4102928
50
197.9693508
51
215.2623606
0
ARC
8
DEFAULT_255_1_234
10
13.9704417
20
70.5534709
40
0.6725652
50
187.8816417
51
198.2346507
0
ARC
8
DEFAULT_255_1_234
10
14.3662625
20
70.6106079
40
1.0724845
50
180.8976217
51
188.0055519
0
ARC
8
DEFAULT_255_1_234
10
14.6462813
20
70.6209777
40
1.3526448
50
180.7449369
51
181.1510016
0
ARC
8
DEFAULT_255_1_234
10
14.4885542
20
70.8066042
40
1.1948131
50
173.7675579
51
180.231553
0
ARC
8
DEFAULT_255_1_234
10
14.0367689
20
70.8576666
40
0.7401564
50
164.3058563
51
173.9002247
0
ARC
8
DEFAULT_255_1_234
10
13.7455758
20
70.9415656
40
0.4371288
50
148.7922025
51
164.568378
0
ARC
8
DEFAULT_255_1_234
10
13.650421
20
70.9946929
40
0.3282386
50
144.5883898
51
148.1176286
0
ARC
8
DEFAULT_255_1_234
10
13.6161108
20
71.0186315
40
0.2864044
50
101.6440918
51
144.514236
0
ARC
8
DEFAULT_255_1_234
10
13.6586175
20
70.8497069
40
0.4604934
50
89.5284041
51
102.5819763
0
ARC
8
DEFAULT_255_1_234
10
13.6665263
20
70.8458018
40
0.464401
50
77.0437873
51
90.5081339
0
ARC
8
DEFAULT_255_1_234
10
13.7067264
20
71.0100615
40
0.2953195
50
48.2778575
51
77.4994676
0
ARC
8
DEFAULT_255_1_234
10
13.7139896
20
71.0229746
40
0.2808655
50
36.3142134
51
47.6305865
0
ARC
8
DEFAULT_255_1_234
10
13.6271203
20
70.9644515
40
0.3855453
50
18.2931786
51
35.6769206
0
ARC
8
DEFAULT_255_1_234
10
13.3727961
20
70.8771593
40
0.654423
50
8.024666
51
18.5605216
0
ARC
8
DEFAULT_255_1_234
10
12.9564881
20
70.8156792
40
1.0752407
50
1.1274072
51
8.1718305
0
ARC
8
DEFAULT_255_1_234
10
12.6329072
20
70.8029885
40
1.3990231
50
0.5424119
51
1.3863029
0
ARC
8
DEFAULT_255_1_234
10
12.815045
20
70.8302342
40
1.0682415
50
359.8090433
51
4.9407866
0
ARC
8
DEFAULT_255_1_234
10
13.2360464
20
70.8678113
40
0.6455691
50
4.8362157
51
12.2904523
0
ARC
8
DEFAULT_255_1_234
10
13.5115579
20
70.9291965
40
0.3633074
50
12.0805627
51
23.8173984
0
ARC
8
DEFAULT_255_1_234
10
13.6289284
20
70.9788919
40
0.2358723
50
24.2871213
51
31.3935614
0
ARC
8
DEFAULT_255_1_234
10
13.6813981
20
71.0132233
40
0.1732111
50
30.7407893
51
82.4657128
0
ARC
8
DEFAULT_255_1_234
10
13.6634115
20
70.9248691
40
0.263235
50
81.1060089
51
90.2184952
0
ARC
8
DEFAULT_255_1_234
10
13.6598414
20
70.9506924
40
0.2374236
50
89.3806855
51
105.6762551
0
ARC
8
DEFAULT_255_1_234
10
13.6415045
20
71.0173567
40
0.1682847
50
105.7981136
51
149.7388061
0
ARC
8
DEFAULT_255_1_234
10
13.7479123
20
70.953395
40
0.2924306
50
149.4208916
51
163.6286378
0
ARC
8
DEFAULT_255_1_234
10
13.9570011
20
70.889625
40
0.5110213
50
163.3763315
51
172.1410975
0
ARC
8
DEFAULT_255_1_234
10
14.287073
20
70.8423518
40
0.8444586
50
172.0259487
51
178.0703232
0
ARC
8
DEFAULT_255_1_234
10
14.590082
20
70.8279906
40
1.1477868
50
177.8631668
51
179.5044149
0
ARC
8
DEFAULT_255_1_234
10
14.4828224
20
70.5965389
40
1.0404907
50
179.7995573
51
185.2460446
0
ARC
8
DEFAULT_255_1_234
10
14.0785264
20
70.5582513
40
0.6343885
50
185.1411642
51
193.0079639
0
ARC
8
DEFAULT_255_1_234
10
13.8141736
20
70.4957641
40
0.3627568
50
192.7897626
51
205.2507664
0
ARC
8
DEFAULT_255_1_234
10
13.7095283
20
70.4490415
40
0.2481908
50
205.8005384
51
211.2537509
0
ARC
8
DEFAULT_255_1_234
10
13.6571724
20
70.413958
40
0.1852521
50
210.3789793
51
238.4008143
0
ARC
8
DEFAULT_255_1_234
10
13.6552245
20
70.4186376
40
0.1882621
50
239.6520629
51
265.9793761
0
ARC
8
DEFAULT_255_1_234
10
13.6637446
20
70.4858427
40
0.2559272
50
265.1315437
51
270.060332
0
ARC
8
DEFAULT_255_1_234
10
13.6666224
20
70.4534534
40
0.2235528
50
269.3314664
51
287.2178029
0
ARC
8
DEFAULT_255_1_234
10
13.6804076
20
70.4031279
40
0.1714108
50
287.7958004
51
329.080874
0
ARC
8
DEFAULT_255_1_234
10
13.5846533
20
70.462893
40
0.2842745
50
328.6634704
51
343.3325132
0
ARC
8
DEFAULT_255_1_234
10
13.3673553
20
70.5305863
40
0.5118644
50
343.0499468
51
351.9393422
0
ARC
8
DEFAULT_255_1_234
10
13.0206853
20
70.5816949
40
0.8622784
50
351.8069023
51
357.7959224
0
ARC
8
DEFAULT_255_1_234
10
12.6971409
20
70.5984721
40
1.1862365
50
357.5871873
51
359.2677531
0
LINE
8
DEFAULT_255_1_234
10
14.9555176
20
70.8162327
11
14.9555176
21
70.6234709
0
LINE
8
DEFAULT_255_1_234
10
14.2174008
20
70.6033916
11
14.2174008
21
70.8017755
0
LINE
8
DEFAULT_255_1_234
10
14.8069304
20
70.5833123
11
14.8069304
21
70.8266739
0
LINE
8
DEFAULT_255_1_234
10
14.365988
20
70.8379184
11
14.365988
21
70.6001789
0
ARC
8
DEFAULT_255_1_234
10
13.7308065
20
70.6185805
40
1.2247208
50
353.8441951
51
0.2287902
0
ARC
8
DEFAULT_255_1_234
10
14.1947569
20
70.5667806
40
0.7578929
50
344.4934747
51
353.9765454
0
ARC
8
DEFAULT_255_1_234
10
14.4940159
20
70.4816981
40
0.4467846
50
329.2803592
51
344.7472793
0
ARC
8
DEFAULT_255_1_234
10
14.5932984
20
70.4272018
40
0.3336173
50
324.9352394
51
328.6160465
0
ARC
8
DEFAULT_255_1_234
10
14.6310093
20
70.4008427
40
0.2876076
50
280.580143
51
324.9173126
0
ARC
8
DEFAULT_255_1_234
10
14.5908885
20
70.5679099
40
0.4592847
50
269.5977311
51
281.6734359
0
ARC
8
DEFAULT_255_1_234
10
14.5836791
20
70.5559173
40
0.4472986
50
256.6228859
51
270.51044
0
ARC
8
DEFAULT_255_1_234
10
14.5434769
20
70.4010877
40
0.2873874
50
215.8618325
51
257.2788573
0
ARC
8
DEFAULT_255_1_234
10
14.64558
20
70.4695977
40
0.4102928
50
197.9693508
51
215.2623606
0
ARC
8
DEFAULT_255_1_234
10
14.8940916
20
70.5534709
40
0.6725652
50
187.8816417
51
198.2346507
0
ARC
8
DEFAULT_255_1_234
10
15.2899124
20
70.6106079
40
1.0724845
50
180.8976217
51
188.0055519
0
ARC
8
DEFAULT_255_1_234
10
15.5699312
20
70.6209777
40
1.3526448
50
180.7449369
51
181.1510016
0
ARC
8
DEFAULT_255_1_234
10
15.4122042
20
70.8066042
40
1.1948131
50
173.7675579
51
180.231553
0
ARC
8
DEFAULT_255_1_234
10
14.9604188
20
70.8576666
40
0.7401564
50
164.3058563
51
173.9002247
0
ARC
8
DEFAULT_255_1_234
10
14.6692257
20
70.9415656
40
0.4371288
50
148.7922025
51
164.568378
0
ARC
8
DEFAULT_255_1_234
10
14.5740709
20
70.9946929
40
0.3282386
50
144.5883898
51
148.1176286
0
ARC
8
DEFAULT_255_1_234
10
14.5397607
20
71.0186315
40
0.2864044
50
101.6440918
51
144.514236
0
ARC
8
DEFAULT_255_1_234
10
14.5822674
20
70.8497069
40
0.4604934
50
89.5284041
51
102.5819763
0
ARC
8
DEFAULT_255_1_234
10
14.5901762
20
70.8458018
40
0.464401
50
77.0437873
51
90.5081339
0
ARC
8
DEFAULT_255_1_234
10
14.6303763
20
71.0100615
40
0.2953195
50
48.2778575
51
77.4994676
0
ARC
8
DEFAULT_255_1_234
10
14.6376395
20
71.0229746
40
0.2808655
50
36.3142134
51
47.6305865
0
ARC
8
DEFAULT_255_1_234
10
14.5507702
20
70.9644515
40
0.3855453
50
18.2931786
51
35.6769206
0
ARC
8
DEFAULT_255_1_234
10
14.296446
20
70.8771593
40
0.654423
50
8.024666
51
18.5605216
0
ARC
8
DEFAULT_255_1_234
10
13.880138
20
70.8156792
40
1.0752407
50
1.1274072
51
8.1718305
0
ARC
8
DEFAULT_255_1_234
10
13.5565571
20
70.8029885
40
1.3990231
50
0.5424119
51
1.3863029
0
ARC
8
DEFAULT_255_1_234
10
13.7386949
20
70.8302342
40
1.0682415
50
359.8090433
51
4.9407866
0
ARC
8
DEFAULT_255_1_234
10
14.1596963
20
70.8678113
40
0.6455691
50
4.8362157
51
12.2904523
0
ARC
8
DEFAULT_255_1_234
10
14.4352078
20
70.9291965
40
0.3633074
50
12.0805627
51
23.8173984
0
ARC
8
DEFAULT_255_1_234
10
14.5525783
20
70.9788919
40
0.2358723
50
24.2871213
51
31.3935614
0
ARC
8
DEFAULT_255_1_234
10
14.605048
20
71.0132233
40
0.1732111
50
30.7407893
51
82.4657128
0
ARC
8
DEFAULT_255_1_234
10
14.5870615
20
70.9248691
40
0.263235
50
81.1060089
51
90.2184952
0
ARC
8
DEFAULT_255_1_234
10
14.5834913
20
70.9506924
40
0.2374236
50
89.3806855
51
105.6762551
0
ARC
8
DEFAULT_255_1_234
10
14.5651544
20
71.0173567
40
0.1682847
50
105.7981136
51
149.7388061
0
ARC
8
DEFAULT_255_1_234
10
14.6715622
20
70.953395
40
0.2924306
50
149.4208916
51
163.6286378
0
ARC
8
DEFAULT_255_1_234
10
14.880651
20
70.889625
40
0.5110213
50
163.3763315
51
172.1410975
0
ARC
8
DEFAULT_255_1_234
10
15.2107229
20
70.8423518
40
0.8444586
50
172.0259487
51
178.0703232
0
ARC
8
DEFAULT_255_1_234
10
15.5137319
20
70.8279906
40
1.1477868
50
177.8631668
51
179.5044149
0
ARC
8
DEFAULT_255_1_234
10
15.4064723
20
70.5965389
40
1.0404907
50
179.7995573
51
185.2460446
0
ARC
8
DEFAULT_255_1_234
10
15.0021763
20
70.5582513
40
0.6343885
50
185.1411642
51
193.0079639
0
ARC
8
DEFAULT_255_1_234
10
14.7378235
20
70.4957641
40
0.3627568
50
192.7897626
51
205.2507664
0
ARC
8
DEFAULT_255_1_234
10
14.6331782
20
70.4490415
40
0.2481908
50
205.8005384
51
211.2537509
0
ARC
8
DEFAULT_255_1_234
10
14.5808223
20
70.413958
40
0.1852521
50
210.3789793
51
238.4008143
0
ARC
8
DEFAULT_255_1_234
10
14.5788744
20
70.4186376
40
0.1882621
50
239.6520629
51
265.9793761
0
ARC
8
DEFAULT_255_1_234
10
14.5873945
20
70.4858427
40
0.2559272
50
265.1315437
51
270.060332
0
ARC
8
DEFAULT_255_1_234
10
14.5902723
20
70.4534534
40
0.2235528
50
269.3314664
51
287.2178029
0
ARC
8
DEFAULT_255_1_234
10
14.6040575
20
70.4031279
40
0.1714108
50
287.7958004
51
329.080874
0
ARC
8
DEFAULT_255_1_234
10
14.5083032
20
70.462893
40
0.2842745
50
328.6634704
51
343.3325132
0
ARC
8
DEFAULT_255_1_234
10
14.2910052
20
70.5305863
40
0.5118644
50
343.0499468
51
351.9393422
0
ARC
8
DEFAULT_255_1_234
10
13.9443352
20
70.5816949
40
0.8622784
50
351.8069023
51
357.7959224
0
ARC
8
DEFAULT_255_1_234
10
13.6207908
20
70.5984721
40
1.1862365
50
357.5871873
51
359.2677531
0
LINE
8
DEFAULT_255_1_234
10
15.470352
20
70.6821026
11
15.470352
21
70.5608234
0
LINE
8
DEFAULT_255_1_234
10
15.470352
20
70.5608234
11
15.0784032
21
70.5608234
0
LINE
8
DEFAULT_255_1_234
10
15.0784032
20
70.5608234
11
15.0784032
21
70.6821026
0
LINE
8
DEFAULT_255_1_234
10
15.0784032
20
70.6821026
11
15.470352
21
70.6821026
0
LINE
8
DEFAULT_255_1_234
10
15.5771741
20
70.5351218
11
15.5771741
21
70.5624297
0
LINE
8
DEFAULT_255_1_234
10
16.3144877
20
70.5784932
11
16.3144877
21
70.5166488
0
LINE
8
DEFAULT_255_1_234
10
16.3144877
20
70.5166488
11
15.7257613
21
70.5166488
0
LINE
8
DEFAULT_255_1_234
10
16.2124846
20
70.3471792
11
16.3032433
21
70.2764999
0
LINE
8
DEFAULT_255_1_234
10
15.7305803
20
70.6387313
11
16.1659005
21
70.6387313
0
LINE
8
DEFAULT_255_1_234
10
16.1659005
20
70.6387313
11
16.1659005
21
70.6499757
0
ARC
8
DEFAULT_255_1_234
10
15.9711106
20
70.5462332
40
0.4376191
50
252.3266134
51
270.5810217
0
ARC
8
DEFAULT_255_1_234
10
15.9506195
20
70.4721644
40
0.3608374
50
223.3000567
51
251.8561855
0
ARC
8
DEFAULT_255_1_234
10
15.9717556
20
70.4926937
40
0.3902993
50
190.9374509
51
223.3654032
0
ARC
8
DEFAULT_255_1_234
10
16.1442528
20
70.5316885
40
0.5670891
50
179.6531105
51
191.4989439
0
ARC
8
DEFAULT_255_1_234
10
16.1564541
20
70.5656417
40
0.5792888
50
167.4007466
51
180.3176909
0
ARC
8
DEFAULT_255_1_234
10
16.0512602
20
70.5878885
40
0.471777
50
154.1835823
51
167.250763
0
ARC
8
DEFAULT_255_1_234
10
15.988107
20
70.6211417
40
0.4004528
50
134.3149965
51
154.5315275
0
ARC
8
DEFAULT_255_1_234
10
15.9663565
20
70.6402228
40
0.371612
50
122.8616532
51
133.9707695
0
ARC
8
DEFAULT_255_1_234
10
15.9560139
20
70.6624703
40
0.3473289
50
89.8249009
51
123.4199222
0
ARC
8
DEFAULT_255_1_234
10
15.961018
20
70.5977967
40
0.4120197
50
74.7876118
51
90.5482747
0
ARC
8
DEFAULT_255_1_234
10
15.9903923
20
70.706303
40
0.2996077
50
39.8178249
51
74.7633718
0
ARC
8
DEFAULT_255_1_234
10
15.9391243
20
70.6663351
40
0.3645855
50
16.8990863
51
39.4829761
0
ARC
8
DEFAULT_255_1_234
10
15.749654
20
70.6056526
40
0.5635218
50
4.9636328
51
17.2026414
0
ARC
8
DEFAULT_255_1_234
10
15.507861
20
70.580134
40
0.8066286
50
359.8834553
51
5.2834307
0
ARC
8
DEFAULT_255_1_234
10
16.1116134
20
70.5232803
40
0.3859091
50
180.9846213
51
194.9401313
0
ARC
8
DEFAULT_255_1_234
10
16.0066412
20
70.4945849
40
0.2770883
50
194.80314
51
222.0412631
0
ARC
8
DEFAULT_255_1_234
10
15.9762294
20
70.4644116
40
0.2343055
50
221.5417084
51
268.8614402
0
ARC
8
DEFAULT_255_1_234
10
15.9835289
20
70.5320686
40
0.3021528
50
267.732405
51
270.0097136
0
ARC
8
DEFAULT_255_1_234
10
15.9853099
20
70.5522105
40
0.3222994
50
269.6924892
51
280.4117579
0
ARC
8
DEFAULT_255_1_234
10
16.0029505
20
70.4603193
40
0.2287344
50
280.2255091
51
298.6338936
0
ARC
8
DEFAULT_255_1_234
10
16.0146297
20
70.4359223
40
0.2017294
50
299.0430333
51
300.4643464
0
ARC
8
DEFAULT_255_1_234
10
15.9466303
20
70.5493038
40
0.3339357
50
300.6577328
51
322.0378878
0
ARC
8
DEFAULT_255_1_234
10
15.9115842
20
70.5797021
40
0.3802736
50
321.6750233
51
322.3046845
0
ARC
8
DEFAULT_255_1_234
10
16.0046803
20
70.463037
40
0.3520454
50
276.9728461
51
328.0035423
0
ARC
8
DEFAULT_255_1_234
10
15.9769856
20
70.6110841
40
0.5024498
50
269.8361028
51
278.0581756
0
ARC
8
DEFAULT_255_1_234
10
15.9542594
20
70.6855757
40
0.202159
50
89.2018686
51
117.2851756
0
ARC
8
DEFAULT_255_1_234
10
15.9595763
20
70.6813752
40
0.2083484
50
118.0551165
51
137.4540413
0
ARC
8
DEFAULT_255_1_234
10
15.9970503
20
70.6473304
40
0.2589774
50
137.5109581
51
158.8516286
0
ARC
8
DEFAULT_255_1_234
10
16.1108338
20
70.6014074
40
0.38167
50
158.5845963
51
170.1721436
0
ARC
8
DEFAULT_255_1_234
10
16.2277727
20
70.5781823
40
0.5008657
50
169.8376422
51
173.0566086
0
ARC
8
DEFAULT_255_1_234
10
15.7580801
20
70.6292509
40
0.4083467
50
2.9091802
51
12.8847116
0
ARC
8
DEFAULT_255_1_234
10
15.8951478
20
70.6615101
40
0.2675383
50
12.6957781
51
28.6404489
0
ARC
8
DEFAULT_255_1_234
10
15.9493149
20
70.6895458
40
0.2065654
50
29.0169854
51
41.1487595
0
ARC
8
DEFAULT_255_1_234
10
15.9695934
20
70.7072003
40
0.1796786
50
41.1646065
51
85.0013516
0
ARC
8
DEFAULT_255_1_234
10
15.957503
20
70.6337431
40
0.2539726
50
83.7280015
51
90.0964893
0
LINE
8
DEFAULT_255_1_234
10
17.0397537
20
70.3985823
11
17.1803091
21
70.3985823
0
LINE
8
DEFAULT_255_1_234
10
16.4478146
20
70.5511853
11
16.4478146
21
70.5760837
0
LINE
8
DEFAULT_255_1_234
10
17.1803091
20
70.6949534
11
17.0397537
21
70.6949534
0
LINE
8
DEFAULT_255_1_234
10
16.5964017
20
70.5704615
11
16.5964017
21
70.5423504
0
ARC
8
DEFAULT_255_1_234
10
16.8385572
20
70.4439121
40
0.2140268
50
269.0327816
51
309.2224514
0
ARC
8
DEFAULT_255_1_234
10
16.8595326
20
70.4224108
40
0.1841255
50
308.396669
51
329.6984113
0
ARC
8
DEFAULT_255_1_234
10
16.8733181
20
70.411982
40
0.166974
50
330.401383
51
355.3970571
0
ARC
8
DEFAULT_255_1_234
10
16.9190048
20
70.4137082
40
0.2617417
50
329.2357853
51
356.6870514
0
ARC
8
DEFAULT_255_1_234
10
16.864007
20
70.4427971
40
0.3238945
50
324.8706984
51
329.7905871
0
ARC
8
DEFAULT_255_1_234
10
16.8561788
20
70.4495106
40
0.3341614
50
298.8769168
51
324.7016144
0
ARC
8
DEFAULT_255_1_234
10
16.8229979
20
70.5023917
40
0.3965068
50
296.9023738
51
299.385174
0
ARC
8
DEFAULT_255_1_234
10
16.8359593
20
70.4736422
40
0.365007
50
269.8406811
51
297.1299281
0
ARC
8
DEFAULT_255_1_234
10
16.8306249
20
70.5374407
40
0.4288259
50
253.315473
51
270.5771285
0
ARC
8
DEFAULT_255_1_234
10
16.8059285
20
70.4480739
40
0.3361372
50
221.1002312
51
252.9744583
0
ARC
8
DEFAULT_255_1_234
10
16.8519282
20
70.487559
40
0.3967576
50
194.5394537
51
221.0302238
0
ARC
8
DEFAULT_255_1_234
10
17.0368103
20
70.5390952
40
0.5886672
50
182.0499201
51
194.8773585
0
ARC
8
DEFAULT_255_1_234
10
17.2138301
20
70.550906
40
0.7660157
50
179.9791086
51
182.4591564
0
ARC
8
DEFAULT_255_1_234
10
17.0400345
20
70.5790498
40
0.5922274
50
168.614861
51
180.2869651
0
ARC
8
DEFAULT_255_1_234
10
16.919849
20
70.6026269
40
0.4697532
50
154.9162259
51
168.5402336
0
ARC
8
DEFAULT_255_1_234
10
16.8276998
20
70.648163
40
0.3669966
50
133.5746694
51
155.2558665
0
ARC
8
DEFAULT_255_1_234
10
16.8114157
20
70.6620467
40
0.3457206
50
122.0165146
51
133.2055214
0
ARC
8
DEFAULT_255_1_234
10
16.8149995
20
70.6532361
40
0.355095
50
97.8731644
51
121.7531281
0
ARC
8
DEFAULT_255_1_234
10
16.8329078
20
70.5475159
40
0.4622833
50
89.8471353
51
98.2769494
0
ARC
8
DEFAULT_255_1_234
10
16.8377831
20
70.6085091
40
0.401305
50
73.3760412
51
90.5199766
0
ARC
8
DEFAULT_255_1_234
10
16.8574194
20
70.6807516
40
0.3264695
50
47.7085968
51
73.0509704
0
ARC
8
DEFAULT_255_1_234
10
16.8704064
20
70.6920128
40
0.309407
50
3.7443473
51
48.0843753
0
ARC
8
DEFAULT_255_1_234
10
16.7717014
20
70.6762614
40
0.4090351
50
2.6192045
51
5.0432185
0
ARC
8
DEFAULT_255_1_234
10
16.8173867
20
70.6802592
40
0.2228519
50
3.780656
51
23.9356886
0
ARC
8
DEFAULT_255_1_234
10
16.8402483
20
70.6883155
40
0.198697
50
24.4869552
51
46.9440088
0
ARC
8
DEFAULT_255_1_234
10
16.8403333
20
70.6906484
40
0.1969404
50
46.498716
51
89.3298174
0
ARC
8
DEFAULT_255_1_234
10
16.8341687
20
70.6311723
40
0.2565428
50
88.1083975
51
90.0061569
0
ARC
8
DEFAULT_255_1_234
10
16.8314118
20
70.6365759
40
0.251154
50
89.3773333
51
107.2071161
0
ARC
8
DEFAULT_255_1_234
10
16.8171241
20
70.688319
40
0.1975072
50
107.6883219
51
143.3583002
0
ARC
8
DEFAULT_255_1_234
10
16.8738624
20
70.6456873
40
0.2684762
50
143.2846717
51
162.935323
0
ARC
8
DEFAULT_255_1_234
10
17.0244225
20
70.5973652
40
0.4265927
50
162.6650068
51
174.0805419
0
ARC
8
DEFAULT_255_1_234
10
17.2387065
20
70.5724636
40
0.6423078
50
173.8423985
51
180.1785963
0
ARC
8
DEFAULT_255_1_234
10
17.1839165
20
70.5393039
40
0.5875227
50
179.7028978
51
188.2277152
0
ARC
8
DEFAULT_255_1_234
10
16.9737467
20
70.5078247
40
0.3750127
50
188.0629871
51
201.1160002
0
ARC
8
DEFAULT_255_1_234
10
16.8639665
20
70.4659238
40
0.2575093
50
201.2187293
51
216.9761968
0
ARC
8
DEFAULT_255_1_234
10
16.8188228
20
70.4320993
40
0.2010998
50
217.0135981
51
265.2056839
0
ARC
8
DEFAULT_255_1_234
10
16.8344088
20
70.5242695
40
0.2943543
50
263.681807
51
270.104251
0
LINE
8
DEFAULT_255_1_234
10
17.3080137
20
70.5568075
11
17.3080137
21
70.5672488
0
LINE
8
DEFAULT_255_1_234
10
18.0991399
20
70.5600202
11
18.0991399
21
70.549579
0
ARC
8
DEFAULT_255_1_234
10
17.8666317
20
70.5704837
40
0.5586273
50
166.3003825
51
180.3317926
0
ARC
8
DEFAULT_255_1_234
10
17.7803476
20
70.5897964
40
0.4702272
50
153.8608245
51
166.0967125
0
ARC
8
DEFAULT_255_1_234
10
17.7137878
20
70.625475
40
0.3947658
50
135.1316692
51
154.253643
0
ARC
8
DEFAULT_255_1_234
10
17.6859438
20
70.6500666
40
0.3576898
50
121.7044358
51
134.776924
0
ARC
8
DEFAULT_255_1_234
10
17.6926432
20
70.6371867
40
0.3721701
50
93.4002104
51
121.5398234
0
ARC
8
DEFAULT_255_1_234
10
17.7021387
20
70.5546228
40
0.4551749
50
89.9706281
51
93.9769836
0
ARC
8
DEFAULT_255_1_234
10
17.7068479
20
70.5936362
40
0.4161854
50
71.3323442
51
90.6161982
0
ARC
8
DEFAULT_255_1_234
10
17.7231176
20
70.6538578
40
0.3539455
50
41.1815071
51
70.707185
0
ARC
8
DEFAULT_255_1_234
10
17.6753576
20
70.6104919
40
0.4184468
50
12.1971897
51
41.3445735
0
ARC
8
DEFAULT_255_1_234
10
17.4827584
20
70.5646425
40
0.616399
50
359.5703439
51
12.5804035
0
ARC
8
DEFAULT_255_1_234
10
17.5300658
20
70.5464116
40
0.5690829
50
347.0197749
51
0.3188898
0
ARC
8
DEFAULT_255_1_234
10
17.6259161
20
70.5257808
40
0.4710501
50
334.3504053
51
346.846361
0
ARC
8
DEFAULT_255_1_234
10
17.7104584
20
70.4818805
40
0.3758475
50
310.422922
51
334.8045033
0
ARC
8
DEFAULT_255_1_234
10
17.718641
20
70.4754782
40
0.3656736
50
301.8486886
51
310.097356
0
ARC
8
DEFAULT_255_1_234
10
17.7154136
20
70.4830638
40
0.3738224
50
274.307774
51
301.655379
0
ARC
8
DEFAULT_255_1_234
10
17.7043443
20
70.5708361
40
0.4621997
50
269.9546461
51
274.8588071
0
ARC
8
DEFAULT_255_1_234
10
17.6994376
20
70.5207249
40
0.4121134
50
250.888809
51
270.631312
0
ARC
8
DEFAULT_255_1_234
10
17.6844296
20
70.4648277
40
0.3544073
50
221.1701932
51
250.2227191
0
ARC
8
DEFAULT_255_1_234
10
17.7328451
20
70.5089439
40
0.4198961
50
191.6263638
51
221.3526367
0
ARC
8
DEFAULT_255_1_234
10
17.9216446
20
70.5526329
40
0.6136451
50
179.610213
51
192.0693181
0
ARC
8
DEFAULT_255_1_234
10
17.9639674
20
70.5463633
40
0.5065736
50
179.636298
51
190.6162791
0
ARC
8
DEFAULT_255_1_234
10
17.7997342
20
70.514359
40
0.3392576
50
190.4136628
51
208.7170242
0
ARC
8
DEFAULT_255_1_234
10
17.7486967
20
70.4890366
40
0.2823401
50
209.1867941
51
217.4225593
0
ARC
8
DEFAULT_255_1_234
10
17.6957801
20
70.4424558
40
0.2120636
50
216.1156896
51
265.2575835
0
ARC
8
DEFAULT_255_1_234
10
17.703695
20
70.4998109
40
0.2698952
50
264.5897417
51
270.0601757
0
ARC
8
DEFAULT_255_1_234
10
17.707001
20
70.4618185
40
0.2319225
50
269.2532621
51
291.8792492
0
ARC
8
DEFAULT_255_1_234
10
17.7099232
20
70.4440238
40
0.2143562
50
292.9269754
51
323.1776747
0
ARC
8
DEFAULT_255_1_234
10
17.6706053
20
70.4788452
40
0.2667346
50
322.2518483
51
323.0930371
0
ARC
8
DEFAULT_255_1_234
10
17.6411713
20
70.496999
40
0.3011886
50
323.6941278
51
343.8493282
0
ARC
8
DEFAULT_255_1_234
10
17.4833256
20
70.545035
40
0.4661719
50
343.5748474
51
355.0079071
0
ARC
8
DEFAULT_255_1_234
10
17.2825501
20
70.5658424
40
0.6680042
50
354.7285225
51
0.1206288
0
ARC
8
DEFAULT_255_1_234
10
17.4593967
20
70.5704751
40
0.4911667
50
359.623636
51
11.2015604
0
ARC
8
DEFAULT_255_1_234
10
17.6128195
20
70.602064
40
0.3345323
50
10.9989411
51
30.8319188
0
ARC
8
DEFAULT_255_1_234
10
17.6524067
20
70.6229297
40
0.2898553
50
31.3008956
51
37.3959224
0
ARC
8
DEFAULT_255_1_234
10
17.7020646
20
70.6648653
40
0.2249582
50
36.5915954
51
62.2442953
0
ARC
8
DEFAULT_255_1_234
10
17.7067099
20
70.6645602
40
0.2231053
50
63.3365542
51
89.7195421
0
ARC
8
DEFAULT_255_1_234
10
17.7023953
20
70.6076884
40
0.2800267
50
88.8936788
51
90.0047485
0
ARC
8
DEFAULT_255_1_234
10
17.6992312
20
70.6649787
40
0.2227586
50
89.1921125
51
114.7099455
0
ARC
8
DEFAULT_255_1_234
10
17.7021076
20
70.6687628
40
0.2205633
50
115.7997161
51
142.2900762
0
ARC
8
DEFAULT_255_1_234
10
17.7459809
20
70.6297658
40
0.2791541
50
141.4658779
51
142.3795754
0
ARC
8
DEFAULT_255_1_234
10
17.7568713
20
70.6254557
40
0.2904292
50
143.0175714
51
163.234115
0
ARC
8
DEFAULT_255_1_234
10
17.9146886
20
70.5755054
40
0.4559523
50
162.9447461
51
174.3732162
0
ARC
8
DEFAULT_255_1_234
10
18.1292699
20
70.5514143
40
0.6718682
50
174.1228657
51
180.1565175
0
ARC
8
DEFAULT_255_2_778
10
17.2795513
20
73.4515655
40
0.9032652
50
36.6636783
51
62.8800292
0
ARC
8
DEFAULT_255_2_778
10
17.362048
20
74.7205795
40
0.5698185
50
305.2984654
51
359.1896208
0
ARC
8
DEFAULT_255_2_778
10
17.3634372
20
74.7159256
40
0.5683825
50
359.6567283
51
359.9965559
0
ARC
8
DEFAULT_255_2_778
10
17.3738628
20
74.7157968
40
0.5579568
50
0.0097156
51
44.9837975
0
ARC
8
DEFAULT_255_2_778
10
17.3736736
20
74.7159297
40
0.5579968
50
44.9604089
51
90.0139948
0
ARC
8
DEFAULT_255_2_778
10
17.3735813
20
74.6983846
40
0.5755419
50
90.0043846
51
90.2659864
0
ARC
8
DEFAULT_255_2_778
10
17.3015142
20
73.5052344
40
0.8779024
50
272.428255
51
302.0472027
0
ARC
8
DEFAULT_255_2_778
10
17.3149911
20
73.4707487
40
0.841549
50
302.5153244
51
0.4882776
0
ARC
8
DEFAULT_255_2_778
10
17.3237108
20
73.4987449
40
0.833059
50
358.5675863
51
29.0157619
0
ARC
8
DEFAULT_255_2_778
10
15.115709
20
73.4526166
40
0.90203
50
36.6388615
51
62.8867752
0
ARC
8
DEFAULT_255_2_778
10
15.1980877
20
74.7202954
40
0.5692748
50
305.2706468
51
359.2174393
0
ARC
8
DEFAULT_255_2_778
10
15.2034234
20
74.7155241
40
0.563894
50
359.6947901
51
359.9999584
0
ARC
8
DEFAULT_255_2_778
10
15.2087973
20
74.7155658
40
0.5585202
50
359.9956834
51
44.9740581
0
ARC
8
DEFAULT_255_2_778
10
15.2091182
20
74.7158026
40
0.5581257
50
44.9801433
51
90.0010632
0
ARC
8
DEFAULT_255_2_778
10
15.2091083
20
74.7118714
40
0.562057
50
90.0000416
51
90.3056982
0
ARC
8
DEFAULT_255_2_778
10
15.1365968
20
73.5053822
40
0.8780507
50
272.42898
51
302.0445025
0
ARC
8
DEFAULT_255_2_778
10
15.1501929
20
73.4707943
40
0.8415468
50
302.5093151
51
0.4851764
0
ARC
8
DEFAULT_255_2_778
10
15.1579024
20
73.4984974
40
0.8340609
50
358.5863171
51
28.9970314
0
LINE
8
DEFAULT_255_2_778
10
13.4101095
20
73.9909203
11
12.9532095
21
75.2739203
0
LINE
8
DEFAULT_255_2_778
10
12.9532095
20
75.2739203
11
12.6084095
21
75.2739203
0
LINE
8
DEFAULT_255_2_778
10
12.6084095
20
75.2739203
11
12.6084095
21
73.9909203
0
LINE
8
DEFAULT_255_2_778
10
12.6084095
20
73.9909203
11
13.4101095
21
73.9909203
0
LINE
8
DEFAULT_255_2_778
10
12.6084095
20
73.1892203
11
13.0334095
21
73.1892203
0
LINE
8
DEFAULT_255_2_778
10
13.0334095
20
73.1892203
11
13.2257095
21
72.6281203
0
LINE
8
DEFAULT_255_2_778
10
13.2257095
20
72.6281203
11
13.8911095
21
72.6281203
0
LINE
8
DEFAULT_255_2_778
10
13.8911095
20
72.6281203
11
13.4342095
21
73.9108203
0
LINE
8
DEFAULT_255_2_778
10
13.4342095
20
73.9108203
11
12.6084095
21
73.9108203
0
LINE
8
DEFAULT_255_2_778
10
12.6084095
20
73.9108203
11
12.6084095
21
73.1892203
0
LINE
8
DEFAULT_255_2_778
10
12.5283095
20
75.2739203
11
12.1835095
21
75.2739203
0
LINE
8
DEFAULT_255_2_778
10
12.1835095
20
75.2739203
11
11.7266095
21
73.9909203
0
LINE
8
DEFAULT_255_2_778
10
11.7266095
20
73.9909203
11
12.5283095
21
73.9909203
0
LINE
8
DEFAULT_255_2_778
10
12.5283095
20
73.9909203
11
12.5283095
21
75.2739203
0
LINE
8
DEFAULT_255_2_778
10
11.7025095
20
73.9108203
11
11.2453095
21
72.6281203
0
LINE
8
DEFAULT_255_2_778
10
11.2453095
20
72.6281203
11
11.9107095
21
72.6281203
0
LINE
8
DEFAULT_255_2_778
10
11.9107095
20
72.6281203
11
12.1031095
21
73.1892203
0
LINE
8
DEFAULT_255_2_778
10
12.1031095
20
73.1892203
11
12.5280095
21
73.1892203
0
LINE
8
DEFAULT_255_2_778
10
12.5280095
20
73.1892203
11
12.5280095
21
73.9108203
0
LINE
8
DEFAULT_255_2_778
10
12.5280095
20
73.9108203
11
11.7025095
21
73.9108203
0
LINE
8
DEFAULT_255_2_778
10
16.2965095
20
75.2739203
11
17.0981095
21
75.2739203
0
LINE
8
DEFAULT_255_2_778
10
17.0981095
20
75.2739203
11
17.0981095
21
73.9909203
0
LINE
8
DEFAULT_255_2_778
10
17.0981095
20
73.9909203
11
16.2965095
21
73.9909203
0
LINE
8
DEFAULT_255_2_778
10
16.2965095
20
73.9909203
11
16.2965095
21
75.2739203
0
LINE
8
DEFAULT_255_2_778
10
17.3709095
20
75.2739203
11
17.1786095
21
75.2739203
0
LINE
8
DEFAULT_255_2_778
10
17.1786095
20
75.2739203
11
17.1786095
21
73.9909203
0
LINE
8
DEFAULT_255_2_778
10
17.1786095
20
73.9909203
11
18.0043095
21
73.9909203
0
LINE
8
DEFAULT_255_2_778
10
18.0043095
20
73.9909203
11
18.0041095
21
73.9909203
0
LINE
8
DEFAULT_255_2_778
10
16.2965095
20
73.9108203
11
17.0981095
21
73.9108203
0
LINE
8
DEFAULT_255_2_778
10
17.0981095
20
73.9108203
11
17.0981095
21
72.6281203
0
LINE
8
DEFAULT_255_2_778
10
17.0981095
20
72.6281203
11
16.2965095
21
72.6281203
0
LINE
8
DEFAULT_255_2_778
10
16.2965095
20
72.6281203
11
16.2965095
21
73.9108203
0
LINE
8
DEFAULT_255_2_778
10
17.1783095
20
72.6281203
11
17.3387095
21
72.6281203
0
LINE
8
DEFAULT_255_2_778
10
18.0522095
20
73.9028203
11
17.1783095
21
73.9028203
0
LINE
8
DEFAULT_255_2_778
10
17.1783095
20
73.9028203
11
17.1783095
21
72.6281203
0
LINE
8
DEFAULT_255_2_778
10
17.1783095
20
72.6281203
11
17.1783095
21
72.6281203
0
LINE
8
DEFAULT_255_2_778
10
14.1316095
20
75.2739203
11
14.9333095
21
75.2739203
0
LINE
8
DEFAULT_255_2_778
10
14.9333095
20
75.2739203
11
14.9333095
21
73.9909203
0
LINE
8
DEFAULT_255_2_778
10
14.9333095
20
73.9909203
11
14.1316095
21
73.9909203
0
LINE
8
DEFAULT_255_2_778
10
14.1316095
20
73.9909203
11
14.1316095
21
75.2739203
0
LINE
8
DEFAULT_255_2_778
10
15.2061095
20
75.2739203
11
15.0138095
21
75.2739203
0
LINE
8
DEFAULT_255_2_778
10
15.0138095
20
75.2739203
11
15.0138095
21
73.9909203
0
LINE
8
DEFAULT_255_2_778
10
15.0138095
20
73.9909203
11
15.8395095
21
73.9909203
0
LINE
8
DEFAULT_255_2_778
10
15.8395095
20
73.9909203
11
15.8395095
21
73.9909203
0
LINE
8
DEFAULT_255_2_778
10
14.1316095
20
73.9108203
11
14.9333095
21
73.9108203
0
LINE
8
DEFAULT_255_2_778
10
14.9333095
20
73.9108203
11
14.9333095
21
72.6281203
0
LINE
8
DEFAULT_255_2_778
10
14.9333095
20
72.6281203
11
14.1316095
21
72.6281203
0
LINE
8
DEFAULT_255_2_778
10
14.1316095
20
72.6281203
11
14.1316095
21
73.9108203
0
LINE
8
DEFAULT_255_2_778
10
15.0135095
20
72.6281203
11
15.1738095
21
72.6281203
0
LINE
8
DEFAULT_255_2_778
10
15.8874095
20
73.9028203
11
15.0135095
21
73.9028203
0
LINE
8
DEFAULT_255_2_778
10
15.0135095
20
73.9028203
11
15.0135095
21
72.6281203
0
LINE
8
DEFAULT_255_2_778
10
15.0135095
20
72.6281203
11
15.0135095
21
72.6281203
0
LINE
8
DEFAULT_255_2_778
10
9.3932417
20
60.7218494
11
10.7161417
21
60.7218494
0
LINE
8
DEFAULT_255_2_778
10
10.7161417
20
60.7218494
11
10.7161417
21
43.5239494
0
LINE
8
DEFAULT_255_2_778
10
10.7161417
20
38.2322494
11
10.7161417
21
21.0343494
0
LINE
8
DEFAULT_255_2_778
10
10.7161417
20
21.0343494
11
9.3932417
21
21.0343494
0
LINE
8
DEFAULT_255_2_778
10
9.3932834
20
43.5239333
11
12.0390834
21
43.5239333
0
LINE
8
DEFAULT_255_2_778
10
12.0390834
20
43.5239333
11
12.0390834
21
38.2322333
0
LINE
8
DEFAULT_255_2_778
10
12.0390834
20
38.2322333
11
9.3932834
21
38.2322333
0
LINE
8
DEFAULT_255_2_778
10
9.3932834
20
38.2322333
11
9.3932834
21
43.5239333
0
LINE
8
DEFAULT_255_2_778
10
10.187
20
38.7614666
11
10.187
21
42.9947666
0
LINE
8
DEFAULT_255_2_778
10
9.9224167
20
42.201075
11
10.1870167
21
42.994775
0
LINE
8
DEFAULT_255_2_778
10
10.1870167
20
42.994775
11
10.4516167
21
42.201075
0
LINE
8
DEFAULT_255_2_778
10
10.4516167
20
42.201075
11
9.9224167
21
42.201075
0
LINE
8
DEFAULT_255_2_778
10
11.2453
20
42.9947666
11
11.2453
21
38.7614666
0
LINE
8
DEFAULT_255_2_778
10
10.9807167
20
39.555175
11
11.2453167
21
38.761475
0
LINE
8
DEFAULT_255_2_778
10
11.2453167
20
38.761475
11
11.5099167
21
39.555175
0
LINE
8
DEFAULT_255_2_778
10
11.5099167
20
39.555175
11
10.9807167
21
39.555175
0
LINE
8
DEFAULT_255_2_778
10
19.9765417
20
60.7218993
11
18.6536417
21
60.7218993
0
LINE
8
DEFAULT_255_2_778
10
18.6536417
20
60.7218993
11
18.6536417
21
39.5551993
0
LINE
8
DEFAULT_255_2_778
10
18.6536417
20
34.2635993
11
18.6536417
21
13.0968993
0
LINE
8
DEFAULT_255_2_778
10
18.6536417
20
13.0968993
11
19.9765417
21
13.0968993
0
LINE
8
DEFAULT_255_2_778
10
17.3307834
20
39.5552333
11
19.9765834
21
39.5552333
0
LINE
8
DEFAULT_255_2_778
10
19.9765834
20
39.5552333
11
19.9765834
21
34.2635333
0
LINE
8
DEFAULT_255_2_778
10
19.9765834
20
34.2635333
11
17.3307834
21
34.2635333
0
LINE
8
DEFAULT_255_2_778
10
17.3307834
20
34.2635333
11
17.3307834
21
39.5552333
0
LINE
8
DEFAULT_255_2_778
10
18.1245
20
34.7927666
11
18.1245
21
39.0260666
0
LINE
8
DEFAULT_255_2_778
10
17.8599167
20
38.232375
11
18.1245167
21
39.026075
0
LINE
8
DEFAULT_255_2_778
10
18.1245167
20
39.026075
11
18.3891167
21
38.232375
0
LINE
8
DEFAULT_255_2_778
10
18.3891167
20
38.232375
11
17.8599167
21
38.232375
0
LINE
8
DEFAULT_255_2_778
10
19.1828
20
39.0260666
11
19.1828
21
34.7927666
0
LINE
8
DEFAULT_255_2_778
10
18.9182167
20
35.586475
11
19.1828167
21
34.792775
0
LINE
8
DEFAULT_255_2_778
10
19.1828167
20
34.792775
11
19.4474167
21
35.586475
0
LINE
8
DEFAULT_255_2_778
10
19.4474167
20
35.586475
11
18.9182167
21
35.586475
0
LINE
8
DEFAULT_255_2_778
10
9.3932417
20
13.0968499
11
10.7161417
21
13.0968499
0
LINE
8
DEFAULT_255_2_778
10
10.7161417
20
13.0968499
11
10.7161417
21
11.7739499
0
LINE
8
DEFAULT_255_2_778
10
10.7161417
20
6.4822499
11
10.7161417
21
5.1593499
0
LINE
8
DEFAULT_255_2_778
10
10.7161417
20
5.1593499
11
9.3932417
21
5.1593499
0
LINE
8
DEFAULT_255_2_778
10
9.3932834
20
11.7739333
11
12.0390834
21
11.7739333
0
LINE
8
DEFAULT_255_2_778
10
12.0390834
20
11.7739333
11
12.0390834
21
6.4822333
0
LINE
8
DEFAULT_255_2_778
10
12.0390834
20
6.4822333
11
9.3932834
21
6.4822333
0
LINE
8
DEFAULT_255_2_778
10
9.3932834
20
6.4822333
11
9.3932834
21
11.7739333
0
ARC
8
DEFAULT_255_2_778_1
10
13.1928591
20
6.584677
40
4.816461
50
120.9442904
51
122.351755
0
ARC
8
DEFAULT_255_2_778_1
10
12.7462523
20
7.2883039
40
3.9830657
50
122.3407904
51
124.1946752
0
ARC
8
DEFAULT_255_2_778_1
10
12.3063464
20
7.9348306
40
3.2010724
50
124.1855758
51
126.4338849
0
ARC
8
DEFAULT_255_2_778_1
10
11.9204129
20
8.4575611
40
2.5513094
50
126.4326926
51
128.8877368
0
ARC
8
DEFAULT_255_2_778_1
10
11.5855968
20
8.8719658
40
2.0185498
50
128.8749205
51
131.8726567
0
ARC
8
DEFAULT_255_2_778_1
10
11.2884677
20
9.2029854
40
1.5737356
50
131.8616166
51
135.4168838
0
ARC
8
DEFAULT_255_2_778_1
10
11.025668
20
9.4611765
40
1.2053256
50
135.3893975
51
139.9687014
0
ARC
8
DEFAULT_255_2_778_1
10
10.7927889
20
9.6560102
40
0.9016937
50
139.9301659
51
145.9260426
0
ARC
8
DEFAULT_255_2_778_1
10
10.596654
20
9.7880104
40
0.6652776
50
145.8787362
51
153.8146208
0
ARC
8
DEFAULT_255_2_778_1
10
10.4445553
20
9.8623797
40
0.4959714
50
153.770634
51
164.3484794
0
ARC
8
DEFAULT_255_2_778_1
10
10.3432387
20
9.8905786
40
0.3908039
50
164.3220276
51
179.8083066
0
ARC
8
DEFAULT_255_2_778_1
10
10.3642789
20
9.898715
40
0.4118985
50
180.9499449
51
213.8111542
0
ARC
8
DEFAULT_255_2_778_1
10
10.6401828
20
10.0682896
40
0.73561
50
212.8271214
51
224.258472
0
ARC
8
DEFAULT_255_2_778_1
10
11.0230335
20
10.4376236
40
1.267567
50
224.1376218
51
231.4508261
0
ARC
8
DEFAULT_255_2_778_1
10
11.6657195
20
11.2406168
40
2.2960809
50
231.3955893
51
236.1256478
0
ARC
8
DEFAULT_255_2_778_1
10
13.4980223
20
13.9871293
40
5.5976905
50
236.2233172
51
239.1314682
0
ARC
8
DEFAULT_255_2_778_1
10
25.447927
20
33.7148568
40
28.6623793
50
238.8606853
51
239.0711101
0
ARC
8
DEFAULT_255_2_778_1
10
6.2757281
20
1.6177653
40
8.7248518
50
57.2420924
51
59.4062964
0
ARC
8
DEFAULT_255_2_778_1
10
9.5034241
20
6.6487102
40
2.747542
50
52.8289294
51
57.079028
0
ARC
8
DEFAULT_255_2_778_1
10
10.2780783
20
7.6690488
40
1.466457
50
46.3041868
51
52.8596521
0
ARC
8
DEFAULT_255_2_778_1
10
10.7103073
20
8.1191842
40
0.8424061
50
36.2174211
51
46.4090895
0
ARC
8
DEFAULT_255_2_778_1
10
10.9948088
20
8.3240128
40
0.4918609
50
17.400375
51
36.5489745
0
ARC
8
DEFAULT_255_2_778_1
10
11.1088994
20
8.3638754
40
0.3710912
50
0.0676858
51
16.7951297
0
ARC
8
DEFAULT_255_2_778_1
10
11.0878613
20
8.3657428
40
0.3921317
50
343.8035191
51
359.7912046
0
ARC
8
DEFAULT_255_2_778_1
10
10.9815912
20
8.3962167
40
0.5026844
50
333.2506233
51
343.8465691
0
ARC
8
DEFAULT_255_2_778_1
10
10.8277757
20
8.4729313
40
0.6745679
50
325.6600948
51
333.3122657
0
ARC
8
DEFAULT_255_2_778_1
10
10.6323344
20
8.6057296
40
0.9108568
50
319.7560915
51
325.6976089
0
ARC
8
DEFAULT_255_2_778_1
10
10.404199
20
8.7975002
40
1.2088854
50
315.4577584
51
319.8037947
0
ARC
8
DEFAULT_255_2_778_1
10
10.1408127
20
9.0563507
40
1.5781764
50
311.7298824
51
315.4670864
0
ARC
8
DEFAULT_255_2_778_1
10
9.8317879
20
9.4019074
40
2.0417554
50
308.723055
51
311.7470879
0
ARC
8
DEFAULT_255_2_778_1
10
9.477589
20
9.8431492
40
2.6075745
50
306.1165163
51
308.7300151
0
ARC
8
DEFAULT_255_2_778_1
10
9.0746091
20
10.3944523
40
3.2904564
50
303.9559446
51
306.1266333
0
ARC
8
DEFAULT_255_2_778_1
10
8.6630432
20
11.003715
40
4.0257023
50
302.3733397
51
303.9712246
0
ARC
8
DEFAULT_255_2_778_1
10
8.2434347
20
11.6652058
40
4.8090549
50
300.9434827
51
302.3758078
0
LINE
8
DEFAULT_255_1_234
10
4.2446489
20
69.3098211
11
4.2446489
21
68.2664983
0
LINE
8
DEFAULT_255_1_234
10
4.2446489
20
68.2664983
11
4.7988389
21
68.2664983
0
LINE
8
DEFAULT_255_1_234
10
4.7988389
20
68.2664983
11
4.7988389
21
68.1404
0
LINE
8
DEFAULT_255_1_234
10
4.7988389
20
68.1404
11
4.0896364
21
68.1404
0
LINE
8
DEFAULT_255_1_234
10
4.0896364
20
68.1404
11
4.0896364
21
69.3098211
0
LINE
8
DEFAULT_255_1_234
10
4.0896364
20
69.3098211
11
4.2446489
21
69.3098211
0
LINE
8
DEFAULT_255_1_234
10
5.377124
20
69.1090276
11
5.377124
21
68.7676788
0
LINE
8
DEFAULT_255_1_234
10
5.377124
20
68.7676788
11
5.7032126
21
68.7676788
0
LINE
8
DEFAULT_255_1_234
10
5.7032126
20
68.7676788
11
5.7032126
21
68.6271233
0
LINE
8
DEFAULT_255_1_234
10
5.7032126
20
68.6271233
11
5.377124
21
68.6271233
0
LINE
8
DEFAULT_255_1_234
10
5.377124
20
68.6271233
11
5.377124
21
68.2576634
0
LINE
8
DEFAULT_255_1_234
10
5.377124
20
68.2576634
11
5.2277337
21
68.2576634
0
LINE
8
DEFAULT_255_1_234
10
5.2277337
20
68.2576634
11
5.2277337
21
68.6271233
0
LINE
8
DEFAULT_255_1_234
10
5.2277337
20
68.6271233
11
4.9016451
21
68.6271233
0
LINE
8
DEFAULT_255_1_234
10
4.9016451
20
68.6271233
11
4.9016451
21
68.7676788
0
LINE
8
DEFAULT_255_1_234
10
4.9016451
20
68.7676788
11
5.2277337
21
68.7676788
0
LINE
8
DEFAULT_255_1_234
10
5.2277337
20
68.7676788
11
5.2277337
21
69.1090276
0
LINE
8
DEFAULT_255_1_234
10
5.2277337
20
69.1090276
11
5.377124
21
69.1090276
0
LINE
8
DEFAULT_255_1_234
10
4.9900293
20
4.6404
11
4.8783881
21
4.9456061
0
LINE
8
DEFAULT_255_1_234
10
4.8783881
20
4.9456061
11
4.3884521
21
4.9456061
0
LINE
8
DEFAULT_255_1_234
10
4.3884521
20
4.9456061
11
4.2784173
21
4.6404
0
LINE
8
DEFAULT_255_1_234
10
4.2784173
20
4.6404
11
4.1193889
21
4.6404
0
LINE
8
DEFAULT_255_1_234
10
4.1193889
20
4.6404
11
4.5659535
21
5.8098211
0
LINE
8
DEFAULT_255_1_234
10
4.5659535
20
5.8098211
11
4.7008867
21
5.8098211
0
LINE
8
DEFAULT_255_1_234
10
4.7008867
20
5.8098211
11
5.1482545
21
4.6404
0
LINE
8
DEFAULT_255_1_234
10
5.1482545
20
4.6404
11
4.9900293
21
4.6404
0
LINE
8
DEFAULT_255_1_234
10
4.6334201
20
5.6194689
11
4.4350362
21
5.0725075
0
LINE
8
DEFAULT_255_1_234
10
4.4350362
20
5.0725075
11
4.8326072
21
5.0725075
0
LINE
8
DEFAULT_255_1_234
10
4.8326072
20
5.0725075
11
4.6334201
21
5.6194689
0
LINE
8
DEFAULT_255_1_234
10
5.4711304
20
5.8098211
11
5.4711304
21
4.6404
0
LINE
8
DEFAULT_255_1_234
10
5.4711304
20
4.6404
11
5.316921
21
4.6404
0
LINE
8
DEFAULT_255_1_234
10
5.316921
20
4.6404
11
5.316921
21
5.8098211
0
LINE
8
DEFAULT_255_1_234
10
5.316921
20
5.8098211
11
5.4711304
21
5.8098211
0
LINE
8
DEFAULT_255_1_234
10
6.2028218
20
5.8154433
11
6.2028218
21
4.6404
0
LINE
8
DEFAULT_255_1_234
10
6.2028218
20
4.6404
11
6.0534314
21
4.6404
0
LINE
8
DEFAULT_255_1_234
10
6.0534314
20
4.6404
11
6.0534314
21
5.6307133
0
LINE
8
DEFAULT_255_1_234
10
6.0534314
20
5.6307133
11
5.7538476
21
5.5206785
0
LINE
8
DEFAULT_255_1_234
10
5.7538476
20
5.5206785
11
5.7538476
21
5.6556117
0
LINE
8
DEFAULT_255_1_234
10
5.7538476
20
5.6556117
11
6.1795297
21
5.8154433
0
LINE
8
DEFAULT_255_1_234
10
6.1795297
20
5.8154433
11
6.2028218
21
5.8154433
0
LINE
8
DEFAULT_255_1_234
10
4.9977293
20
12.5779
11
4.8860881
21
12.8831061
0
LINE
8
DEFAULT_255_1_234
10
4.8860881
20
12.8831061
11
4.3961521
21
12.8831061
0
LINE
8
DEFAULT_255_1_234
10
4.3961521
20
12.8831061
11
4.2861173
21
12.5779
0
LINE
8
DEFAULT_255_1_234
10
4.2861173
20
12.5779
11
4.1270889
21
12.5779
0
LINE
8
DEFAULT_255_1_234
10
4.1270889
20
12.5779
11
4.5736535
21
13.7473211
0
LINE
8
DEFAULT_255_1_234
10
4.5736535
20
13.7473211
11
4.7085867
21
13.7473211
0
LINE
8
DEFAULT_255_1_234
10
4.7085867
20
13.7473211
11
5.1559545
21
12.5779
0
LINE
8
DEFAULT_255_1_234
10
5.1559545
20
12.5779
11
4.9977293
21
12.5779
0
LINE
8
DEFAULT_255_1_234
10
4.6411201
20
13.5569689
11
4.4427362
21
13.0100075
0
LINE
8
DEFAULT_255_1_234
10
4.4427362
20
13.0100075
11
4.8403072
21
13.0100075
0
LINE
8
DEFAULT_255_1_234
10
4.8403072
20
13.0100075
11
4.6411201
21
13.5569689
0
LINE
8
DEFAULT_255_1_234
10
5.4788304
20
13.7473211
11
5.4788304
21
12.5779
0
LINE
8
DEFAULT_255_1_234
10
5.4788304
20
12.5779
11
5.324621
21
12.5779
0
LINE
8
DEFAULT_255_1_234
10
5.324621
20
12.5779
11
5.324621
21
13.7473211
0
LINE
8
DEFAULT_255_1_234
10
5.324621
20
13.7473211
11
5.4788304
21
13.7473211
0
LINE
8
DEFAULT_255_1_234
10
6.4554898
20
13.2694327
11
6.4554898
21
13.0766709
0
LINE
8
DEFAULT_255_1_234
10
5.717373
20
13.0565916
11
5.717373
21
13.2549755
0
LINE
8
DEFAULT_255_1_234
10
6.3069026
20
13.0365123
11
6.3069026
21
13.2798739
0
LINE
8
DEFAULT_255_1_234
10
5.8659602
20
13.2911184
11
5.8659602
21
13.0533789
0
ARC
8
DEFAULT_255_1_234
10
5.2307788
20
13.0717805
40
1.2247208
50
353.8441951
51
0.2287902
0
ARC
8
DEFAULT_255_1_234
10
5.6947291
20
13.0199806
40
0.7578929
50
344.4934747
51
353.9765454
0
ARC
8
DEFAULT_255_1_234
10
5.9939881
20
12.9348981
40
0.4467846
50
329.2803592
51
344.7472793
0
ARC
8
DEFAULT_255_1_234
10
6.0932706
20
12.8804018
40
0.3336173
50
324.9352394
51
328.6160465
0
ARC
8
DEFAULT_255_1_234
10
6.1309815
20
12.8540427
40
0.2876076
50
280.580143
51
324.9173126
0
ARC
8
DEFAULT_255_1_234
10
6.0908608
20
13.0211099
40
0.4592847
50
269.5977311
51
281.6734359
0
ARC
8
DEFAULT_255_1_234
10
6.0836513
20
13.0091173
40
0.4472986
50
256.6228859
51
270.51044
0
ARC
8
DEFAULT_255_1_234
10
6.0434491
20
12.8542877
40
0.2873874
50
215.8618325
51
257.2788573
0
ARC
8
DEFAULT_255_1_234
10
6.1455523
20
12.9227977
40
0.4102928
50
197.9693508
51
215.2623606
0
ARC
8
DEFAULT_255_1_234
10
6.3940638
20
13.0066709
40
0.6725652
50
187.8816417
51
198.2346507
0
ARC
8
DEFAULT_255_1_234
10
6.7898846
20
13.0638079
40
1.0724845
50
180.8976217
51
188.0055519
0
ARC
8
DEFAULT_255_1_234
10
7.0699035
20
13.0741777
40
1.3526448
50
180.7449369
51
181.1510016
0
ARC
8
DEFAULT_255_1_234
10
6.9121764
20
13.2598042
40
1.1948131
50
173.7675579
51
180.231553
0
ARC
8
DEFAULT_255_1_234
10
6.460391
20
13.3108666
40
0.7401564
50
164.3058563
51
173.9002247
0
ARC
8
DEFAULT_255_1_234
10
6.1691979
20
13.3947656
40
0.4371288
50
148.7922025
51
164.568378
0
ARC
8
DEFAULT_255_1_234
10
6.0740431
20
13.4478929
40
0.3282386
50
144.5883898
51
148.1176286
0
ARC
8
DEFAULT_255_1_234
10
6.0397329
20
13.4718315
40
0.2864044
50
101.6440918
51
144.514236
0
ARC
8
DEFAULT_255_1_234
10
6.0822396
20
13.3029069
40
0.4604934
50
89.5284041
51
102.5819763
0
ARC
8
DEFAULT_255_1_234
10
6.0901484
20
13.2990018
40
0.464401
50
77.0437873
51
90.5081339
0
ARC
8
DEFAULT_255_1_234
10
6.1303485
20
13.4632615
40
0.2953195
50
48.2778575
51
77.4994676
0
ARC
8
DEFAULT_255_1_234
10
6.1376117
20
13.4761746
40
0.2808655
50
36.3142134
51
47.6305865
0
ARC
8
DEFAULT_255_1_234
10
6.0507424
20
13.4176515
40
0.3855453
50
18.2931786
51
35.6769206
0
ARC
8
DEFAULT_255_1_234
10
5.7964183
20
13.3303593
40
0.654423
50
8.024666
51
18.5605216
0
ARC
8
DEFAULT_255_1_234
10
5.3801103
20
13.2688792
40
1.0752407
50
1.1274072
51
8.1718305
0
ARC
8
DEFAULT_255_1_234
10
5.0565293
20
13.2561885
40
1.3990231
50
0.5424119
51
1.3863029
0
ARC
8
DEFAULT_255_1_234
10
5.2386671
20
13.2834342
40
1.0682415
50
359.8090433
51
4.9407866
0
ARC
8
DEFAULT_255_1_234
10
5.6596685
20
13.3210113
40
0.6455691
50
4.8362157
51
12.2904523
0
ARC
8
DEFAULT_255_1_234
10
5.93518
20
13.3823965
40
0.3633074
50
12.0805627
51
23.8173984
0
ARC
8
DEFAULT_255_1_234
10
6.0525505
20
13.4320919
40
0.2358723
50
24.2871213
51
31.3935614
0
ARC
8
DEFAULT_255_1_234
10
6.1050202
20
13.4664233
40
0.1732111
50
30.7407893
51
82.4657128
0
ARC
8
DEFAULT_255_1_234
10
6.0870337
20
13.3780691
40
0.263235
50
81.1060089
51
90.2184952
0
ARC
8
DEFAULT_255_1_234
10
6.0834636
20
13.4038924
40
0.2374236
50
89.3806855
51
105.6762551
0
ARC
8
DEFAULT_255_1_234
10
6.0651266
20
13.4705567
40
0.1682847
50
105.7981136
51
149.7388061
0
ARC
8
DEFAULT_255_1_234
10
6.1715344
20
13.406595
40
0.2924306
50
149.4208916
51
163.6286378
0
ARC
8
DEFAULT_255_1_234
10
6.3806233
20
13.342825
40
0.5110213
50
163.3763315
51
172.1410975
0
ARC
8
DEFAULT_255_1_234
10
6.7106951
20
13.2955518
40
0.8444586
50
172.0259487
51
178.0703232
0
ARC
8
DEFAULT_255_1_234
10
7.0137041
20
13.2811906
40
1.1477868
50
177.8631668
51
179.5044149
0
ARC
8
DEFAULT_255_1_234
10
6.9064445
20
13.0497389
40
1.0404907
50
179.7995573
51
185.2460446
0
ARC
8
DEFAULT_255_1_234
10
6.5021485
20
13.0114513
40
0.6343885
50
185.1411642
51
193.0079639
0
ARC
8
DEFAULT_255_1_234
10
6.2377957
20
12.9489641
40
0.3627568
50
192.7897626
51
205.2507664
0
ARC
8
DEFAULT_255_1_234
10
6.1331504
20
12.9022415
40
0.2481908
50
205.8005384
51
211.2537509
0
ARC
8
DEFAULT_255_1_234
10
6.0807945
20
12.867158
40
0.1852521
50
210.3789793
51
238.4008143
0
ARC
8
DEFAULT_255_1_234
10
6.0788467
20
12.8718376
40
0.1882621
50
239.6520629
51
265.9793761
0
ARC
8
DEFAULT_255_1_234
10
6.0873667
20
12.9390427
40
0.2559272
50
265.1315437
51
270.060332
0
ARC
8
DEFAULT_255_1_234
10
6.0902446
20
12.9066534
40
0.2235528
50
269.3314664
51
287.2178029
0
ARC
8
DEFAULT_255_1_234
10
6.1040298
20
12.8563279
40
0.1714108
50
287.7958004
51
329.080874
0
ARC
8
DEFAULT_255_1_234
10
6.0082754
20
12.916093
40
0.2842745
50
328.6634704
51
343.3325132
0
ARC
8
DEFAULT_255_1_234
10
5.7909774
20
12.9837863
40
0.5118644
50
343.0499468
51
351.9393422
0
ARC
8
DEFAULT_255_1_234
10
5.4443074
20
13.0348949
40
0.8622784
50
351.8069023
51
357.7959224
0
ARC
8
DEFAULT_255_1_234
10
5.120763
20
13.0516721
40
1.1862365
50
357.5871873
51
359.2677531
0
LINE
8
DEFAULT_255_1_234
10
4.4585154
20
20.5154
11
4.1348364
21
20.5154
0
LINE
8
DEFAULT_255_1_234
10
4.1348364
20
20.5154
11
4.1348364
21
21.6848211
0
LINE
8
DEFAULT_255_1_234
10
4.1348364
20
21.6848211
11
4.4649408
21
21.6848211
0
LINE
8
DEFAULT_255_1_234
10
4.9805784
20
21.1394661
11
4.9805784
21
21.0647709
0
LINE
8
DEFAULT_255_1_234
10
4.4689567
20
21.5579196
11
4.2890458
21
21.5579196
0
LINE
8
DEFAULT_255_1_234
10
4.2890458
20
21.5579196
11
4.2890458
21
20.6414983
0
LINE
8
DEFAULT_255_1_234
10
4.2890458
20
20.6414983
11
4.4512869
21
20.6414983
0
LINE
8
DEFAULT_255_1_234
10
4.8279754
20
21.0679836
11
4.8279754
21
21.1362534
0
ARC
8
DEFAULT_255_1_234
10
4.4688351
20
21.0982894
40
0.5865446
50
75.4101064
51
90.3804066
0
ARC
8
DEFAULT_255_1_234
10
4.4917864
20
21.1939492
40
0.4881916
50
60.145586
51
75.1888407
0
ARC
8
DEFAULT_255_1_234
10
4.507664
20
21.2216199
40
0.4562893
50
26.5253612
51
60.1450928
0
ARC
8
DEFAULT_255_1_234
10
4.3956389
20
21.1622158
40
0.5830602
50
7.4030428
51
26.8320788
0
ARC
8
DEFAULT_255_1_234
10
4.2362146
20
21.1373804
40
0.7443669
50
0.1605367
51
7.7176192
0
ARC
8
DEFAULT_255_1_234
10
4.252605
20
21.0609434
40
0.7279835
50
348.7289388
51
0.3012466
0
ARC
8
DEFAULT_255_1_234
10
4.4182481
20
21.0280386
40
0.559104
50
333.0706509
51
348.7181832
0
ARC
8
DEFAULT_255_1_234
10
4.5149238
20
20.9755319
40
0.4491417
50
299.2531685
51
333.4571258
0
ARC
8
DEFAULT_255_1_234
10
4.4788378
20
21.0440828
40
0.5265881
50
278.107187
51
299.0339503
0
ARC
8
DEFAULT_255_1_234
10
4.4532457
20
21.1948216
40
0.679442
50
270.4443897
51
278.4511052
0
ARC
8
DEFAULT_255_1_234
10
4.4553287
20
21.1019213
40
0.4604407
50
269.4970433
51
284.0205042
0
ARC
8
DEFAULT_255_1_234
10
4.4908588
20
20.9653978
40
0.3193797
50
283.7700273
51
318.1555492
0
ARC
8
DEFAULT_255_1_234
10
4.4571346
20
20.9906367
40
0.3613588
50
318.7415601
51
343.6873628
0
ARC
8
DEFAULT_255_1_234
10
4.2767369
20
21.0469832
40
0.5503313
50
343.3325091
51
355.8548958
0
ARC
8
DEFAULT_255_1_234
10
4.0669054
20
21.0669319
40
0.7610708
50
355.4988528
51
0.0791727
0
ARC
8
DEFAULT_255_1_234
10
4.1451676
20
21.140478
40
0.6828208
50
359.6455037
51
9.8607896
0
ARC
8
DEFAULT_255_1_234
10
4.3812374
20
21.1831099
40
0.4429406
50
9.6571907
51
26.1932807
0
ARC
8
DEFAULT_255_1_234
10
4.4740363
20
21.2262118
40
0.3406537
50
26.5777228
51
40.1532208
0
ARC
8
DEFAULT_255_1_234
10
4.4996089
20
21.2461619
40
0.308246
50
40.3840491
51
80.1431104
0
ARC
8
DEFAULT_255_1_234
10
4.4669207
20
21.1012333
40
0.4566909
50
79.2152159
51
89.7445637
0
LINE
8
DEFAULT_255_1_234
10
5.3789526
20
21.6848211
11
5.3789526
21
20.5154
0
LINE
8
DEFAULT_255_1_234
10
5.3789526
20
20.5154
11
5.2247433
21
20.5154
0
LINE
8
DEFAULT_255_1_234
10
5.2247433
20
20.5154
11
5.2247433
21
21.6848211
0
LINE
8
DEFAULT_255_1_234
10
5.2247433
20
21.6848211
11
5.3789526
21
21.6848211
0
LINE
8
DEFAULT_255_1_234
10
5.8094538
20
21.0711963
11
5.6905841
21
21.1017169
0
LINE
8
DEFAULT_255_1_234
10
5.6905841
20
21.1017169
11
5.7500189
21
21.6848211
0
LINE
8
DEFAULT_255_1_234
10
5.7500189
20
21.6848211
11
6.3491866
21
21.6848211
0
LINE
8
DEFAULT_255_1_234
10
6.3491866
20
21.6848211
11
6.3491866
21
21.5474784
0
LINE
8
DEFAULT_255_1_234
10
6.3491866
20
21.5474784
11
5.8761172
21
21.5474784
0
LINE
8
DEFAULT_255_1_234
10
5.8761172
20
21.5474784
11
5.8407776
21
21.2286184
0
LINE
8
DEFAULT_255_1_234
10
5.648819
20
20.8230156
11
5.7893745
21
20.8230156
0
LINE
8
DEFAULT_255_1_234
10
5.8488093
20
21.1033232
11
5.8094538
21
21.0711963
0
ARC
8
DEFAULT_255_1_234
10
6.026256
20
20.910623
40
0.3681349
50
93.7182161
51
120.2538958
0
ARC
8
DEFAULT_255_1_234
10
6.0356823
20
20.8298394
40
0.449379
50
89.9660152
51
94.2496022
0
ARC
8
DEFAULT_255_1_234
10
6.0397557
20
20.8887549
40
0.390482
50
73.8043271
51
90.5585896
0
ARC
8
DEFAULT_255_1_234
10
6.0632454
20
20.9745602
40
0.3015334
50
41.3071453
51
73.5430202
0
ARC
8
DEFAULT_255_1_234
10
6.0216281
20
20.9387324
40
0.3564457
50
13.5075983
51
41.2174222
0
ARC
8
DEFAULT_255_1_234
10
5.8574485
20
20.8957486
40
0.5261351
50
1.1331335
51
13.8829381
0
ARC
8
DEFAULT_255_1_234
10
5.7162854
20
20.8881665
40
0.6674378
50
359.9919444
51
1.544251
0
ARC
8
DEFAULT_255_1_234
10
5.843968
20
20.884028
40
0.5397702
50
347.8572367
51
0.4293338
0
ARC
8
DEFAULT_255_1_234
10
6.0189998
20
20.8443736
40
0.3603188
50
323.673004
51
348.1672506
0
ARC
8
DEFAULT_255_1_234
10
6.0484506
20
20.8264168
40
0.3259678
50
316.8171152
51
323.1492751
0
ARC
8
DEFAULT_255_1_234
10
6.0545695
20
20.822746
40
0.3189975
50
281.8396411
51
316.5457803
0
ARC
8
DEFAULT_255_1_234
10
6.0169958
20
20.9782762
40
0.4789527
50
269.5770101
51
282.4214771
0
ARC
8
DEFAULT_255_1_234
10
6.009877
20
20.9569125
40
0.45759
50
256.2427136
51
270.4486331
0
ARC
8
DEFAULT_255_1_234
10
5.9799672
20
20.8369229
40
0.3339303
50
228.9023911
51
256.3314342
0
ARC
8
DEFAULT_255_1_234
10
5.9725905
20
20.8252746
40
0.32031
50
193.753695
51
228.5271154
0
ARC
8
DEFAULT_255_1_234
10
6.0963859
20
20.86158
40
0.4492253
50
184.924711
51
194.497588
0
ARC
8
DEFAULT_255_1_234
10
6.1156426
20
20.8651591
40
0.3289787
50
187.3600538
51
198.6732863
0
ARC
8
DEFAULT_255_1_234
10
6.010672
20
20.8287674
40
0.217884
50
198.4451669
51
217.794479
0
ARC
8
DEFAULT_255_1_234
10
5.9810895
20
20.8078085
40
0.1816698
50
218.2887171
51
228.5612368
0
ARC
8
DEFAULT_255_1_234
10
5.9908682
20
20.8209963
40
0.1980329
50
228.9654866
51
258.1234728
0
ARC
8
DEFAULT_255_1_234
10
6.0114392
20
20.9090833
40
0.2884748
50
257.7258293
51
270.401361
0
ARC
8
DEFAULT_255_1_234
10
6.0159278
20
20.8645821
40
0.2439788
50
269.4204404
51
286.4209037
0
ARC
8
DEFAULT_255_1_234
10
6.0307766
20
20.8106657
40
0.1880666
50
286.7251356
51
320.600362
0
ARC
8
DEFAULT_255_1_234
10
5.9924591
20
20.8417595
40
0.2374121
50
320.6712579
51
344.5441685
0
ARC
8
DEFAULT_255_1_234
10
5.8767917
20
20.8757045
40
0.3579479
50
344.2412205
51
356.7357071
0
ARC
8
DEFAULT_255_1_234
10
5.7519065
20
20.8860444
40
0.4832297
50
356.3548756
51
0.0500261
0
ARC
8
DEFAULT_255_1_234
10
5.8855575
20
20.889165
40
0.3495889
50
359.5576869
51
12.953486
0
ARC
8
DEFAULT_255_1_234
10
5.9910472
20
20.9147434
40
0.2410532
50
12.6490276
51
41.6081334
0
ARC
8
DEFAULT_255_1_234
10
6.0140843
20
20.9343321
40
0.2108218
50
41.7850273
51
85.9892764
0
ARC
8
DEFAULT_255_1_234
10
6.001758
20
20.8530462
40
0.2928454
50
84.6957577
51
90.0676183
0
ARC
8
DEFAULT_255_1_234
10
5.9994064
20
20.7861716
40
0.3597255
50
89.6804936
51
99.1614436
0
ARC
8
DEFAULT_255_1_234
10
5.9788695
20
20.9089131
40
0.235281
50
98.9830931
51
113.8908934
0
ARC
8
DEFAULT_255_1_234
10
5.9559105
20
20.9630587
40
0.176479
50
114.1950727
51
127.3641004
0
LINE
8
DEFAULT_255_1_234
10
4.5644154
20
28.4529
11
4.2407364
21
28.4529
0
LINE
8
DEFAULT_255_1_234
10
4.2407364
20
28.4529
11
4.2407364
21
29.6223211
0
LINE
8
DEFAULT_255_1_234
10
4.2407364
20
29.6223211
11
4.5708408
21
29.6223211
0
LINE
8
DEFAULT_255_1_234
10
5.0864784
20
29.0769661
11
5.0864784
21
29.0022709
0
LINE
8
DEFAULT_255_1_234
10
4.5748567
20
29.4954196
11
4.3949458
21
29.4954196
0
LINE
8
DEFAULT_255_1_234
10
4.3949458
20
29.4954196
11
4.3949458
21
28.5789983
0
LINE
8
DEFAULT_255_1_234
10
4.3949458
20
28.5789983
11
4.5571869
21
28.5789983
0
LINE
8
DEFAULT_255_1_234
10
4.9338754
20
29.0054836
11
4.9338754
21
29.0737534
0
ARC
8
DEFAULT_255_1_234
10
4.5747351
20
29.0357894
40
0.5865446
50
75.4101064
51
90.3804066
0
ARC
8
DEFAULT_255_1_234
10
4.5976864
20
29.1314492
40
0.4881916
50
60.145586
51
75.1888407
0
ARC
8
DEFAULT_255_1_234
10
4.613564
20
29.1591199
40
0.4562893
50
26.5253612
51
60.1450928
0
ARC
8
DEFAULT_255_1_234
10
4.5015389
20
29.0997158
40
0.5830602
50
7.4030428
51
26.8320788
0
ARC
8
DEFAULT_255_1_234
10
4.3421146
20
29.0748804
40
0.7443669
50
0.1605367
51
7.7176192
0
ARC
8
DEFAULT_255_1_234
10
4.358505
20
28.9984434
40
0.7279835
50
348.7289388
51
0.3012466
0
ARC
8
DEFAULT_255_1_234
10
4.5241481
20
28.9655386
40
0.559104
50
333.0706509
51
348.7181832
0
ARC
8
DEFAULT_255_1_234
10
4.6208238
20
28.9130319
40
0.4491417
50
299.2531685
51
333.4571258
0
ARC
8
DEFAULT_255_1_234
10
4.5847378
20
28.9815828
40
0.5265881
50
278.107187
51
299.0339503
0
ARC
8
DEFAULT_255_1_234
10
4.5591457
20
29.1323216
40
0.679442
50
270.4443897
51
278.4511052
0
ARC
8
DEFAULT_255_1_234
10
4.5612287
20
29.0394213
40
0.4604407
50
269.4970433
51
284.0205042
0
ARC
8
DEFAULT_255_1_234
10
4.5967588
20
28.9028978
40
0.3193797
50
283.7700273
51
318.1555492
0
ARC
8
DEFAULT_255_1_234
10
4.5630346
20
28.9281367
40
0.3613588
50
318.7415601
51
343.6873628
0
ARC
8
DEFAULT_255_1_234
10
4.3826369
20
28.9844832
40
0.5503313
50
343.3325091
51
355.8548958
0
ARC
8
DEFAULT_255_1_234
10
4.1728054
20
29.0044319
40
0.7610708
50
355.4988528
51
0.0791727
0
ARC
8
DEFAULT_255_1_234
10
4.2510676
20
29.077978
40
0.6828208
50
359.6455037
51
9.8607896
0
ARC
8
DEFAULT_255_1_234
10
4.4871374
20
29.1206099
40
0.4429406
50
9.6571907
51
26.1932807
0
ARC
8
DEFAULT_255_1_234
10
4.5799363
20
29.1637118
40
0.3406537
50
26.5777228
51
40.1532208
0
ARC
8
DEFAULT_255_1_234
10
4.6055089
20
29.1836619
40
0.308246
50
40.3840491
51
80.1431104
0
ARC
8
DEFAULT_255_1_234
10
4.5728207
20
29.0387333
40
0.4566909
50
79.2152159
51
89.7445637
0
LINE
8
DEFAULT_255_1_234
10
5.4848526
20
29.6223211
11
5.4848526
21
28.4529
0
LINE
8
DEFAULT_255_1_234
10
5.4848526
20
28.4529
11
5.3306433
21
28.4529
0
LINE
8
DEFAULT_255_1_234
10
5.3306433
20
28.4529
11
5.3306433
21
29.6223211
0
LINE
8
DEFAULT_255_1_234
10
5.3306433
20
29.6223211
11
5.4848526
21
29.6223211
0
LINE
8
DEFAULT_255_1_234
10
6.3554931
20
29.6223211
11
6.3554931
21
28.845652
0
LINE
8
DEFAULT_255_1_234
10
6.3554931
20
28.845652
11
6.5177342
21
28.845652
0
LINE
8
DEFAULT_255_1_234
10
6.5177342
20
28.845652
11
6.5177342
21
28.7243728
0
LINE
8
DEFAULT_255_1_234
10
6.5177342
20
28.7243728
11
6.3554931
21
28.7243728
0
LINE
8
DEFAULT_255_1_234
10
6.3554931
20
28.7243728
11
6.3554931
21
28.4529
0
LINE
8
DEFAULT_255_1_234
10
6.3554931
20
28.4529
11
6.2061027
21
28.4529
0
LINE
8
DEFAULT_255_1_234
10
6.2061027
20
28.4529
11
6.2061027
21
28.7243728
0
LINE
8
DEFAULT_255_1_234
10
6.2061027
20
28.7243728
11
5.6735985
21
28.7243728
0
LINE
8
DEFAULT_255_1_234
10
5.6735985
20
28.7243728
11
5.6735985
21
28.8119187
0
LINE
8
DEFAULT_255_1_234
10
5.6735985
20
28.8119187
11
6.1972678
21
29.6223211
0
LINE
8
DEFAULT_255_1_234
10
6.1972678
20
29.6223211
11
6.3554931
21
29.6223211
0
LINE
8
DEFAULT_255_1_234
10
6.1884329
20
29.3869912
11
5.842265
21
28.845652
0
LINE
8
DEFAULT_255_1_234
10
5.842265
20
28.845652
11
6.2061027
21
28.845652
0
LINE
8
DEFAULT_255_1_234
10
6.2061027
20
28.845652
11
6.2061027
21
29.4191181
0
LINE
8
DEFAULT_255_1_234
10
6.2061027
20
29.4191181
11
6.1884329
21
29.3869912
0
LINE
8
DEFAULT_255_1_234
10
4.4585154
20
36.3904
11
4.1348364
21
36.3904
0
LINE
8
DEFAULT_255_1_234
10
4.1348364
20
36.3904
11
4.1348364
21
37.5598211
0
LINE
8
DEFAULT_255_1_234
10
4.1348364
20
37.5598211
11
4.4649408
21
37.5598211
0
LINE
8
DEFAULT_255_1_234
10
4.9805784
20
37.0144661
11
4.9805784
21
36.9397709
0
LINE
8
DEFAULT_255_1_234
10
4.4689567
20
37.4329196
11
4.2890458
21
37.4329196
0
LINE
8
DEFAULT_255_1_234
10
4.2890458
20
37.4329196
11
4.2890458
21
36.5164983
0
LINE
8
DEFAULT_255_1_234
10
4.2890458
20
36.5164983
11
4.4512869
21
36.5164983
0
LINE
8
DEFAULT_255_1_234
10
4.8279754
20
36.9429836
11
4.8279754
21
37.0112534
0
ARC
8
DEFAULT_255_1_234
10
4.4688351
20
36.9732894
40
0.5865446
50
75.4101064
51
90.3804066
0
ARC
8
DEFAULT_255_1_234
10
4.4917864
20
37.0689492
40
0.4881916
50
60.145586
51
75.1888407
0
ARC
8
DEFAULT_255_1_234
10
4.507664
20
37.0966199
40
0.4562893
50
26.5253612
51
60.1450928
0
ARC
8
DEFAULT_255_1_234
10
4.3956389
20
37.0372158
40
0.5830602
50
7.4030428
51
26.8320788
0
ARC
8
DEFAULT_255_1_234
10
4.2362146
20
37.0123804
40
0.7443669
50
0.1605367
51
7.7176192
0
ARC
8
DEFAULT_255_1_234
10
4.252605
20
36.9359434
40
0.7279835
50
348.7289388
51
0.3012466
0
ARC
8
DEFAULT_255_1_234
10
4.4182481
20
36.9030386
40
0.559104
50
333.0706509
51
348.7181832
0
ARC
8
DEFAULT_255_1_234
10
4.5149238
20
36.8505319
40
0.4491417
50
299.2531685
51
333.4571258
0
ARC
8
DEFAULT_255_1_234
10
4.4788378
20
36.9190828
40
0.5265881
50
278.107187
51
299.0339503
0
ARC
8
DEFAULT_255_1_234
10
4.4532457
20
37.0698216
40
0.679442
50
270.4443897
51
278.4511052
0
ARC
8
DEFAULT_255_1_234
10
4.4553287
20
36.9769213
40
0.4604407
50
269.4970433
51
284.0205042
0
ARC
8
DEFAULT_255_1_234
10
4.4908588
20
36.8403978
40
0.3193797
50
283.7700273
51
318.1555492
0
ARC
8
DEFAULT_255_1_234
10
4.4571346
20
36.8656367
40
0.3613588
50
318.7415601
51
343.6873628
0
ARC
8
DEFAULT_255_1_234
10
4.2767369
20
36.9219832
40
0.5503313
50
343.3325091
51
355.8548958
0
ARC
8
DEFAULT_255_1_234
10
4.0669054
20
36.9419319
40
0.7610708
50
355.4988528
51
0.0791727
0
ARC
8
DEFAULT_255_1_234
10
4.1451676
20
37.015478
40
0.6828208
50
359.6455037
51
9.8607896
0
ARC
8
DEFAULT_255_1_234
10
4.3812374
20
37.0581099
40
0.4429406
50
9.6571907
51
26.1932807
0
ARC
8
DEFAULT_255_1_234
10
4.4740363
20
37.1012118
40
0.3406537
50
26.5777228
51
40.1532208
0
ARC
8
DEFAULT_255_1_234
10
4.4996089
20
37.1211619
40
0.308246
50
40.3840491
51
80.1431104
0
ARC
8
DEFAULT_255_1_234
10
4.4669207
20
36.9762333
40
0.4566909
50
79.2152159
51
89.7445637
0
LINE
8
DEFAULT_255_1_234
10
5.3789526
20
37.5598211
11
5.3789526
21
36.3904
0
LINE
8
DEFAULT_255_1_234
10
5.3789526
20
36.3904
11
5.2247433
21
36.3904
0
LINE
8
DEFAULT_255_1_234
10
5.2247433
20
36.3904
11
5.2247433
21
37.5598211
0
LINE
8
DEFAULT_255_1_234
10
5.2247433
20
37.5598211
11
5.3789526
21
37.5598211
0
LINE
8
DEFAULT_255_1_234
10
5.8383681
20
36.9261169
11
5.8383681
21
37.0473962
0
LINE
8
DEFAULT_255_1_234
10
5.8383681
20
37.0473962
11
5.9500092
21
37.0473962
0
LINE
8
DEFAULT_255_1_234
10
5.759657
20
37.2530087
11
5.6110699
21
37.2530087
0
LINE
8
DEFAULT_255_1_234
10
5.6006286
20
36.6988188
11
5.7500189
21
36.6988188
0
LINE
8
DEFAULT_255_1_234
10
5.9500092
20
36.9261169
11
5.8383681
21
36.9261169
0
ARC
8
DEFAULT_255_1_234
10
5.9470959
20
37.3866713
40
0.3392876
50
270.4919872
51
281.8951556
0
ARC
8
DEFAULT_255_1_234
10
5.971222
20
37.2764702
40
0.2264817
50
281.6691735
51
301.2943132
0
ARC
8
DEFAULT_255_1_234
10
5.9882431
20
37.2453304
40
0.1910381
50
301.7833094
51
311.7545298
0
ARC
8
DEFAULT_255_1_234
10
5.9974006
20
37.2351748
40
0.1773635
50
311.7323931
51
354.2802411
0
ARC
8
DEFAULT_255_1_234
10
5.9247632
20
37.2476722
40
0.2509385
50
353.0937916
51
0.1181479
0
ARC
8
DEFAULT_255_1_234
10
5.8786416
20
37.2524386
40
0.2970898
50
359.1805295
51
15.0453146
0
ARC
8
DEFAULT_255_1_234
10
6.0132253
20
37.2916992
40
0.1569564
50
13.9577229
51
77.6713066
0
ARC
8
DEFAULT_255_1_234
10
5.9745783
20
37.1531949
40
0.3006298
50
76.1116566
51
90.7026153
0
ARC
8
DEFAULT_255_1_234
10
5.9686621
20
37.1805545
40
0.2732568
50
89.5324876
51
103.531937
0
ARC
8
DEFAULT_255_1_234
10
5.9486065
20
37.2604884
40
0.1908508
50
103.2931773
51
133.5619022
0
ARC
8
DEFAULT_255_1_234
10
5.9441553
20
37.2664375
40
0.1834746
50
133.8349307
51
173.5344437
0
ARC
8
DEFAULT_255_1_234
10
6.0164597
20
37.2536213
40
0.2568033
50
172.5096846
51
180.1366907
0
ARC
8
DEFAULT_255_1_234
10
5.921349
20
37.2570622
40
0.3103056
50
155.3484492
51
180.7484736
0
ARC
8
DEFAULT_255_1_234
10
5.9164579
20
37.2541846
40
0.3070957
50
131.5744599
51
154.4798489
0
ARC
8
DEFAULT_255_1_234
10
5.9477727
20
37.222531
40
0.3515643
50
96.9875458
51
131.9690667
0
ARC
8
DEFAULT_255_1_234
10
5.9697207
20
37.0979636
40
0.4779224
50
89.8596053
51
97.7825159
0
ARC
8
DEFAULT_255_1_234
10
5.974527
20
37.0717616
40
0.5041361
50
78.3655447
51
90.4131539
0
ARC
8
DEFAULT_255_1_234
10
6.0103188
20
37.2376887
40
0.3344039
50
56.6229102
51
78.638727
0
ARC
8
DEFAULT_255_1_234
10
6.0318131
20
37.2752805
40
0.2912001
50
47.0253525
51
56.0854072
0
ARC
8
DEFAULT_255_1_234
10
6.0337911
20
37.2792223
40
0.2869704
50
10.9208013
51
46.7778124
0
ARC
8
DEFAULT_255_1_234
10
5.8973978
20
37.2476857
40
0.426899
50
359.6364486
51
11.6087304
0
ARC
8
DEFAULT_255_1_234
10
6.0808822
20
37.2461752
40
0.243409
50
332.3549906
51
359.7179418
0
ARC
8
DEFAULT_255_1_234
10
6.0158423
20
37.2770142
40
0.3153459
50
325.2333722
51
332.8745602
0
ARC
8
DEFAULT_255_1_234
10
6.0311047
20
37.2663828
40
0.2967456
50
292.9802137
51
325.2392345
0
ARC
8
DEFAULT_255_1_234
10
6.0036421
20
37.3197863
40
0.3566604
50
292.5402179
51
293.6924929
0
ARC
8
DEFAULT_255_1_234
10
6.0429017
20
36.6743091
40
0.3307468
50
57.6435486
51
72.8625112
0
ARC
8
DEFAULT_255_1_234
10
6.0783517
20
36.7317549
40
0.2632492
50
36.7248896
51
57.4697979
0
ARC
8
DEFAULT_255_1_234
10
6.0772149
20
36.733022
40
0.2634081
50
8.0545065
51
36.356114
0
ARC
8
DEFAULT_255_1_234
10
5.9909335
20
36.7175174
40
0.3510261
50
359.8320645
51
8.5869982
0
ARC
8
DEFAULT_255_1_234
10
5.9534111
20
36.7127101
40
0.3885653
50
343.9829931
51
0.5571613
0
ARC
8
DEFAULT_255_1_234
10
6.0420308
20
36.6884438
40
0.2966924
50
311.6359546
51
343.7651759
0
ARC
8
DEFAULT_255_1_234
10
6.0041877
20
36.7311102
40
0.3537231
50
279.7829875
51
311.6255694
0
ARC
8
DEFAULT_255_1_234
10
5.9740653
20
36.874828
40
0.5004971
50
269.7286406
51
280.3856417
0
ARC
8
DEFAULT_255_1_234
10
5.9678726
20
36.8706996
40
0.4963778
50
256.6828919
51
270.4412052
0
ARC
8
DEFAULT_255_1_234
10
5.9340022
20
36.7322394
40
0.3538406
50
229.4223008
51
256.8556159
0
ARC
8
DEFAULT_255_1_234
10
5.8925415
20
36.6855736
40
0.2914296
50
181.818294
51
229.6455059
0
ARC
8
DEFAULT_255_1_234
10
5.9965371
20
36.6986496
40
0.3959084
50
179.9755256
51
183.2323064
0
ARC
8
DEFAULT_255_1_234
10
5.9793117
20
36.6966037
40
0.2293034
50
179.4465117
51
196.2869258
0
ARC
8
DEFAULT_255_1_234
10
5.9305525
20
36.6832651
40
0.1787621
50
196.5661473
51
227.705904
0
ARC
8
DEFAULT_255_1_234
10
5.9469619
20
36.7016155
40
0.2033784
50
227.7652068
51
257.8762805
0
ARC
8
DEFAULT_255_1_234
10
5.969459
20
36.7959156
40
0.3003081
50
257.4584385
51
270.426602
0
ARC
8
DEFAULT_255_1_234
10
5.9740156
20
36.8248996
40
0.329292
50
269.5962073
51
280.8789248
0
ARC
8
DEFAULT_255_1_234
10
5.9969685
20
36.7102685
40
0.2123908
50
280.6346389
51
299.8595945
0
ARC
8
DEFAULT_255_1_234
10
6.0160591
20
36.6740212
40
0.171457
50
300.3576302
51
314.5517981
0
ARC
8
DEFAULT_255_1_234
10
6.0077651
20
36.6800919
40
0.1816095
50
315.0728369
51
345.0431014
0
ARC
8
DEFAULT_255_1_234
10
5.9154466
20
36.7069841
40
0.2777492
50
344.5986631
51
357.9269593
0
ARC
8
DEFAULT_255_1_234
10
5.8258792
20
36.7131276
40
0.3674917
50
357.4748886
51
0.0231117
0
ARC
8
DEFAULT_255_1_234
10
5.9281901
20
36.7155679
40
0.2651907
50
359.5047933
51
13.4239635
0
ARC
8
DEFAULT_255_1_234
10
6.0148545
20
36.7377478
40
0.1757509
50
12.9498199
51
48.7551375
0
ARC
8
DEFAULT_255_1_234
10
5.9966279
20
36.71284
40
0.2065134
50
49.5088623
51
72.1836453
0
ARC
8
DEFAULT_255_1_234
10
5.9608431
20
36.6066291
40
0.3185836
50
71.9010081
51
84.3554254
0
ARC
8
DEFAULT_255_1_234
10
5.9447063
20
36.4705326
40
0.4556151
50
84.0193428
51
89.333121
0
LINE
8
DEFAULT_255_1_234
10
4.4585154
20
44.3279
11
4.1348364
21
44.3279
0
LINE
8
DEFAULT_255_1_234
10
4.1348364
20
44.3279
11
4.1348364
21
45.4973211
0
LINE
8
DEFAULT_255_1_234
10
4.1348364
20
45.4973211
11
4.4649408
21
45.4973211
0
LINE
8
DEFAULT_255_1_234
10
4.9805784
20
44.9519661
11
4.9805784
21
44.8772709
0
LINE
8
DEFAULT_255_1_234
10
4.4689567
20
45.3704196
11
4.2890458
21
45.3704196
0
LINE
8
DEFAULT_255_1_234
10
4.2890458
20
45.3704196
11
4.2890458
21
44.4539983
0
LINE
8
DEFAULT_255_1_234
10
4.2890458
20
44.4539983
11
4.4512869
21
44.4539983
0
LINE
8
DEFAULT_255_1_234
10
4.8279754
20
44.8804836
11
4.8279754
21
44.9487534
0
ARC
8
DEFAULT_255_1_234
10
4.4688351
20
44.9107894
40
0.5865446
50
75.4101064
51
90.3804066
0
ARC
8
DEFAULT_255_1_234
10
4.4917864
20
45.0064492
40
0.4881916
50
60.145586
51
75.1888407
0
ARC
8
DEFAULT_255_1_234
10
4.507664
20
45.0341199
40
0.4562893
50
26.5253612
51
60.1450928
0
ARC
8
DEFAULT_255_1_234
10
4.3956389
20
44.9747158
40
0.5830602
50
7.4030428
51
26.8320788
0
ARC
8
DEFAULT_255_1_234
10
4.2362146
20
44.9498804
40
0.7443669
50
0.1605367
51
7.7176192
0
ARC
8
DEFAULT_255_1_234
10
4.252605
20
44.8734434
40
0.7279835
50
348.7289388
51
0.3012466
0
ARC
8
DEFAULT_255_1_234
10
4.4182481
20
44.8405386
40
0.559104
50
333.0706509
51
348.7181832
0
ARC
8
DEFAULT_255_1_234
10
4.5149238
20
44.7880319
40
0.4491417
50
299.2531685
51
333.4571258
0
ARC
8
DEFAULT_255_1_234
10
4.4788378
20
44.8565828
40
0.5265881
50
278.107187
51
299.0339503
0
ARC
8
DEFAULT_255_1_234
10
4.4532457
20
45.0073216
40
0.679442
50
270.4443897
51
278.4511052
0
ARC
8
DEFAULT_255_1_234
10
4.4553287
20
44.9144213
40
0.4604407
50
269.4970433
51
284.0205042
0
ARC
8
DEFAULT_255_1_234
10
4.4908588
20
44.7778978
40
0.3193797
50
283.7700273
51
318.1555492
0
ARC
8
DEFAULT_255_1_234
10
4.4571346
20
44.8031367
40
0.3613588
50
318.7415601
51
343.6873628
0
ARC
8
DEFAULT_255_1_234
10
4.2767369
20
44.8594832
40
0.5503313
50
343.3325091
51
355.8548958
0
ARC
8
DEFAULT_255_1_234
10
4.0669054
20
44.8794319
40
0.7610708
50
355.4988528
51
0.0791727
0
ARC
8
DEFAULT_255_1_234
10
4.1451676
20
44.952978
40
0.6828208
50
359.6455037
51
9.8607896
0
ARC
8
DEFAULT_255_1_234
10
4.3812374
20
44.9956099
40
0.4429406
50
9.6571907
51
26.1932807
0
ARC
8
DEFAULT_255_1_234
10
4.4740363
20
45.0387118
40
0.3406537
50
26.5777228
51
40.1532208
0
ARC
8
DEFAULT_255_1_234
10
4.4996089
20
45.0586619
40
0.308246
50
40.3840491
51
80.1431104
0
ARC
8
DEFAULT_255_1_234
10
4.4669207
20
44.9137333
40
0.4566909
50
79.2152159
51
89.7445637
0
LINE
8
DEFAULT_255_1_234
10
5.3789526
20
45.4973211
11
5.3789526
21
44.3279
0
LINE
8
DEFAULT_255_1_234
10
5.3789526
20
44.3279
11
5.2247433
21
44.3279
0
LINE
8
DEFAULT_255_1_234
10
5.2247433
20
44.3279
11
5.2247433
21
45.4973211
0
LINE
8
DEFAULT_255_1_234
10
5.2247433
20
45.4973211
11
5.3789526
21
45.4973211
0
LINE
8
DEFAULT_255_1_234
10
6.3885421
20
44.4491792
11
6.3885421
21
44.3279
0
LINE
8
DEFAULT_255_1_234
10
6.3885421
20
44.3279
11
5.6223143
21
44.3279
0
LINE
8
DEFAULT_255_1_234
10
5.6223143
20
44.3279
11
5.6223143
21
44.4347221
0
LINE
8
DEFAULT_255_1_234
10
5.6223143
20
44.4347221
11
6.0271139
21
44.8844995
0
LINE
8
DEFAULT_255_1_234
10
5.7484126
20
45.1527595
11
5.5998254
21
45.1527595
0
LINE
8
DEFAULT_255_1_234
10
6.1146599
20
44.7889218
11
5.8014221
21
44.4491792
0
LINE
8
DEFAULT_255_1_234
10
5.8014221
20
44.4491792
11
6.3885421
21
44.4491792
0
ARC
8
DEFAULT_255_1_234
10
4.6780972
20
46.0774527
40
1.8008286
50
318.5132453
51
320.7828378
0
ARC
8
DEFAULT_255_1_234
10
5.2067947
20
45.6471426
40
1.1191493
50
320.7372736
51
323.9737074
0
ARC
8
DEFAULT_255_1_234
10
5.5987803
20
45.3631361
40
0.6350923
50
323.8961724
51
328.6421089
0
ARC
8
DEFAULT_255_1_234
10
5.8034399
20
45.2369031
40
0.3946393
50
328.8299013
51
331.789948
0
ARC
8
DEFAULT_255_1_234
10
5.9031577
20
45.1854509
40
0.2824501
50
331.4255242
51
352.9364833
0
ARC
8
DEFAULT_255_1_234
10
5.9168078
20
45.1823976
40
0.2685315
50
353.2248685
51
0.0169286
0
ARC
8
DEFAULT_255_1_234
10
5.9377955
20
45.184695
40
0.2475536
50
359.4866256
51
15.9339782
0
ARC
8
DEFAULT_255_1_234
10
5.988494
20
45.1983286
40
0.1950618
50
16.1714718
51
43.5284424
0
ARC
8
DEFAULT_255_1_234
10
5.9962248
20
45.2060573
40
0.184134
50
43.4415429
51
83.1661404
0
ARC
8
DEFAULT_255_1_234
10
5.9828167
20
45.1323771
40
0.258926
50
82.160215
51
90.1505798
0
ARC
8
DEFAULT_255_1_234
10
5.9796594
20
45.0786865
40
0.3126255
50
89.5460705
51
102.5418777
0
ARC
8
DEFAULT_255_1_234
10
5.955368
20
45.1817665
40
0.2067346
50
102.1739365
51
129.2061916
0
ARC
8
DEFAULT_255_1_234
10
5.9474752
20
45.1942094
40
0.1921118
50
129.7279328
51
135.7542026
0
ARC
8
DEFAULT_255_1_234
10
5.9596279
20
45.1845045
40
0.2075944
50
136.175737
51
166.3674722
0
ARC
8
DEFAULT_255_1_234
10
6.0603199
20
45.1575182
40
0.3118201
50
165.9092917
51
178.8683903
0
ARC
8
DEFAULT_255_1_234
10
6.146806
20
45.1528179
40
0.3983935
50
178.438168
51
180.0083905
0
ARC
8
DEFAULT_255_1_234
10
6.0066662
20
45.1567231
40
0.4068601
50
163.2878735
51
180.5581814
0
ARC
8
DEFAULT_255_1_234
10
5.9264923
20
45.178784
40
0.3237344
50
133.454115
51
162.9470031
0
ARC
8
DEFAULT_255_1_234
10
5.9443465
20
45.1598
40
0.349795
50
100.7869394
51
133.4384016
0
ARC
8
DEFAULT_255_1_234
10
5.9791236
20
45.0049319
40
0.5084616
50
89.6605301
51
101.3704185
0
ARC
8
DEFAULT_255_1_234
10
5.9857575
20
45.0110496
40
0.502348
50
78.2171172
51
90.4130393
0
ARC
8
DEFAULT_255_1_234
10
6.0212653
20
45.1734637
40
0.3361092
50
55.9268222
51
78.4888551
0
ARC
8
DEFAULT_255_1_234
10
6.0409094
20
45.2073324
40
0.2970617
50
47.9292255
51
55.4054003
0
ARC
8
DEFAULT_255_1_234
10
6.0510654
20
45.2176502
40
0.2825983
50
4.3347696
51
48.0560701
0
ARC
8
DEFAULT_255_1_234
10
5.9415048
20
45.2006601
40
0.393225
50
359.925209
51
5.5967654
0
ARC
8
DEFAULT_255_1_234
10
5.984394
20
45.2062816
40
0.3503892
50
337.8914096
51
358.9967724
0
ARC
8
DEFAULT_255_1_234
10
5.7130352
20
45.3109706
40
0.6412172
50
326.9135351
51
338.3505194
0
ARC
8
DEFAULT_255_1_234
10
5.3144656
20
45.5664284
40
1.1146189
50
319.6472867
51
327.095818
0
ARC
8
DEFAULT_255_1_234
10
4.9311659
20
45.8826
40
1.6114559
50
317.2586784
51
319.9046139
0
LINE
8
DEFAULT_255_1_234
10
4.4494154
20
52.2654
11
4.1257364
21
52.2654
0
LINE
8
DEFAULT_255_1_234
10
4.1257364
20
52.2654
11
4.1257364
21
53.4348211
0
LINE
8
DEFAULT_255_1_234
10
4.1257364
20
53.4348211
11
4.4558408
21
53.4348211
0
LINE
8
DEFAULT_255_1_234
10
4.9714784
20
52.8894661
11
4.9714784
21
52.8147709
0
LINE
8
DEFAULT_255_1_234
10
4.4598567
20
53.3079196
11
4.2799458
21
53.3079196
0
LINE
8
DEFAULT_255_1_234
10
4.2799458
20
53.3079196
11
4.2799458
21
52.3914983
0
LINE
8
DEFAULT_255_1_234
10
4.2799458
20
52.3914983
11
4.4421869
21
52.3914983
0
LINE
8
DEFAULT_255_1_234
10
4.8188754
20
52.8179836
11
4.8188754
21
52.8862534
0
ARC
8
DEFAULT_255_1_234
10
4.4597351
20
52.8482894
40
0.5865446
50
75.4101064
51
90.3804066
0
ARC
8
DEFAULT_255_1_234
10
4.4826864
20
52.9439492
40
0.4881916
50
60.145586
51
75.1888407
0
ARC
8
DEFAULT_255_1_234
10
4.498564
20
52.9716199
40
0.4562893
50
26.5253612
51
60.1450928
0
ARC
8
DEFAULT_255_1_234
10
4.3865389
20
52.9122158
40
0.5830602
50
7.4030428
51
26.8320788
0
ARC
8
DEFAULT_255_1_234
10
4.2271146
20
52.8873804
40
0.7443669
50
0.1605367
51
7.7176192
0
ARC
8
DEFAULT_255_1_234
10
4.243505
20
52.8109434
40
0.7279835
50
348.7289388
51
0.3012466
0
ARC
8
DEFAULT_255_1_234
10
4.4091481
20
52.7780386
40
0.559104
50
333.0706509
51
348.7181832
0
ARC
8
DEFAULT_255_1_234
10
4.5058238
20
52.7255319
40
0.4491417
50
299.2531685
51
333.4571258
0
ARC
8
DEFAULT_255_1_234
10
4.4697378
20
52.7940828
40
0.5265881
50
278.107187
51
299.0339503
0
ARC
8
DEFAULT_255_1_234
10
4.4441457
20
52.9448216
40
0.679442
50
270.4443897
51
278.4511052
0
ARC
8
DEFAULT_255_1_234
10
4.4462287
20
52.8519213
40
0.4604407
50
269.4970433
51
284.0205042
0
ARC
8
DEFAULT_255_1_234
10
4.4817588
20
52.7153978
40
0.3193797
50
283.7700273
51
318.1555492
0
ARC
8
DEFAULT_255_1_234
10
4.4480346
20
52.7406367
40
0.3613588
50
318.7415601
51
343.6873628
0
ARC
8
DEFAULT_255_1_234
10
4.2676369
20
52.7969832
40
0.5503313
50
343.3325091
51
355.8548958
0
ARC
8
DEFAULT_255_1_234
10
4.0578054
20
52.8169319
40
0.7610708
50
355.4988528
51
0.0791727
0
ARC
8
DEFAULT_255_1_234
10
4.1360676
20
52.890478
40
0.6828208
50
359.6455037
51
9.8607896
0
ARC
8
DEFAULT_255_1_234
10
4.3721374
20
52.9331099
40
0.4429406
50
9.6571907
51
26.1932807
0
ARC
8
DEFAULT_255_1_234
10
4.4649363
20
52.9762118
40
0.3406537
50
26.5777228
51
40.1532208
0
ARC
8
DEFAULT_255_1_234
10
4.4905089
20
52.9961619
40
0.308246
50
40.3840491
51
80.1431104
0
ARC
8
DEFAULT_255_1_234
10
4.4578207
20
52.8512333
40
0.4566909
50
79.2152159
51
89.7445637
0
LINE
8
DEFAULT_255_1_234
10
5.3698526
20
53.4348211
11
5.3698526
21
52.2654
0
LINE
8
DEFAULT_255_1_234
10
5.3698526
20
52.2654
11
5.2156433
21
52.2654
0
LINE
8
DEFAULT_255_1_234
10
5.2156433
20
52.2654
11
5.2156433
21
53.4348211
0
LINE
8
DEFAULT_255_1_234
10
5.2156433
20
53.4348211
11
5.3698526
21
53.4348211
0
LINE
8
DEFAULT_255_1_234
10
6.101544
20
53.4404433
11
6.101544
21
52.2654
0
LINE
8
DEFAULT_255_1_234
10
6.101544
20
52.2654
11
5.9521537
21
52.2654
0
LINE
8
DEFAULT_255_1_234
10
5.9521537
20
52.2654
11
5.9521537
21
53.2557133
0
LINE
8
DEFAULT_255_1_234
10
5.9521537
20
53.2557133
11
5.6525698
21
53.1456785
0
LINE
8
DEFAULT_255_1_234
10
5.6525698
20
53.1456785
11
5.6525698
21
53.2806117
0
LINE
8
DEFAULT_255_1_234
10
5.6525698
20
53.2806117
11
6.078252
21
53.4404433
0
LINE
8
DEFAULT_255_1_234
10
6.078252
20
53.4404433
11
6.101544
21
53.4404433
0
LINE
8
DEFAULT_255_1_234
10
4.4585154
20
60.2029
11
4.1348364
21
60.2029
0
LINE
8
DEFAULT_255_1_234
10
4.1348364
20
60.2029
11
4.1348364
21
61.3723211
0
LINE
8
DEFAULT_255_1_234
10
4.1348364
20
61.3723211
11
4.4649408
21
61.3723211
0
LINE
8
DEFAULT_255_1_234
10
4.9805784
20
60.8269661
11
4.9805784
21
60.7522709
0
LINE
8
DEFAULT_255_1_234
10
4.4689567
20
61.2454196
11
4.2890458
21
61.2454196
0
LINE
8
DEFAULT_255_1_234
10
4.2890458
20
61.2454196
11
4.2890458
21
60.3289983
0
LINE
8
DEFAULT_255_1_234
10
4.2890458
20
60.3289983
11
4.4512869
21
60.3289983
0
LINE
8
DEFAULT_255_1_234
10
4.8279754
20
60.7554836
11
4.8279754
21
60.8237534
0
ARC
8
DEFAULT_255_1_234
10
4.4688351
20
60.7857894
40
0.5865446
50
75.4101064
51
90.3804066
0
ARC
8
DEFAULT_255_1_234
10
4.4917864
20
60.8814492
40
0.4881916
50
60.145586
51
75.1888407
0
ARC
8
DEFAULT_255_1_234
10
4.507664
20
60.9091199
40
0.4562893
50
26.5253612
51
60.1450928
0
ARC
8
DEFAULT_255_1_234
10
4.3956389
20
60.8497158
40
0.5830602
50
7.4030428
51
26.8320788
0
ARC
8
DEFAULT_255_1_234
10
4.2362146
20
60.8248804
40
0.7443669
50
0.1605367
51
7.7176192
0
ARC
8
DEFAULT_255_1_234
10
4.252605
20
60.7484434
40
0.7279835
50
348.7289388
51
0.3012466
0
ARC
8
DEFAULT_255_1_234
10
4.4182481
20
60.7155386
40
0.559104
50
333.0706509
51
348.7181832
0
ARC
8
DEFAULT_255_1_234
10
4.5149238
20
60.6630319
40
0.4491417
50
299.2531685
51
333.4571258
0
ARC
8
DEFAULT_255_1_234
10
4.4788378
20
60.7315828
40
0.5265881
50
278.107187
51
299.0339503
0
ARC
8
DEFAULT_255_1_234
10
4.4532457
20
60.8823216
40
0.679442
50
270.4443897
51
278.4511052
0
ARC
8
DEFAULT_255_1_234
10
4.4553287
20
60.7894213
40
0.4604407
50
269.4970433
51
284.0205042
0
ARC
8
DEFAULT_255_1_234
10
4.4908588
20
60.6528978
40
0.3193797
50
283.7700273
51
318.1555492
0
ARC
8
DEFAULT_255_1_234
10
4.4571346
20
60.6781367
40
0.3613588
50
318.7415601
51
343.6873628
0
ARC
8
DEFAULT_255_1_234
10
4.2767369
20
60.7344832
40
0.5503313
50
343.3325091
51
355.8548958
0
ARC
8
DEFAULT_255_1_234
10
4.0669054
20
60.7544319
40
0.7610708
50
355.4988528
51
0.0791727
0
ARC
8
DEFAULT_255_1_234
10
4.1451676
20
60.827978
40
0.6828208
50
359.6455037
51
9.8607896
0
ARC
8
DEFAULT_255_1_234
10
4.3812374
20
60.8706099
40
0.4429406
50
9.6571907
51
26.1932807
0
ARC
8
DEFAULT_255_1_234
10
4.4740363
20
60.9137118
40
0.3406537
50
26.5777228
51
40.1532208
0
ARC
8
DEFAULT_255_1_234
10
4.4996089
20
60.9336619
40
0.308246
50
40.3840491
51
80.1431104
0
ARC
8
DEFAULT_255_1_234
10
4.4669207
20
60.7887333
40
0.4566909
50
79.2152159
51
89.7445637
0
LINE
8
DEFAULT_255_1_234
10
5.3789526
20
61.3723211
11
5.3789526
21
60.2029
0
LINE
8
DEFAULT_255_1_234
10
5.3789526
20
60.2029
11
5.2247433
21
60.2029
0
LINE
8
DEFAULT_255_1_234
10
5.2247433
20
60.2029
11
5.2247433
21
61.3723211
0
LINE
8
DEFAULT_255_1_234
10
5.2247433
20
61.3723211
11
5.3789526
21
61.3723211
0
LINE
8
DEFAULT_255_1_234
10
6.355612
20
60.8944327
11
6.355612
21
60.7016709
0
LINE
8
DEFAULT_255_1_234
10
5.6174953
20
60.6815916
11
5.6174953
21
60.8799755
0
LINE
8
DEFAULT_255_1_234
10
6.2070249
20
60.6615123
11
6.2070249
21
60.9048739
0
LINE
8
DEFAULT_255_1_234
10
5.7660824
20
60.9161184
11
5.7660824
21
60.6783789
0
ARC
8
DEFAULT_255_1_234
10
5.130901
20
60.6967805
40
1.2247208
50
353.8441951
51
0.2287902
0
ARC
8
DEFAULT_255_1_234
10
5.5948513
20
60.6449806
40
0.7578929
50
344.4934747
51
353.9765454
0
ARC
8
DEFAULT_255_1_234
10
5.8941104
20
60.5598981
40
0.4467846
50
329.2803592
51
344.7472793
0
ARC
8
DEFAULT_255_1_234
10
5.9933928
20
60.5054018
40
0.3336173
50
324.9352394
51
328.6160465
0
ARC
8
DEFAULT_255_1_234
10
6.0311037
20
60.4790427
40
0.2876076
50
280.580143
51
324.9173126
0
ARC
8
DEFAULT_255_1_234
10
5.990983
20
60.6461099
40
0.4592847
50
269.5977311
51
281.6734359
0
ARC
8
DEFAULT_255_1_234
10
5.9837735
20
60.6341173
40
0.4472986
50
256.6228859
51
270.51044
0
ARC
8
DEFAULT_255_1_234
10
5.9435713
20
60.4792877
40
0.2873874
50
215.8618325
51
257.2788573
0
ARC
8
DEFAULT_255_1_234
10
6.0456745
20
60.5477977
40
0.4102928
50
197.9693508
51
215.2623606
0
ARC
8
DEFAULT_255_1_234
10
6.294186
20
60.6316709
40
0.6725652
50
187.8816417
51
198.2346507
0
ARC
8
DEFAULT_255_1_234
10
6.6900069
20
60.6888079
40
1.0724845
50
180.8976217
51
188.0055519
0
ARC
8
DEFAULT_255_1_234
10
6.9700257
20
60.6991777
40
1.3526448
50
180.7449369
51
181.1510016
0
ARC
8
DEFAULT_255_1_234
10
6.8122986
20
60.8848042
40
1.1948131
50
173.7675579
51
180.231553
0
ARC
8
DEFAULT_255_1_234
10
6.3605132
20
60.9358666
40
0.7401564
50
164.3058563
51
173.9002247
0
ARC
8
DEFAULT_255_1_234
10
6.0693201
20
61.0197656
40
0.4371288
50
148.7922025
51
164.568378
0
ARC
8
DEFAULT_255_1_234
10
5.9741653
20
61.0728929
40
0.3282386
50
144.5883898
51
148.1176286
0
ARC
8
DEFAULT_255_1_234
10
5.9398551
20
61.0968315
40
0.2864044
50
101.6440918
51
144.514236
0
ARC
8
DEFAULT_255_1_234
10
5.9823618
20
60.9279069
40
0.4604934
50
89.5284041
51
102.5819763
0
ARC
8
DEFAULT_255_1_234
10
5.9902706
20
60.9240018
40
0.464401
50
77.0437873
51
90.5081339
0
ARC
8
DEFAULT_255_1_234
10
6.0304708
20
61.0882615
40
0.2953195
50
48.2778575
51
77.4994676
0
ARC
8
DEFAULT_255_1_234
10
6.0377339
20
61.1011746
40
0.2808655
50
36.3142134
51
47.6305865
0
ARC
8
DEFAULT_255_1_234
10
5.9508646
20
61.0426515
40
0.3855453
50
18.2931786
51
35.6769206
0
ARC
8
DEFAULT_255_1_234
10
5.6965405
20
60.9553593
40
0.654423
50
8.024666
51
18.5605216
0
ARC
8
DEFAULT_255_1_234
10
5.2802325
20
60.8938792
40
1.0752407
50
1.1274072
51
8.1718305
0
ARC
8
DEFAULT_255_1_234
10
4.9566515
20
60.8811885
40
1.3990231
50
0.5424119
51
1.3863029
0
ARC
8
DEFAULT_255_1_234
10
5.1387893
20
60.9084342
40
1.0682415
50
359.8090433
51
4.9407866
0
ARC
8
DEFAULT_255_1_234
10
5.5597907
20
60.9460113
40
0.6455691
50
4.8362157
51
12.2904523
0
ARC
8
DEFAULT_255_1_234
10
5.8353022
20
61.0073965
40
0.3633074
50
12.0805627
51
23.8173984
0
ARC
8
DEFAULT_255_1_234
10
5.9526727
20
61.0570919
40
0.2358723
50
24.2871213
51
31.3935614
0
ARC
8
DEFAULT_255_1_234
10
6.0051424
20
61.0914233
40
0.1732111
50
30.7407893
51
82.4657128
0
ARC
8
DEFAULT_255_1_234
10
5.9871559
20
61.0030691
40
0.263235
50
81.1060089
51
90.2184952
0
ARC
8
DEFAULT_255_1_234
10
5.9835858
20
61.0288924
40
0.2374236
50
89.3806855
51
105.6762551
0
ARC
8
DEFAULT_255_1_234
10
5.9652488
20
61.0955567
40
0.1682847
50
105.7981136
51
149.7388061
0
ARC
8
DEFAULT_255_1_234
10
6.0716567
20
61.031595
40
0.2924306
50
149.4208916
51
163.6286378
0
ARC
8
DEFAULT_255_1_234
10
6.2807455
20
60.967825
40
0.5110213
50
163.3763315
51
172.1410975
0
ARC
8
DEFAULT_255_1_234
10
6.6108174
20
60.9205518
40
0.8444586
50
172.0259487
51
178.0703232
0
ARC
8
DEFAULT_255_1_234
10
6.9138263
20
60.9061906
40
1.1477868
50
177.8631668
51
179.5044149
0
ARC
8
DEFAULT_255_1_234
10
6.8065668
20
60.6747389
40
1.0404907
50
179.7995573
51
185.2460446
0
ARC
8
DEFAULT_255_1_234
10
6.4022707
20
60.6364513
40
0.6343885
50
185.1411642
51
193.0079639
0
ARC
8
DEFAULT_255_1_234
10
6.1379179
20
60.5739641
40
0.3627568
50
192.7897626
51
205.2507664
0
ARC
8
DEFAULT_255_1_234
10
6.0332726
20
60.5272415
40
0.2481908
50
205.8005384
51
211.2537509
0
ARC
8
DEFAULT_255_1_234
10
5.9809167
20
60.492158
40
0.1852521
50
210.3789793
51
238.4008143
0
ARC
8
DEFAULT_255_1_234
10
5.9789689
20
60.4968376
40
0.1882621
50
239.6520629
51
265.9793761
0
ARC
8
DEFAULT_255_1_234
10
5.9874889
20
60.5640427
40
0.2559272
50
265.1315437
51
270.060332
0
ARC
8
DEFAULT_255_1_234
10
5.9903668
20
60.5316534
40
0.2235528
50
269.3314664
51
287.2178029
0
ARC
8
DEFAULT_255_1_234
10
6.004152
20
60.4813279
40
0.1714108
50
287.7958004
51
329.080874
0
ARC
8
DEFAULT_255_1_234
10
5.9083977
20
60.541093
40
0.2842745
50
328.6634704
51
343.3325132
0
ARC
8
DEFAULT_255_1_234
10
5.6910997
20
60.6087863
40
0.5118644
50
343.0499468
51
351.9393422
0
ARC
8
DEFAULT_255_1_234
10
5.3444297
20
60.6598949
40
0.8622784
50
351.8069023
51
357.7959224
0
ARC
8
DEFAULT_255_1_234
10
5.0208853
20
60.6766721
40
1.1862365
50
357.5871873
51
359.2677531
0
LINE
8
DEFAULT_255_1_234
10
23.0466364
20
69.3098211
11
23.2458235
21
69.3098211
0
LINE
8
DEFAULT_255_1_234
10
23.2458235
20
69.3098211
11
23.6281342
21
68.3556506
0
LINE
8
DEFAULT_255_1_234
10
23.6281342
20
68.3556506
11
24.010445
21
69.3098211
0
LINE
8
DEFAULT_255_1_234
10
24.010445
20
69.3098211
11
24.2104353
21
69.3098211
0
LINE
8
DEFAULT_255_1_234
10
24.2104353
20
69.3098211
11
24.2104353
21
68.1404
0
LINE
8
DEFAULT_255_1_234
10
24.2104353
20
68.1404
11
24.0562259
21
68.1404
0
LINE
8
DEFAULT_255_1_234
10
24.0562259
20
68.1404
11
24.0562259
21
68.5957996
0
LINE
8
DEFAULT_255_1_234
10
24.0562259
20
68.5957996
11
24.070683
21
69.0873419
0
LINE
8
DEFAULT_255_1_234
10
24.070683
20
69.0873419
11
23.6867659
21
68.1404
0
LINE
8
DEFAULT_255_1_234
10
23.6867659
20
68.1404
11
23.5686994
21
68.1404
0
LINE
8
DEFAULT_255_1_234
10
23.5686994
20
68.1404
11
23.1855854
21
69.0849324
0
LINE
8
DEFAULT_255_1_234
10
23.1855854
20
69.0849324
11
23.2008458
21
68.5957996
0
LINE
8
DEFAULT_255_1_234
10
23.2008458
20
68.5957996
11
23.2008458
21
68.1404
0
LINE
8
DEFAULT_255_1_234
10
23.2008458
20
68.1404
11
23.0466364
21
68.1404
0
LINE
8
DEFAULT_255_1_234
10
23.0466364
20
68.1404
11
23.0466364
21
69.3098211
0
LINE
8
DEFAULT_255_1_234
10
21.9393293
20
12.5779
11
21.8276881
21
12.8831061
0
LINE
8
DEFAULT_255_1_234
10
21.8276881
20
12.8831061
11
21.3377521
21
12.8831061
0
LINE
8
DEFAULT_255_1_234
10
21.3377521
20
12.8831061
11
21.2277173
21
12.5779
0
LINE
8
DEFAULT_255_1_234
10
21.2277173
20
12.5779
11
21.0686889
21
12.5779
0
LINE
8
DEFAULT_255_1_234
10
21.0686889
20
12.5779
11
21.5152535
21
13.7473211
0
LINE
8
DEFAULT_255_1_234
10
21.5152535
20
13.7473211
11
21.6501867
21
13.7473211
0
LINE
8
DEFAULT_255_1_234
10
21.6501867
20
13.7473211
11
22.0975545
21
12.5779
0
LINE
8
DEFAULT_255_1_234
10
22.0975545
20
12.5779
11
21.9393293
21
12.5779
0
LINE
8
DEFAULT_255_1_234
10
21.5827201
20
13.5569689
11
21.3843362
21
13.0100075
0
LINE
8
DEFAULT_255_1_234
10
21.3843362
20
13.0100075
11
21.7819072
21
13.0100075
0
LINE
8
DEFAULT_255_1_234
10
21.7819072
20
13.0100075
11
21.5827201
21
13.5569689
0
LINE
8
DEFAULT_255_1_234
10
23.1456964
20
13.1987534
11
23.1456964
21
13.1248614
0
LINE
8
DEFAULT_255_1_234
10
22.2051798
20
13.1144201
11
22.2051798
21
13.1987534
0
LINE
8
DEFAULT_255_1_234
10
22.9922902
20
13.1136169
11
22.9922902
21
13.2003597
0
LINE
8
DEFAULT_255_1_234
10
22.358586
20
13.210801
11
22.358586
21
13.1248614
0
ARC
8
DEFAULT_255_1_234
10
22.281499
20
13.1209015
40
0.8642064
50
350.487711
51
0.2625388
0
ARC
8
DEFAULT_255_1_234
10
22.5108232
20
13.0814578
40
0.631518
50
336.0277639
51
350.5787438
0
ARC
8
DEFAULT_255_1_234
10
22.6453055
20
13.0206892
40
0.4839466
50
319.8877444
51
336.1328423
0
ARC
8
DEFAULT_255_1_234
10
22.7055696
20
12.972458
40
0.4067874
50
302.4806467
51
319.6143626
0
ARC
8
DEFAULT_255_1_234
10
22.6940706
20
12.9946202
40
0.4316636
50
275.8195682
51
302.1884709
0
ARC
8
DEFAULT_255_1_234
10
22.6774339
20
13.1088665
40
0.5470306
50
269.9171439
51
276.3397983
0
ARC
8
DEFAULT_255_1_234
10
22.6729549
20
13.0402681
40
0.4784458
50
252.5219675
51
270.4416499
0
ARC
8
DEFAULT_255_1_234
10
22.6585808
20
12.9863592
40
0.422716
50
237.5352116
51
252.1857531
0
ARC
8
DEFAULT_255_1_234
10
22.6675004
20
12.9977363
40
0.4371052
50
209.063312
51
237.3492538
0
ARC
8
DEFAULT_255_1_234
10
22.7544852
20
13.0523685
40
0.5397041
50
205.1183774
51
209.6470015
0
ARC
8
DEFAULT_255_1_234
10
22.8341889
20
13.086183
40
0.6262326
50
188.7215458
51
204.8240747
0
ARC
8
DEFAULT_255_1_234
10
23.0339417
20
13.1198067
40
0.8287794
50
180.3723947
51
188.9252049
0
ARC
8
DEFAULT_255_1_234
10
23.0312169
20
13.2027402
40
0.8260467
50
169.5253763
51
180.2765336
0
ARC
8
DEFAULT_255_1_234
10
22.8409618
20
13.2377309
40
0.6326007
50
155.8315255
51
169.5089989
0
ARC
8
DEFAULT_255_1_234
10
22.7129119
20
13.2971348
40
0.4914567
50
139.6258461
51
156.0379525
0
ARC
8
DEFAULT_255_1_234
10
22.6539452
20
13.3445799
40
0.4158054
50
122.6416387
51
139.3430715
0
ARC
8
DEFAULT_255_1_234
10
22.6640072
20
13.3262451
40
0.4366739
50
93.0223692
51
122.455762
0
ARC
8
DEFAULT_255_1_234
10
22.6748069
20
13.2297709
40
0.5336137
50
89.975342
51
93.6341897
0
ARC
8
DEFAULT_255_1_234
10
22.6786848
20
13.2696242
40
0.4937738
50
73.746375
51
90.4233405
0
ARC
8
DEFAULT_255_1_234
10
22.6962427
20
13.3376287
40
0.4235786
50
57.662753
51
73.4518111
0
ARC
8
DEFAULT_255_1_234
10
22.6954433
20
13.3397832
40
0.4221899
50
29.1440151
51
57.414694
0
ARC
8
DEFAULT_255_1_234
10
22.6019628
20
13.2814005
40
0.5322966
50
24.0982783
51
29.7323517
0
ARC
8
DEFAULT_255_1_234
10
22.4985903
20
13.2385399
40
0.6441673
50
8.6655297
51
23.8241346
0
ARC
8
DEFAULT_255_1_234
10
22.2751641
20
13.2020854
40
0.8705386
50
359.7806941
51
8.8218784
0
ARC
8
DEFAULT_255_1_234
10
22.1604639
20
13.2046345
40
0.8318373
50
359.7055579
51
8.036044
0
ARC
8
DEFAULT_255_1_234
10
22.4604645
20
13.2483239
40
0.5286768
50
7.8928306
51
20.2962107
0
ARC
8
DEFAULT_255_1_234
10
22.6232216
20
13.3083395
40
0.3552073
50
20.3231126
51
36.4992797
0
ARC
8
DEFAULT_255_1_234
10
22.6917762
20
13.3611402
40
0.2686974
50
36.1437156
51
85.6627023
0
ARC
8
DEFAULT_255_1_234
10
22.6755308
20
13.2571221
40
0.373739
50
84.3852322
51
90.0757696
0
ARC
8
DEFAULT_255_1_234
10
22.671298
20
13.3231839
40
0.3076997
50
89.3038458
51
109.9045693
0
ARC
8
DEFAULT_255_1_234
10
22.6620371
20
13.3614062
40
0.2686424
50
110.8228367
51
143.9179474
0
ARC
8
DEFAULT_255_1_234
10
22.7554031
20
13.2901236
40
0.3860887
50
143.5289163
51
163.2980757
0
ARC
8
DEFAULT_255_1_234
10
22.9461852
20
13.2301433
40
0.5860659
50
163.0418846
51
174.3140048
0
ARC
8
DEFAULT_255_1_234
10
23.1865964
20
13.2023854
40
0.8280531
50
174.0509143
51
179.4176892
0
ARC
8
DEFAULT_255_1_234
10
23.1361703
20
13.1206954
40
0.7775954
50
179.6930361
51
188.7906598
0
ARC
8
DEFAULT_255_1_234
10
22.8698182
20
13.0780935
40
0.5078633
50
188.6331305
51
202.5629587
0
ARC
8
DEFAULT_255_1_234
10
22.7443774
20
13.0276996
40
0.3726913
50
202.8081362
51
216.1193925
0
ARC
8
DEFAULT_255_1_234
10
22.6634344
20
12.9625676
40
0.2689577
50
215.0755913
51
264.6379694
0
ARC
8
DEFAULT_255_1_234
10
22.6761294
20
13.0456513
40
0.3528978
50
263.846392
51
270.0833719
0
ARC
8
DEFAULT_255_1_234
10
22.6802684
20
13.0198374
40
0.3271036
50
269.3649385
51
287.5152008
0
ARC
8
DEFAULT_255_1_234
10
22.6980842
20
12.9551238
40
0.2600406
50
288.0630309
51
323.8113348
0
ARC
8
DEFAULT_255_1_234
10
22.6109684
20
13.0201049
40
0.3687189
50
323.6547608
51
342.6590488
0
ARC
8
DEFAULT_255_1_234
10
22.4078299
20
13.0861952
40
0.5823286
50
342.4091907
51
353.6451149
0
ARC
8
DEFAULT_255_1_234
10
22.1246809
20
13.121419
40
0.8676442
50
353.4029884
51
359.4847795
0
LINE
8
DEFAULT_255_1_234
10
24.0717558
20
13.2694327
11
24.0717558
21
13.0766709
0
LINE
8
DEFAULT_255_1_234
10
23.3336391
20
13.0565916
11
23.3336391
21
13.2549755
0
LINE
8
DEFAULT_255_1_234
10
23.9231687
20
13.0365123
11
23.9231687
21
13.2798739
0
LINE
8
DEFAULT_255_1_234
10
23.4822262
20
13.2911184
11
23.4822262
21
13.0533789
0
ARC
8
DEFAULT_255_1_234
10
22.8470448
20
13.0717805
40
1.2247208
50
353.8441951
51
0.2287902
0
ARC
8
DEFAULT_255_1_234
10
23.3109951
20
13.0199806
40
0.7578929
50
344.4934747
51
353.9765454
0
ARC
8
DEFAULT_255_1_234
10
23.6102542
20
12.9348981
40
0.4467846
50
329.2803592
51
344.7472793
0
ARC
8
DEFAULT_255_1_234
10
23.7095366
20
12.8804018
40
0.3336173
50
324.9352394
51
328.6160465
0
ARC
8
DEFAULT_255_1_234
10
23.7472475
20
12.8540427
40
0.2876076
50
280.580143
51
324.9173126
0
ARC
8
DEFAULT_255_1_234
10
23.7071268
20
13.0211099
40
0.4592847
50
269.5977311
51
281.6734359
0
ARC
8
DEFAULT_255_1_234
10
23.6999173
20
13.0091173
40
0.4472986
50
256.6228859
51
270.51044
0
ARC
8
DEFAULT_255_1_234
10
23.6597151
20
12.8542877
40
0.2873874
50
215.8618325
51
257.2788573
0
ARC
8
DEFAULT_255_1_234
10
23.7618183
20
12.9227977
40
0.4102928
50
197.9693508
51
215.2623606
0
ARC
8
DEFAULT_255_1_234
10
24.0103298
20
13.0066709
40
0.6725652
50
187.8816417
51
198.2346507
0
ARC
8
DEFAULT_255_1_234
10
24.4061507
20
13.0638079
40
1.0724845
50
180.8976217
51
188.0055519
0
ARC
8
DEFAULT_255_1_234
10
24.6861695
20
13.0741777
40
1.3526448
50
180.7449369
51
181.1510016
0
ARC
8
DEFAULT_255_1_234
10
24.5284424
20
13.2598042
40
1.1948131
50
173.7675579
51
180.231553
0
ARC
8
DEFAULT_255_1_234
10
24.076657
20
13.3108666
40
0.7401564
50
164.3058563
51
173.9002247
0
ARC
8
DEFAULT_255_1_234
10
23.7854639
20
13.3947656
40
0.4371288
50
148.7922025
51
164.568378
0
ARC
8
DEFAULT_255_1_234
10
23.6903091
20
13.4478929
40
0.3282386
50
144.5883898
51
148.1176286
0
ARC
8
DEFAULT_255_1_234
10
23.6559989
20
13.4718315
40
0.2864044
50
101.6440918
51
144.514236
0
ARC
8
DEFAULT_255_1_234
10
23.6985056
20
13.3029069
40
0.4604934
50
89.5284041
51
102.5819763
0
ARC
8
DEFAULT_255_1_234
10
23.7064144
20
13.2990018
40
0.464401
50
77.0437873
51
90.5081339
0
ARC
8
DEFAULT_255_1_234
10
23.7466146
20
13.4632615
40
0.2953195
50
48.2778575
51
77.4994676
0
ARC
8
DEFAULT_255_1_234
10
23.7538777
20
13.4761746
40
0.2808655
50
36.3142134
51
47.6305865
0
ARC
8
DEFAULT_255_1_234
10
23.6670084
20
13.4176515
40
0.3855453
50
18.2931786
51
35.6769206
0
ARC
8
DEFAULT_255_1_234
10
23.4126843
20
13.3303593
40
0.654423
50
8.024666
51
18.5605216
0
ARC
8
DEFAULT_255_1_234
10
22.9963763
20
13.2688792
40
1.0752407
50
1.1274072
51
8.1718305
0
ARC
8
DEFAULT_255_1_234
10
22.6727953
20
13.2561885
40
1.3990231
50
0.5424119
51
1.3863029
0
ARC
8
DEFAULT_255_1_234
10
22.8549331
20
13.2834342
40
1.0682415
50
359.8090433
51
4.9407866
0
ARC
8
DEFAULT_255_1_234
10
23.2759345
20
13.3210113
40
0.6455691
50
4.8362157
51
12.2904523
0
ARC
8
DEFAULT_255_1_234
10
23.551446
20
13.3823965
40
0.3633074
50
12.0805627
51
23.8173984
0
ARC
8
DEFAULT_255_1_234
10
23.6688165
20
13.4320919
40
0.2358723
50
24.2871213
51
31.3935614
0
ARC
8
DEFAULT_255_1_234
10
23.7212862
20
13.4664233
40
0.1732111
50
30.7407893
51
82.4657128
0
ARC
8
DEFAULT_255_1_234
10
23.7032997
20
13.3780691
40
0.263235
50
81.1060089
51
90.2184952
0
ARC
8
DEFAULT_255_1_234
10
23.6997296
20
13.4038924
40
0.2374236
50
89.3806855
51
105.6762551
0
ARC
8
DEFAULT_255_1_234
10
23.6813926
20
13.4705567
40
0.1682847
50
105.7981136
51
149.7388061
0
ARC
8
DEFAULT_255_1_234
10
23.7878005
20
13.406595
40
0.2924306
50
149.4208916
51
163.6286378
0
ARC
8
DEFAULT_255_1_234
10
23.9968893
20
13.342825
40
0.5110213
50
163.3763315
51
172.1410975
0
ARC
8
DEFAULT_255_1_234
10
24.3269612
20
13.2955518
40
0.8444586
50
172.0259487
51
178.0703232
0
ARC
8
DEFAULT_255_1_234
10
24.6299701
20
13.2811906
40
1.1477868
50
177.8631668
51
179.5044149
0
ARC
8
DEFAULT_255_1_234
10
24.5227106
20
13.0497389
40
1.0404907
50
179.7995573
51
185.2460446
0
ARC
8
DEFAULT_255_1_234
10
24.1184145
20
13.0114513
40
0.6343885
50
185.1411642
51
193.0079639
0
ARC
8
DEFAULT_255_1_234
10
23.8540617
20
12.9489641
40
0.3627568
50
192.7897626
51
205.2507664
0
ARC
8
DEFAULT_255_1_234
10
23.7494164
20
12.9022415
40
0.2481908
50
205.8005384
51
211.2537509
0
ARC
8
DEFAULT_255_1_234
10
23.6970605
20
12.867158
40
0.1852521
50
210.3789793
51
238.4008143
0
ARC
8
DEFAULT_255_1_234
10
23.6951127
20
12.8718376
40
0.1882621
50
239.6520629
51
265.9793761
0
ARC
8
DEFAULT_255_1_234
10
23.7036327
20
12.9390427
40
0.2559272
50
265.1315437
51
270.060332
0
ARC
8
DEFAULT_255_1_234
10
23.7065106
20
12.9066534
40
0.2235528
50
269.3314664
51
287.2178029
0
ARC
8
DEFAULT_255_1_234
10
23.7202958
20
12.8563279
40
0.1714108
50
287.7958004
51
329.080874
0
ARC
8
DEFAULT_255_1_234
10
23.6245415
20
12.916093
40
0.2842745
50
328.6634704
51
343.3325132
0
ARC
8
DEFAULT_255_1_234
10
23.4072435
20
12.9837863
40
0.5118644
50
343.0499468
51
351.9393422
0
ARC
8
DEFAULT_255_1_234
10
23.0605735
20
13.0348949
40
0.8622784
50
351.8069023
51
357.7959224
0
ARC
8
DEFAULT_255_1_234
10
22.7370291
20
13.0516721
40
1.1862365
50
357.5871873
51
359.2677531
0
LINE
8
DEFAULT_255_1_234
10
21.5950154
20
20.5154
11
21.2713364
21
20.5154
0
LINE
8
DEFAULT_255_1_234
10
21.2713364
20
20.5154
11
21.2713364
21
21.6848211
0
LINE
8
DEFAULT_255_1_234
10
21.2713364
20
21.6848211
11
21.6014408
21
21.6848211
0
LINE
8
DEFAULT_255_1_234
10
22.1170784
20
21.1394661
11
22.1170784
21
21.0647709
0
LINE
8
DEFAULT_255_1_234
10
21.6054567
20
21.5579196
11
21.4255458
21
21.5579196
0
LINE
8
DEFAULT_255_1_234
10
21.4255458
20
21.5579196
11
21.4255458
21
20.6414983
0
LINE
8
DEFAULT_255_1_234
10
21.4255458
20
20.6414983
11
21.5877869
21
20.6414983
0
LINE
8
DEFAULT_255_1_234
10
21.9644754
20
21.0679836
11
21.9644754
21
21.1362534
0
ARC
8
DEFAULT_255_1_234
10
21.6053351
20
21.0982894
40
0.5865446
50
75.4101064
51
90.3804066
0
ARC
8
DEFAULT_255_1_234
10
21.6282864
20
21.1939492
40
0.4881916
50
60.145586
51
75.1888407
0
ARC
8
DEFAULT_255_1_234
10
21.644164
20
21.2216199
40
0.4562893
50
26.5253612
51
60.1450928
0
ARC
8
DEFAULT_255_1_234
10
21.5321389
20
21.1622158
40
0.5830602
50
7.4030428
51
26.8320788
0
ARC
8
DEFAULT_255_1_234
10
21.3727146
20
21.1373804
40
0.7443669
50
0.1605367
51
7.7176192
0
ARC
8
DEFAULT_255_1_234
10
21.389105
20
21.0609434
40
0.7279835
50
348.7289388
51
0.3012466
0
ARC
8
DEFAULT_255_1_234
10
21.5547481
20
21.0280386
40
0.559104
50
333.0706509
51
348.7181832
0
ARC
8
DEFAULT_255_1_234
10
21.6514238
20
20.9755319
40
0.4491417
50
299.2531685
51
333.4571258
0
ARC
8
DEFAULT_255_1_234
10
21.6153378
20
21.0440828
40
0.5265881
50
278.107187
51
299.0339503
0
ARC
8
DEFAULT_255_1_234
10
21.5897457
20
21.1948216
40
0.679442
50
270.4443897
51
278.4511052
0
ARC
8
DEFAULT_255_1_234
10
21.5918287
20
21.1019213
40
0.4604407
50
269.4970433
51
284.0205042
0
ARC
8
DEFAULT_255_1_234
10
21.6273588
20
20.9653978
40
0.3193797
50
283.7700273
51
318.1555492
0
ARC
8
DEFAULT_255_1_234
10
21.5936346
20
20.9906367
40
0.3613588
50
318.7415601
51
343.6873628
0
ARC
8
DEFAULT_255_1_234
10
21.4132369
20
21.0469832
40
0.5503313
50
343.3325091
51
355.8548958
0
ARC
8
DEFAULT_255_1_234
10
21.2034054
20
21.0669319
40
0.7610708
50
355.4988528
51
0.0791727
0
ARC
8
DEFAULT_255_1_234
10
21.2816676
20
21.140478
40
0.6828208
50
359.6455037
51
9.8607896
0
ARC
8
DEFAULT_255_1_234
10
21.5177374
20
21.1831099
40
0.4429406
50
9.6571907
51
26.1932807
0
ARC
8
DEFAULT_255_1_234
10
21.6105363
20
21.2262118
40
0.3406537
50
26.5777228
51
40.1532208
0
ARC
8
DEFAULT_255_1_234
10
21.6361089
20
21.2461619
40
0.308246
50
40.3840491
51
80.1431104
0
ARC
8
DEFAULT_255_1_234
10
21.6034207
20
21.1012333
40
0.4566909
50
79.2152159
51
89.7445637
0
LINE
8
DEFAULT_255_1_234
10
23.2495535
20
21.1362534
11
23.2495535
21
21.0623614
0
LINE
8
DEFAULT_255_1_234
10
22.309037
20
21.0519201
11
22.309037
21
21.1362534
0
LINE
8
DEFAULT_255_1_234
10
23.0961473
20
21.0511169
11
23.0961473
21
21.1378597
0
LINE
8
DEFAULT_255_1_234
10
22.4624432
20
21.148301
11
22.4624432
21
21.0623614
0
ARC
8
DEFAULT_255_1_234
10
22.3853562
20
21.0584015
40
0.8642064
50
350.487711
51
0.2625388
0
ARC
8
DEFAULT_255_1_234
10
22.6146803
20
21.0189578
40
0.631518
50
336.0277639
51
350.5787438
0
ARC
8
DEFAULT_255_1_234
10
22.7491626
20
20.9581892
40
0.4839466
50
319.8877444
51
336.1328423
0
ARC
8
DEFAULT_255_1_234
10
22.8094267
20
20.909958
40
0.4067874
50
302.4806467
51
319.6143626
0
ARC
8
DEFAULT_255_1_234
10
22.7979278
20
20.9321202
40
0.4316636
50
275.8195682
51
302.1884709
0
ARC
8
DEFAULT_255_1_234
10
22.7812911
20
21.0463665
40
0.5470306
50
269.9171439
51
276.3397983
0
ARC
8
DEFAULT_255_1_234
10
22.7768121
20
20.9777681
40
0.4784458
50
252.5219675
51
270.4416499
0
ARC
8
DEFAULT_255_1_234
10
22.762438
20
20.9238592
40
0.422716
50
237.5352116
51
252.1857531
0
ARC
8
DEFAULT_255_1_234
10
22.7713575
20
20.9352363
40
0.4371052
50
209.063312
51
237.3492538
0
ARC
8
DEFAULT_255_1_234
10
22.8583423
20
20.9898685
40
0.5397041
50
205.1183774
51
209.6470015
0
ARC
8
DEFAULT_255_1_234
10
22.938046
20
21.023683
40
0.6262326
50
188.7215458
51
204.8240747
0
ARC
8
DEFAULT_255_1_234
10
23.1377988
20
21.0573067
40
0.8287794
50
180.3723947
51
188.9252049
0
ARC
8
DEFAULT_255_1_234
10
23.135074
20
21.1402402
40
0.8260467
50
169.5253763
51
180.2765336
0
ARC
8
DEFAULT_255_1_234
10
22.9448189
20
21.1752309
40
0.6326007
50
155.8315255
51
169.5089989
0
ARC
8
DEFAULT_255_1_234
10
22.816769
20
21.2346348
40
0.4914567
50
139.6258461
51
156.0379525
0
ARC
8
DEFAULT_255_1_234
10
22.7578023
20
21.2820799
40
0.4158054
50
122.6416387
51
139.3430715
0
ARC
8
DEFAULT_255_1_234
10
22.7678643
20
21.2637451
40
0.4366739
50
93.0223692
51
122.455762
0
ARC
8
DEFAULT_255_1_234
10
22.778664
20
21.1672709
40
0.5336137
50
89.975342
51
93.6341897
0
ARC
8
DEFAULT_255_1_234
10
22.782542
20
21.2071242
40
0.4937738
50
73.746375
51
90.4233405
0
ARC
8
DEFAULT_255_1_234
10
22.8000998
20
21.2751287
40
0.4235786
50
57.662753
51
73.4518111
0
ARC
8
DEFAULT_255_1_234
10
22.7993004
20
21.2772832
40
0.4221899
50
29.1440151
51
57.414694
0
ARC
8
DEFAULT_255_1_234
10
22.7058199
20
21.2189005
40
0.5322966
50
24.0982783
51
29.7323517
0
ARC
8
DEFAULT_255_1_234
10
22.6024474
20
21.1760399
40
0.6441673
50
8.6655297
51
23.8241346
0
ARC
8
DEFAULT_255_1_234
10
22.3790212
20
21.1395854
40
0.8705386
50
359.7806941
51
8.8218784
0
ARC
8
DEFAULT_255_1_234
10
22.264321
20
21.1421345
40
0.8318373
50
359.7055579
51
8.036044
0
ARC
8
DEFAULT_255_1_234
10
22.5643216
20
21.1858239
40
0.5286768
50
7.8928306
51
20.2962107
0
ARC
8
DEFAULT_255_1_234
10
22.7270787
20
21.2458395
40
0.3552073
50
20.3231126
51
36.4992797
0
ARC
8
DEFAULT_255_1_234
10
22.7956333
20
21.2986402
40
0.2686974
50
36.1437156
51
85.6627023
0
ARC
8
DEFAULT_255_1_234
10
22.7793879
20
21.1946221
40
0.373739
50
84.3852322
51
90.0757696
0
ARC
8
DEFAULT_255_1_234
10
22.7751551
20
21.2606839
40
0.3076997
50
89.3038458
51
109.9045693
0
ARC
8
DEFAULT_255_1_234
10
22.7658942
20
21.2989062
40
0.2686424
50
110.8228367
51
143.9179474
0
ARC
8
DEFAULT_255_1_234
10
22.8592603
20
21.2276236
40
0.3860887
50
143.5289163
51
163.2980757
0
ARC
8
DEFAULT_255_1_234
10
23.0500423
20
21.1676433
40
0.5860659
50
163.0418846
51
174.3140048
0
ARC
8
DEFAULT_255_1_234
10
23.2904535
20
21.1398854
40
0.8280531
50
174.0509143
51
179.4176892
0
ARC
8
DEFAULT_255_1_234
10
23.2400274
20
21.0581954
40
0.7775954
50
179.6930361
51
188.7906598
0
ARC
8
DEFAULT_255_1_234
10
22.9736753
20
21.0155935
40
0.5078633
50
188.6331305
51
202.5629587
0
ARC
8
DEFAULT_255_1_234
10
22.8482345
20
20.9651996
40
0.3726913
50
202.8081362
51
216.1193925
0
ARC
8
DEFAULT_255_1_234
10
22.7672915
20
20.9000676
40
0.2689577
50
215.0755913
51
264.6379694
0
ARC
8
DEFAULT_255_1_234
10
22.7799865
20
20.9831513
40
0.3528978
50
263.846392
51
270.0833719
0
ARC
8
DEFAULT_255_1_234
10
22.7841255
20
20.9573374
40
0.3271036
50
269.3649385
51
287.5152008
0
ARC
8
DEFAULT_255_1_234
10
22.8019413
20
20.8926238
40
0.2600406
50
288.0630309
51
323.8113348
0
ARC
8
DEFAULT_255_1_234
10
22.7148255
20
20.9576049
40
0.3687189
50
323.6547608
51
342.6590488
0
ARC
8
DEFAULT_255_1_234
10
22.511687
20
21.0236952
40
0.5823286
50
342.4091907
51
353.6451149
0
ARC
8
DEFAULT_255_1_234
10
22.2285381
20
21.058919
40
0.8676442
50
353.4029884
51
359.4847795
0
LINE
8
DEFAULT_255_1_234
10
23.6294547
20
21.0711963
11
23.510585
21
21.1017169
0
LINE
8
DEFAULT_255_1_234
10
23.510585
20
21.1017169
11
23.5700199
21
21.6848211
0
LINE
8
DEFAULT_255_1_234
10
23.5700199
20
21.6848211
11
24.1691875
21
21.6848211
0
LINE
8
DEFAULT_255_1_234
10
24.1691875
20
21.6848211
11
24.1691875
21
21.5474784
0
LINE
8
DEFAULT_255_1_234
10
24.1691875
20
21.5474784
11
23.6961182
21
21.5474784
0
LINE
8
DEFAULT_255_1_234
10
23.6961182
20
21.5474784
11
23.6607785
21
21.2286184
0
LINE
8
DEFAULT_255_1_234
10
23.46882
20
20.8230156
11
23.6093754
21
20.8230156
0
LINE
8
DEFAULT_255_1_234
10
23.6688103
20
21.1033232
11
23.6294547
21
21.0711963
0
ARC
8
DEFAULT_255_1_234
10
23.8462569
20
20.910623
40
0.3681349
50
93.7182161
51
120.2538958
0
ARC
8
DEFAULT_255_1_234
10
23.8556832
20
20.8298394
40
0.449379
50
89.9660152
51
94.2496022
0
ARC
8
DEFAULT_255_1_234
10
23.8597566
20
20.8887549
40
0.390482
50
73.8043271
51
90.5585896
0
ARC
8
DEFAULT_255_1_234
10
23.8832463
20
20.9745602
40
0.3015334
50
41.3071453
51
73.5430202
0
ARC
8
DEFAULT_255_1_234
10
23.841629
20
20.9387324
40
0.3564457
50
13.5075983
51
41.2174222
0
ARC
8
DEFAULT_255_1_234
10
23.6774494
20
20.8957486
40
0.5261351
50
1.1331335
51
13.8829381
0
ARC
8
DEFAULT_255_1_234
10
23.5362863
20
20.8881665
40
0.6674378
50
359.9919444
51
1.544251
0
ARC
8
DEFAULT_255_1_234
10
23.6639689
20
20.884028
40
0.5397702
50
347.8572367
51
0.4293338
0
ARC
8
DEFAULT_255_1_234
10
23.8390007
20
20.8443736
40
0.3603188
50
323.673004
51
348.1672506
0
ARC
8
DEFAULT_255_1_234
10
23.8684515
20
20.8264168
40
0.3259678
50
316.8171152
51
323.1492751
0
ARC
8
DEFAULT_255_1_234
10
23.8745704
20
20.822746
40
0.3189975
50
281.8396411
51
316.5457803
0
ARC
8
DEFAULT_255_1_234
10
23.8369968
20
20.9782762
40
0.4789527
50
269.5770101
51
282.4214771
0
ARC
8
DEFAULT_255_1_234
10
23.8298779
20
20.9569125
40
0.45759
50
256.2427136
51
270.4486331
0
ARC
8
DEFAULT_255_1_234
10
23.7999682
20
20.8369229
40
0.3339303
50
228.9023911
51
256.3314342
0
ARC
8
DEFAULT_255_1_234
10
23.7925914
20
20.8252746
40
0.32031
50
193.753695
51
228.5271154
0
ARC
8
DEFAULT_255_1_234
10
23.9163868
20
20.86158
40
0.4492253
50
184.924711
51
194.497588
0
ARC
8
DEFAULT_255_1_234
10
23.9356435
20
20.8651591
40
0.3289787
50
187.3600538
51
198.6732863
0
ARC
8
DEFAULT_255_1_234
10
23.8306729
20
20.8287674
40
0.217884
50
198.4451669
51
217.794479
0
ARC
8
DEFAULT_255_1_234
10
23.8010904
20
20.8078085
40
0.1816698
50
218.2887171
51
228.5612368
0
ARC
8
DEFAULT_255_1_234
10
23.8108691
20
20.8209963
40
0.1980329
50
228.9654866
51
258.1234728
0
ARC
8
DEFAULT_255_1_234
10
23.8314401
20
20.9090833
40
0.2884748
50
257.7258293
51
270.401361
0
ARC
8
DEFAULT_255_1_234
10
23.8359287
20
20.8645821
40
0.2439788
50
269.4204404
51
286.4209037
0
ARC
8
DEFAULT_255_1_234
10
23.8507775
20
20.8106657
40
0.1880666
50
286.7251356
51
320.600362
0
ARC
8
DEFAULT_255_1_234
10
23.81246
20
20.8417595
40
0.2374121
50
320.6712579
51
344.5441685
0
ARC
8
DEFAULT_255_1_234
10
23.6967926
20
20.8757045
40
0.3579479
50
344.2412205
51
356.7357071
0
ARC
8
DEFAULT_255_1_234
10
23.5719075
20
20.8860444
40
0.4832297
50
356.3548756
51
0.0500261
0
ARC
8
DEFAULT_255_1_234
10
23.7055584
20
20.889165
40
0.3495889
50
359.5576869
51
12.953486
0
ARC
8
DEFAULT_255_1_234
10
23.8110481
20
20.9147434
40
0.2410532
50
12.6490276
51
41.6081334
0
ARC
8
DEFAULT_255_1_234
10
23.8340852
20
20.9343321
40
0.2108218
50
41.7850273
51
85.9892764
0
ARC
8
DEFAULT_255_1_234
10
23.8217589
20
20.8530462
40
0.2928454
50
84.6957577
51
90.0676183
0
ARC
8
DEFAULT_255_1_234
10
23.8194073
20
20.7861716
40
0.3597255
50
89.6804936
51
99.1614436
0
ARC
8
DEFAULT_255_1_234
10
23.7988704
20
20.9089131
40
0.235281
50
98.9830931
51
113.8908934
0
ARC
8
DEFAULT_255_1_234
10
23.7759114
20
20.9630587
40
0.176479
50
114.1950727
51
127.3641004
0
LINE
8
DEFAULT_255_1_234
10
21.4892154
20
28.4529
11
21.1655364
21
28.4529
0
LINE
8
DEFAULT_255_1_234
10
21.1655364
20
28.4529
11
21.1655364
21
29.6223211
0
LINE
8
DEFAULT_255_1_234
10
21.1655364
20
29.6223211
11
21.4956408
21
29.6223211
0
LINE
8
DEFAULT_255_1_234
10
22.0112784
20
29.0769661
11
22.0112784
21
29.0022709
0
LINE
8
DEFAULT_255_1_234
10
21.4996567
20
29.4954196
11
21.3197458
21
29.4954196
0
LINE
8
DEFAULT_255_1_234
10
21.3197458
20
29.4954196
11
21.3197458
21
28.5789983
0
LINE
8
DEFAULT_255_1_234
10
21.3197458
20
28.5789983
11
21.4819869
21
28.5789983
0
LINE
8
DEFAULT_255_1_234
10
21.8586754
20
29.0054836
11
21.8586754
21
29.0737534
0
ARC
8
DEFAULT_255_1_234
10
21.4995351
20
29.0357894
40
0.5865446
50
75.4101064
51
90.3804066
0
ARC
8
DEFAULT_255_1_234
10
21.5224864
20
29.1314492
40
0.4881916
50
60.145586
51
75.1888407
0
ARC
8
DEFAULT_255_1_234
10
21.538364
20
29.1591199
40
0.4562893
50
26.5253612
51
60.1450928
0
ARC
8
DEFAULT_255_1_234
10
21.4263389
20
29.0997158
40
0.5830602
50
7.4030428
51
26.8320788
0
ARC
8
DEFAULT_255_1_234
10
21.2669146
20
29.0748804
40
0.7443669
50
0.1605367
51
7.7176192
0
ARC
8
DEFAULT_255_1_234
10
21.283305
20
28.9984434
40
0.7279835
50
348.7289388
51
0.3012466
0
ARC
8
DEFAULT_255_1_234
10
21.4489481
20
28.9655386
40
0.559104
50
333.0706509
51
348.7181832
0
ARC
8
DEFAULT_255_1_234
10
21.5456238
20
28.9130319
40
0.4491417
50
299.2531685
51
333.4571258
0
ARC
8
DEFAULT_255_1_234
10
21.5095378
20
28.9815828
40
0.5265881
50
278.107187
51
299.0339503
0
ARC
8
DEFAULT_255_1_234
10
21.4839457
20
29.1323216
40
0.679442
50
270.4443897
51
278.4511052
0
ARC
8
DEFAULT_255_1_234
10
21.4860287
20
29.0394213
40
0.4604407
50
269.4970433
51
284.0205042
0
ARC
8
DEFAULT_255_1_234
10
21.5215588
20
28.9028978
40
0.3193797
50
283.7700273
51
318.1555492
0
ARC
8
DEFAULT_255_1_234
10
21.4878346
20
28.9281367
40
0.3613588
50
318.7415601
51
343.6873628
0
ARC
8
DEFAULT_255_1_234
10
21.3074369
20
28.9844832
40
0.5503313
50
343.3325091
51
355.8548958
0
ARC
8
DEFAULT_255_1_234
10
21.0976054
20
29.0044319
40
0.7610708
50
355.4988528
51
0.0791727
0
ARC
8
DEFAULT_255_1_234
10
21.1758676
20
29.077978
40
0.6828208
50
359.6455037
51
9.8607896
0
ARC
8
DEFAULT_255_1_234
10
21.4119374
20
29.1206099
40
0.4429406
50
9.6571907
51
26.1932807
0
ARC
8
DEFAULT_255_1_234
10
21.5047363
20
29.1637118
40
0.3406537
50
26.5777228
51
40.1532208
0
ARC
8
DEFAULT_255_1_234
10
21.5303089
20
29.1836619
40
0.308246
50
40.3840491
51
80.1431104
0
ARC
8
DEFAULT_255_1_234
10
21.4976207
20
29.0387333
40
0.4566909
50
79.2152159
51
89.7445637
0
LINE
8
DEFAULT_255_1_234
10
23.1437535
20
29.0737534
11
23.1437535
21
28.9998614
0
LINE
8
DEFAULT_255_1_234
10
22.203237
20
28.9894201
11
22.203237
21
29.0737534
0
LINE
8
DEFAULT_255_1_234
10
22.9903473
20
28.9886169
11
22.9903473
21
29.0753597
0
LINE
8
DEFAULT_255_1_234
10
22.3566432
20
29.085801
11
22.3566432
21
28.9998614
0
ARC
8
DEFAULT_255_1_234
10
22.2795562
20
28.9959015
40
0.8642064
50
350.487711
51
0.2625388
0
ARC
8
DEFAULT_255_1_234
10
22.5088803
20
28.9564578
40
0.631518
50
336.0277639
51
350.5787438
0
ARC
8
DEFAULT_255_1_234
10
22.6433626
20
28.8956892
40
0.4839466
50
319.8877444
51
336.1328423
0
ARC
8
DEFAULT_255_1_234
10
22.7036267
20
28.847458
40
0.4067874
50
302.4806467
51
319.6143626
0
ARC
8
DEFAULT_255_1_234
10
22.6921278
20
28.8696202
40
0.4316636
50
275.8195682
51
302.1884709
0
ARC
8
DEFAULT_255_1_234
10
22.6754911
20
28.9838665
40
0.5470306
50
269.9171439
51
276.3397983
0
ARC
8
DEFAULT_255_1_234
10
22.6710121
20
28.9152681
40
0.4784458
50
252.5219675
51
270.4416499
0
ARC
8
DEFAULT_255_1_234
10
22.656638
20
28.8613592
40
0.422716
50
237.5352116
51
252.1857531
0
ARC
8
DEFAULT_255_1_234
10
22.6655575
20
28.8727363
40
0.4371052
50
209.063312
51
237.3492538
0
ARC
8
DEFAULT_255_1_234
10
22.7525423
20
28.9273685
40
0.5397041
50
205.1183774
51
209.6470015
0
ARC
8
DEFAULT_255_1_234
10
22.832246
20
28.961183
40
0.6262326
50
188.7215458
51
204.8240747
0
ARC
8
DEFAULT_255_1_234
10
23.0319988
20
28.9948067
40
0.8287794
50
180.3723947
51
188.9252049
0
ARC
8
DEFAULT_255_1_234
10
23.029274
20
29.0777402
40
0.8260467
50
169.5253763
51
180.2765336
0
ARC
8
DEFAULT_255_1_234
10
22.8390189
20
29.1127309
40
0.6326007
50
155.8315255
51
169.5089989
0
ARC
8
DEFAULT_255_1_234
10
22.710969
20
29.1721348
40
0.4914567
50
139.6258461
51
156.0379525
0
ARC
8
DEFAULT_255_1_234
10
22.6520023
20
29.2195799
40
0.4158054
50
122.6416387
51
139.3430715
0
ARC
8
DEFAULT_255_1_234
10
22.6620643
20
29.2012451
40
0.4366739
50
93.0223692
51
122.455762
0
ARC
8
DEFAULT_255_1_234
10
22.672864
20
29.1047709
40
0.5336137
50
89.975342
51
93.6341897
0
ARC
8
DEFAULT_255_1_234
10
22.676742
20
29.1446242
40
0.4937738
50
73.746375
51
90.4233405
0
ARC
8
DEFAULT_255_1_234
10
22.6942998
20
29.2126287
40
0.4235786
50
57.662753
51
73.4518111
0
ARC
8
DEFAULT_255_1_234
10
22.6935004
20
29.2147832
40
0.4221899
50
29.1440151
51
57.414694
0
ARC
8
DEFAULT_255_1_234
10
22.6000199
20
29.1564005
40
0.5322966
50
24.0982783
51
29.7323517
0
ARC
8
DEFAULT_255_1_234
10
22.4966474
20
29.1135399
40
0.6441673
50
8.6655297
51
23.8241346
0
ARC
8
DEFAULT_255_1_234
10
22.2732212
20
29.0770854
40
0.8705386
50
359.7806941
51
8.8218784
0
ARC
8
DEFAULT_255_1_234
10
22.158521
20
29.0796345
40
0.8318373
50
359.7055579
51
8.036044
0
ARC
8
DEFAULT_255_1_234
10
22.4585216
20
29.1233239
40
0.5286768
50
7.8928306
51
20.2962107
0
ARC
8
DEFAULT_255_1_234
10
22.6212787
20
29.1833395
40
0.3552073
50
20.3231126
51
36.4992797
0
ARC
8
DEFAULT_255_1_234
10
22.6898333
20
29.2361402
40
0.2686974
50
36.1437156
51
85.6627023
0
ARC
8
DEFAULT_255_1_234
10
22.6735879
20
29.1321221
40
0.373739
50
84.3852322
51
90.0757696
0
ARC
8
DEFAULT_255_1_234
10
22.6693551
20
29.1981839
40
0.3076997
50
89.3038458
51
109.9045693
0
ARC
8
DEFAULT_255_1_234
10
22.6600942
20
29.2364062
40
0.2686424
50
110.8228367
51
143.9179474
0
ARC
8
DEFAULT_255_1_234
10
22.7534603
20
29.1651236
40
0.3860887
50
143.5289163
51
163.2980757
0
ARC
8
DEFAULT_255_1_234
10
22.9442423
20
29.1051433
40
0.5860659
50
163.0418846
51
174.3140048
0
ARC
8
DEFAULT_255_1_234
10
23.1846535
20
29.0773854
40
0.8280531
50
174.0509143
51
179.4176892
0
ARC
8
DEFAULT_255_1_234
10
23.1342274
20
28.9956954
40
0.7775954
50
179.6930361
51
188.7906598
0
ARC
8
DEFAULT_255_1_234
10
22.8678753
20
28.9530935
40
0.5078633
50
188.6331305
51
202.5629587
0
ARC
8
DEFAULT_255_1_234
10
22.7424345
20
28.9026996
40
0.3726913
50
202.8081362
51
216.1193925
0
ARC
8
DEFAULT_255_1_234
10
22.6614915
20
28.8375676
40
0.2689577
50
215.0755913
51
264.6379694
0
ARC
8
DEFAULT_255_1_234
10
22.6741865
20
28.9206513
40
0.3528978
50
263.846392
51
270.0833719
0
ARC
8
DEFAULT_255_1_234
10
22.6783255
20
28.8948374
40
0.3271036
50
269.3649385
51
287.5152008
0
ARC
8
DEFAULT_255_1_234
10
22.6961413
20
28.8301238
40
0.2600406
50
288.0630309
51
323.8113348
0
ARC
8
DEFAULT_255_1_234
10
22.6090255
20
28.8951049
40
0.3687189
50
323.6547608
51
342.6590488
0
ARC
8
DEFAULT_255_1_234
10
22.405887
20
28.9611952
40
0.5823286
50
342.4091907
51
353.6451149
0
ARC
8
DEFAULT_255_1_234
10
22.1227381
20
28.996419
40
0.8676442
50
353.4029884
51
359.4847795
0
LINE
8
DEFAULT_255_1_234
10
23.963794
20
29.6223211
11
23.963794
21
28.845652
0
LINE
8
DEFAULT_255_1_234
10
23.963794
20
28.845652
11
24.1260351
21
28.845652
0
LINE
8
DEFAULT_255_1_234
10
24.1260351
20
28.845652
11
24.1260351
21
28.7243728
0
LINE
8
DEFAULT_255_1_234
10
24.1260351
20
28.7243728
11
23.963794
21
28.7243728
0
LINE
8
DEFAULT_255_1_234
10
23.963794
20
28.7243728
11
23.963794
21
28.4529
0
LINE
8
DEFAULT_255_1_234
10
23.963794
20
28.4529
11
23.8144037
21
28.4529
0
LINE
8
DEFAULT_255_1_234
10
23.8144037
20
28.4529
11
23.8144037
21
28.7243728
0
LINE
8
DEFAULT_255_1_234
10
23.8144037
20
28.7243728
11
23.2818994
21
28.7243728
0
LINE
8
DEFAULT_255_1_234
10
23.2818994
20
28.7243728
11
23.2818994
21
28.8119187
0
LINE
8
DEFAULT_255_1_234
10
23.2818994
20
28.8119187
11
23.8055688
21
29.6223211
0
LINE
8
DEFAULT_255_1_234
10
23.8055688
20
29.6223211
11
23.963794
21
29.6223211
0
LINE
8
DEFAULT_255_1_234
10
23.7967338
20
29.3869912
11
23.4505659
21
28.845652
0
LINE
8
DEFAULT_255_1_234
10
23.4505659
20
28.845652
11
23.8144037
21
28.845652
0
LINE
8
DEFAULT_255_1_234
10
23.8144037
20
28.845652
11
23.8144037
21
29.4191181
0
LINE
8
DEFAULT_255_1_234
10
23.8144037
20
29.4191181
11
23.7967338
21
29.3869912
0
LINE
8
DEFAULT_255_1_234
10
21.5950154
20
36.3904
11
21.2713364
21
36.3904
0
LINE
8
DEFAULT_255_1_234
10
21.2713364
20
36.3904
11
21.2713364
21
37.5598211
0
LINE
8
DEFAULT_255_1_234
10
21.2713364
20
37.5598211
11
21.6014408
21
37.5598211
0
LINE
8
DEFAULT_255_1_234
10
22.1170784
20
37.0144661
11
22.1170784
21
36.9397709
0
LINE
8
DEFAULT_255_1_234
10
21.6054567
20
37.4329196
11
21.4255458
21
37.4329196
0
LINE
8
DEFAULT_255_1_234
10
21.4255458
20
37.4329196
11
21.4255458
21
36.5164983
0
LINE
8
DEFAULT_255_1_234
10
21.4255458
20
36.5164983
11
21.5877869
21
36.5164983
0
LINE
8
DEFAULT_255_1_234
10
21.9644754
20
36.9429836
11
21.9644754
21
37.0112534
0
ARC
8
DEFAULT_255_1_234
10
21.6053351
20
36.9732894
40
0.5865446
50
75.4101064
51
90.3804066
0
ARC
8
DEFAULT_255_1_234
10
21.6282864
20
37.0689492
40
0.4881916
50
60.145586
51
75.1888407
0
ARC
8
DEFAULT_255_1_234
10
21.644164
20
37.0966199
40
0.4562893
50
26.5253612
51
60.1450928
0
ARC
8
DEFAULT_255_1_234
10
21.5321389
20
37.0372158
40
0.5830602
50
7.4030428
51
26.8320788
0
ARC
8
DEFAULT_255_1_234
10
21.3727146
20
37.0123804
40
0.7443669
50
0.1605367
51
7.7176192
0
ARC
8
DEFAULT_255_1_234
10
21.389105
20
36.9359434
40
0.7279835
50
348.7289388
51
0.3012466
0
ARC
8
DEFAULT_255_1_234
10
21.5547481
20
36.9030386
40
0.559104
50
333.0706509
51
348.7181832
0
ARC
8
DEFAULT_255_1_234
10
21.6514238
20
36.8505319
40
0.4491417
50
299.2531685
51
333.4571258
0
ARC
8
DEFAULT_255_1_234
10
21.6153378
20
36.9190828
40
0.5265881
50
278.107187
51
299.0339503
0
ARC
8
DEFAULT_255_1_234
10
21.5897457
20
37.0698216
40
0.679442
50
270.4443897
51
278.4511052
0
ARC
8
DEFAULT_255_1_234
10
21.5918287
20
36.9769213
40
0.4604407
50
269.4970433
51
284.0205042
0
ARC
8
DEFAULT_255_1_234
10
21.6273588
20
36.8403978
40
0.3193797
50
283.7700273
51
318.1555492
0
ARC
8
DEFAULT_255_1_234
10
21.5936346
20
36.8656367
40
0.3613588
50
318.7415601
51
343.6873628
0
ARC
8
DEFAULT_255_1_234
10
21.4132369
20
36.9219832
40
0.5503313
50
343.3325091
51
355.8548958
0
ARC
8
DEFAULT_255_1_234
10
21.2034054
20
36.9419319
40
0.7610708
50
355.4988528
51
0.0791727
0
ARC
8
DEFAULT_255_1_234
10
21.2816676
20
37.015478
40
0.6828208
50
359.6455037
51
9.8607896
0
ARC
8
DEFAULT_255_1_234
10
21.5177374
20
37.0581099
40
0.4429406
50
9.6571907
51
26.1932807
0
ARC
8
DEFAULT_255_1_234
10
21.6105363
20
37.1012118
40
0.3406537
50
26.5777228
51
40.1532208
0
ARC
8
DEFAULT_255_1_234
10
21.6361089
20
37.1211619
40
0.308246
50
40.3840491
51
80.1431104
0
ARC
8
DEFAULT_255_1_234
10
21.6034207
20
36.9762333
40
0.4566909
50
79.2152159
51
89.7445637
0
LINE
8
DEFAULT_255_1_234
10
23.2495535
20
37.0112534
11
23.2495535
21
36.9373614
0
LINE
8
DEFAULT_255_1_234
10
22.309037
20
36.9269201
11
22.309037
21
37.0112534
0
LINE
8
DEFAULT_255_1_234
10
23.0961473
20
36.9261169
11
23.0961473
21
37.0128597
0
LINE
8
DEFAULT_255_1_234
10
22.4624432
20
37.023301
11
22.4624432
21
36.9373614
0
ARC
8
DEFAULT_255_1_234
10
22.3853562
20
36.9334015
40
0.8642064
50
350.487711
51
0.2625388
0
ARC
8
DEFAULT_255_1_234
10
22.6146803
20
36.8939578
40
0.631518
50
336.0277639
51
350.5787438
0
ARC
8
DEFAULT_255_1_234
10
22.7491626
20
36.8331892
40
0.4839466
50
319.8877444
51
336.1328423
0
ARC
8
DEFAULT_255_1_234
10
22.8094267
20
36.784958
40
0.4067874
50
302.4806467
51
319.6143626
0
ARC
8
DEFAULT_255_1_234
10
22.7979278
20
36.8071202
40
0.4316636
50
275.8195682
51
302.1884709
0
ARC
8
DEFAULT_255_1_234
10
22.7812911
20
36.9213665
40
0.5470306
50
269.9171439
51
276.3397983
0
ARC
8
DEFAULT_255_1_234
10
22.7768121
20
36.8527681
40
0.4784458
50
252.5219675
51
270.4416499
0
ARC
8
DEFAULT_255_1_234
10
22.762438
20
36.7988592
40
0.422716
50
237.5352116
51
252.1857531
0
ARC
8
DEFAULT_255_1_234
10
22.7713575
20
36.8102363
40
0.4371052
50
209.063312
51
237.3492538
0
ARC
8
DEFAULT_255_1_234
10
22.8583423
20
36.8648685
40
0.5397041
50
205.1183774
51
209.6470015
0
ARC
8
DEFAULT_255_1_234
10
22.938046
20
36.898683
40
0.6262326
50
188.7215458
51
204.8240747
0
ARC
8
DEFAULT_255_1_234
10
23.1377988
20
36.9323067
40
0.8287794
50
180.3723947
51
188.9252049
0
ARC
8
DEFAULT_255_1_234
10
23.135074
20
37.0152402
40
0.8260467
50
169.5253763
51
180.2765336
0
ARC
8
DEFAULT_255_1_234
10
22.9448189
20
37.0502309
40
0.6326007
50
155.8315255
51
169.5089989
0
ARC
8
DEFAULT_255_1_234
10
22.816769
20
37.1096348
40
0.4914567
50
139.6258461
51
156.0379525
0
ARC
8
DEFAULT_255_1_234
10
22.7578023
20
37.1570799
40
0.4158054
50
122.6416387
51
139.3430715
0
ARC
8
DEFAULT_255_1_234
10
22.7678643
20
37.1387451
40
0.4366739
50
93.0223692
51
122.455762
0
ARC
8
DEFAULT_255_1_234
10
22.778664
20
37.0422709
40
0.5336137
50
89.975342
51
93.6341897
0
ARC
8
DEFAULT_255_1_234
10
22.782542
20
37.0821242
40
0.4937738
50
73.746375
51
90.4233405
0
ARC
8
DEFAULT_255_1_234
10
22.8000998
20
37.1501287
40
0.4235786
50
57.662753
51
73.4518111
0
ARC
8
DEFAULT_255_1_234
10
22.7993004
20
37.1522832
40
0.4221899
50
29.1440151
51
57.414694
0
ARC
8
DEFAULT_255_1_234
10
22.7058199
20
37.0939005
40
0.5322966
50
24.0982783
51
29.7323517
0
ARC
8
DEFAULT_255_1_234
10
22.6024474
20
37.0510399
40
0.6441673
50
8.6655297
51
23.8241346
0
ARC
8
DEFAULT_255_1_234
10
22.3790212
20
37.0145854
40
0.8705386
50
359.7806941
51
8.8218784
0
ARC
8
DEFAULT_255_1_234
10
22.264321
20
37.0171345
40
0.8318373
50
359.7055579
51
8.036044
0
ARC
8
DEFAULT_255_1_234
10
22.5643216
20
37.0608239
40
0.5286768
50
7.8928306
51
20.2962107
0
ARC
8
DEFAULT_255_1_234
10
22.7270787
20
37.1208395
40
0.3552073
50
20.3231126
51
36.4992797
0
ARC
8
DEFAULT_255_1_234
10
22.7956333
20
37.1736402
40
0.2686974
50
36.1437156
51
85.6627023
0
ARC
8
DEFAULT_255_1_234
10
22.7793879
20
37.0696221
40
0.373739
50
84.3852322
51
90.0757696
0
ARC
8
DEFAULT_255_1_234
10
22.7751551
20
37.1356839
40
0.3076997
50
89.3038458
51
109.9045693
0
ARC
8
DEFAULT_255_1_234
10
22.7658942
20
37.1739062
40
0.2686424
50
110.8228367
51
143.9179474
0
ARC
8
DEFAULT_255_1_234
10
22.8592603
20
37.1026236
40
0.3860887
50
143.5289163
51
163.2980757
0
ARC
8
DEFAULT_255_1_234
10
23.0500423
20
37.0426433
40
0.5860659
50
163.0418846
51
174.3140048
0
ARC
8
DEFAULT_255_1_234
10
23.2904535
20
37.0148854
40
0.8280531
50
174.0509143
51
179.4176892
0
ARC
8
DEFAULT_255_1_234
10
23.2400274
20
36.9331954
40
0.7775954
50
179.6930361
51
188.7906598
0
ARC
8
DEFAULT_255_1_234
10
22.9736753
20
36.8905935
40
0.5078633
50
188.6331305
51
202.5629587
0
ARC
8
DEFAULT_255_1_234
10
22.8482345
20
36.8401996
40
0.3726913
50
202.8081362
51
216.1193925
0
ARC
8
DEFAULT_255_1_234
10
22.7672915
20
36.7750676
40
0.2689577
50
215.0755913
51
264.6379694
0
ARC
8
DEFAULT_255_1_234
10
22.7799865
20
36.8581513
40
0.3528978
50
263.846392
51
270.0833719
0
ARC
8
DEFAULT_255_1_234
10
22.7841255
20
36.8323374
40
0.3271036
50
269.3649385
51
287.5152008
0
ARC
8
DEFAULT_255_1_234
10
22.8019413
20
36.7676238
40
0.2600406
50
288.0630309
51
323.8113348
0
ARC
8
DEFAULT_255_1_234
10
22.7148255
20
36.8326049
40
0.3687189
50
323.6547608
51
342.6590488
0
ARC
8
DEFAULT_255_1_234
10
22.511687
20
36.8986952
40
0.5823286
50
342.4091907
51
353.6451149
0
ARC
8
DEFAULT_255_1_234
10
22.2285381
20
36.933919
40
0.8676442
50
353.4029884
51
359.4847795
0
LINE
8
DEFAULT_255_1_234
10
23.658369
20
36.9261169
11
23.658369
21
37.0473962
0
LINE
8
DEFAULT_255_1_234
10
23.658369
20
37.0473962
11
23.7700102
21
37.0473962
0
LINE
8
DEFAULT_255_1_234
10
23.579658
20
37.2530087
11
23.4310708
21
37.2530087
0
LINE
8
DEFAULT_255_1_234
10
23.4206295
20
36.6988188
11
23.5700199
21
36.6988188
0
LINE
8
DEFAULT_255_1_234
10
23.7700102
20
36.9261169
11
23.658369
21
36.9261169
0
ARC
8
DEFAULT_255_1_234
10
23.7670968
20
37.3866713
40
0.3392876
50
270.4919872
51
281.8951556
0
ARC
8
DEFAULT_255_1_234
10
23.791223
20
37.2764702
40
0.2264817
50
281.6691735
51
301.2943132
0
ARC
8
DEFAULT_255_1_234
10
23.808244
20
37.2453304
40
0.1910381
50
301.7833094
51
311.7545298
0
ARC
8
DEFAULT_255_1_234
10
23.8174016
20
37.2351748
40
0.1773635
50
311.7323931
51
354.2802411
0
ARC
8
DEFAULT_255_1_234
10
23.7447641
20
37.2476722
40
0.2509385
50
353.0937916
51
0.1181479
0
ARC
8
DEFAULT_255_1_234
10
23.6986426
20
37.2524386
40
0.2970898
50
359.1805295
51
15.0453146
0
ARC
8
DEFAULT_255_1_234
10
23.8332263
20
37.2916992
40
0.1569564
50
13.9577229
51
77.6713066
0
ARC
8
DEFAULT_255_1_234
10
23.7945792
20
37.1531949
40
0.3006298
50
76.1116566
51
90.7026153
0
ARC
8
DEFAULT_255_1_234
10
23.788663
20
37.1805545
40
0.2732568
50
89.5324876
51
103.531937
0
ARC
8
DEFAULT_255_1_234
10
23.7686074
20
37.2604884
40
0.1908508
50
103.2931773
51
133.5619022
0
ARC
8
DEFAULT_255_1_234
10
23.7641563
20
37.2664375
40
0.1834746
50
133.8349307
51
173.5344437
0
ARC
8
DEFAULT_255_1_234
10
23.8364606
20
37.2536213
40
0.2568033
50
172.5096846
51
180.1366907
0
ARC
8
DEFAULT_255_1_234
10
23.74135
20
37.2570622
40
0.3103056
50
155.3484492
51
180.7484736
0
ARC
8
DEFAULT_255_1_234
10
23.7364589
20
37.2541846
40
0.3070957
50
131.5744599
51
154.4798489
0
ARC
8
DEFAULT_255_1_234
10
23.7677736
20
37.222531
40
0.3515643
50
96.9875458
51
131.9690667
0
ARC
8
DEFAULT_255_1_234
10
23.7897216
20
37.0979636
40
0.4779224
50
89.8596053
51
97.7825159
0
ARC
8
DEFAULT_255_1_234
10
23.7945279
20
37.0717616
40
0.5041361
50
78.3655447
51
90.4131539
0
ARC
8
DEFAULT_255_1_234
10
23.8303197
20
37.2376887
40
0.3344039
50
56.6229102
51
78.638727
0
ARC
8
DEFAULT_255_1_234
10
23.8518141
20
37.2752805
40
0.2912001
50
47.0253525
51
56.0854072
0
ARC
8
DEFAULT_255_1_234
10
23.8537921
20
37.2792223
40
0.2869704
50
10.9208013
51
46.7778124
0
ARC
8
DEFAULT_255_1_234
10
23.7173987
20
37.2476857
40
0.426899
50
359.6364486
51
11.6087304
0
ARC
8
DEFAULT_255_1_234
10
23.9008831
20
37.2461752
40
0.243409
50
332.3549906
51
359.7179418
0
ARC
8
DEFAULT_255_1_234
10
23.8358433
20
37.2770142
40
0.3153459
50
325.2333722
51
332.8745602
0
ARC
8
DEFAULT_255_1_234
10
23.8511056
20
37.2663828
40
0.2967456
50
292.9802137
51
325.2392345
0
ARC
8
DEFAULT_255_1_234
10
23.823643
20
37.3197863
40
0.3566604
50
292.5402179
51
293.6924929
0
ARC
8
DEFAULT_255_1_234
10
23.8629026
20
36.6743091
40
0.3307468
50
57.6435486
51
72.8625112
0
ARC
8
DEFAULT_255_1_234
10
23.8983526
20
36.7317549
40
0.2632492
50
36.7248896
51
57.4697979
0
ARC
8
DEFAULT_255_1_234
10
23.8972159
20
36.733022
40
0.2634081
50
8.0545065
51
36.356114
0
ARC
8
DEFAULT_255_1_234
10
23.8109344
20
36.7175174
40
0.3510261
50
359.8320645
51
8.5869982
0
ARC
8
DEFAULT_255_1_234
10
23.773412
20
36.7127101
40
0.3885653
50
343.9829931
51
0.5571613
0
ARC
8
DEFAULT_255_1_234
10
23.8620317
20
36.6884438
40
0.2966924
50
311.6359546
51
343.7651759
0
ARC
8
DEFAULT_255_1_234
10
23.8241886
20
36.7311102
40
0.3537231
50
279.7829875
51
311.6255694
0
ARC
8
DEFAULT_255_1_234
10
23.7940663
20
36.874828
40
0.5004971
50
269.7286406
51
280.3856417
0
ARC
8
DEFAULT_255_1_234
10
23.7878735
20
36.8706996
40
0.4963778
50
256.6828919
51
270.4412052
0
ARC
8
DEFAULT_255_1_234
10
23.7540031
20
36.7322394
40
0.3538406
50
229.4223008
51
256.8556159
0
ARC
8
DEFAULT_255_1_234
10
23.7125424
20
36.6855736
40
0.2914296
50
181.818294
51
229.6455059
0
ARC
8
DEFAULT_255_1_234
10
23.816538
20
36.6986496
40
0.3959084
50
179.9755256
51
183.2323064
0
ARC
8
DEFAULT_255_1_234
10
23.7993126
20
36.6966037
40
0.2293034
50
179.4465117
51
196.2869258
0
ARC
8
DEFAULT_255_1_234
10
23.7505534
20
36.6832651
40
0.1787621
50
196.5661473
51
227.705904
0
ARC
8
DEFAULT_255_1_234
10
23.7669629
20
36.7016155
40
0.2033784
50
227.7652068
51
257.8762805
0
ARC
8
DEFAULT_255_1_234
10
23.7894599
20
36.7959156
40
0.3003081
50
257.4584385
51
270.426602
0
ARC
8
DEFAULT_255_1_234
10
23.7940165
20
36.8248996
40
0.329292
50
269.5962073
51
280.8789248
0
ARC
8
DEFAULT_255_1_234
10
23.8169694
20
36.7102685
40
0.2123908
50
280.6346389
51
299.8595945
0
ARC
8
DEFAULT_255_1_234
10
23.8360601
20
36.6740212
40
0.171457
50
300.3576302
51
314.5517981
0
ARC
8
DEFAULT_255_1_234
10
23.8277661
20
36.6800919
40
0.1816095
50
315.0728369
51
345.0431014
0
ARC
8
DEFAULT_255_1_234
10
23.7354475
20
36.7069841
40
0.2777492
50
344.5986631
51
357.9269593
0
ARC
8
DEFAULT_255_1_234
10
23.6458802
20
36.7131276
40
0.3674917
50
357.4748886
51
0.0231117
0
ARC
8
DEFAULT_255_1_234
10
23.7481911
20
36.7155679
40
0.2651907
50
359.5047933
51
13.4239635
0
ARC
8
DEFAULT_255_1_234
10
23.8348554
20
36.7377478
40
0.1757509
50
12.9498199
51
48.7551375
0
ARC
8
DEFAULT_255_1_234
10
23.8166288
20
36.71284
40
0.2065134
50
49.5088623
51
72.1836453
0
ARC
8
DEFAULT_255_1_234
10
23.7808441
20
36.6066291
40
0.3185836
50
71.9010081
51
84.3554254
0
ARC
8
DEFAULT_255_1_234
10
23.7647073
20
36.4705326
40
0.4556151
50
84.0193428
51
89.333121
0
LINE
8
DEFAULT_255_1_234
10
21.5950154
20
44.3279
11
21.2713364
21
44.3279
0
LINE
8
DEFAULT_255_1_234
10
21.2713364
20
44.3279
11
21.2713364
21
45.4973211
0
LINE
8
DEFAULT_255_1_234
10
21.2713364
20
45.4973211
11
21.6014408
21
45.4973211
0
LINE
8
DEFAULT_255_1_234
10
22.1170784
20
44.9519661
11
22.1170784
21
44.8772709
0
LINE
8
DEFAULT_255_1_234
10
21.6054567
20
45.3704196
11
21.4255458
21
45.3704196
0
LINE
8
DEFAULT_255_1_234
10
21.4255458
20
45.3704196
11
21.4255458
21
44.4539983
0
LINE
8
DEFAULT_255_1_234
10
21.4255458
20
44.4539983
11
21.5877869
21
44.4539983
0
LINE
8
DEFAULT_255_1_234
10
21.9644754
20
44.8804836
11
21.9644754
21
44.9487534
0
ARC
8
DEFAULT_255_1_234
10
21.6053351
20
44.9107894
40
0.5865446
50
75.4101064
51
90.3804066
0
ARC
8
DEFAULT_255_1_234
10
21.6282864
20
45.0064492
40
0.4881916
50
60.145586
51
75.1888407
0
ARC
8
DEFAULT_255_1_234
10
21.644164
20
45.0341199
40
0.4562893
50
26.5253612
51
60.1450928
0
ARC
8
DEFAULT_255_1_234
10
21.5321389
20
44.9747158
40
0.5830602
50
7.4030428
51
26.8320788
0
ARC
8
DEFAULT_255_1_234
10
21.3727146
20
44.9498804
40
0.7443669
50
0.1605367
51
7.7176192
0
ARC
8
DEFAULT_255_1_234
10
21.389105
20
44.8734434
40
0.7279835
50
348.7289388
51
0.3012466
0
ARC
8
DEFAULT_255_1_234
10
21.5547481
20
44.8405386
40
0.559104
50
333.0706509
51
348.7181832
0
ARC
8
DEFAULT_255_1_234
10
21.6514238
20
44.7880319
40
0.4491417
50
299.2531685
51
333.4571258
0
ARC
8
DEFAULT_255_1_234
10
21.6153378
20
44.8565828
40
0.5265881
50
278.107187
51
299.0339503
0
ARC
8
DEFAULT_255_1_234
10
21.5897457
20
45.0073216
40
0.679442
50
270.4443897
51
278.4511052
0
ARC
8
DEFAULT_255_1_234
10
21.5918287
20
44.9144213
40
0.4604407
50
269.4970433
51
284.0205042
0
ARC
8
DEFAULT_255_1_234
10
21.6273588
20
44.7778978
40
0.3193797
50
283.7700273
51
318.1555492
0
ARC
8
DEFAULT_255_1_234
10
21.5936346
20
44.8031367
40
0.3613588
50
318.7415601
51
343.6873628
0
ARC
8
DEFAULT_255_1_234
10
21.4132369
20
44.8594832
40
0.5503313
50
343.3325091
51
355.8548958
0
ARC
8
DEFAULT_255_1_234
10
21.2034054
20
44.8794319
40
0.7610708
50
355.4988528
51
0.0791727
0
ARC
8
DEFAULT_255_1_234
10
21.2816676
20
44.952978
40
0.6828208
50
359.6455037
51
9.8607896
0
ARC
8
DEFAULT_255_1_234
10
21.5177374
20
44.9956099
40
0.4429406
50
9.6571907
51
26.1932807
0
ARC
8
DEFAULT_255_1_234
10
21.6105363
20
45.0387118
40
0.3406537
50
26.5777228
51
40.1532208
0
ARC
8
DEFAULT_255_1_234
10
21.6361089
20
45.0586619
40
0.308246
50
40.3840491
51
80.1431104
0
ARC
8
DEFAULT_255_1_234
10
21.6034207
20
44.9137333
40
0.4566909
50
79.2152159
51
89.7445637
0
LINE
8
DEFAULT_255_1_234
10
23.2495535
20
44.9487534
11
23.2495535
21
44.8748614
0
LINE
8
DEFAULT_255_1_234
10
22.309037
20
44.8644201
11
22.309037
21
44.9487534
0
LINE
8
DEFAULT_255_1_234
10
23.0961473
20
44.8636169
11
23.0961473
21
44.9503597
0
LINE
8
DEFAULT_255_1_234
10
22.4624432
20
44.960801
11
22.4624432
21
44.8748614
0
ARC
8
DEFAULT_255_1_234
10
22.3853562
20
44.8709015
40
0.8642064
50
350.487711
51
0.2625388
0
ARC
8
DEFAULT_255_1_234
10
22.6146803
20
44.8314578
40
0.631518
50
336.0277639
51
350.5787438
0
ARC
8
DEFAULT_255_1_234
10
22.7491626
20
44.7706892
40
0.4839466
50
319.8877444
51
336.1328423
0
ARC
8
DEFAULT_255_1_234
10
22.8094267
20
44.722458
40
0.4067874
50
302.4806467
51
319.6143626
0
ARC
8
DEFAULT_255_1_234
10
22.7979278
20
44.7446202
40
0.4316636
50
275.8195682
51
302.1884709
0
ARC
8
DEFAULT_255_1_234
10
22.7812911
20
44.8588665
40
0.5470306
50
269.9171439
51
276.3397983
0
ARC
8
DEFAULT_255_1_234
10
22.7768121
20
44.7902681
40
0.4784458
50
252.5219675
51
270.4416499
0
ARC
8
DEFAULT_255_1_234
10
22.762438
20
44.7363592
40
0.422716
50
237.5352116
51
252.1857531
0
ARC
8
DEFAULT_255_1_234
10
22.7713575
20
44.7477363
40
0.4371052
50
209.063312
51
237.3492538
0
ARC
8
DEFAULT_255_1_234
10
22.8583423
20
44.8023685
40
0.5397041
50
205.1183774
51
209.6470015
0
ARC
8
DEFAULT_255_1_234
10
22.938046
20
44.836183
40
0.6262326
50
188.7215458
51
204.8240747
0
ARC
8
DEFAULT_255_1_234
10
23.1377988
20
44.8698067
40
0.8287794
50
180.3723947
51
188.9252049
0
ARC
8
DEFAULT_255_1_234
10
23.135074
20
44.9527402
40
0.8260467
50
169.5253763
51
180.2765336
0
ARC
8
DEFAULT_255_1_234
10
22.9448189
20
44.9877309
40
0.6326007
50
155.8315255
51
169.5089989
0
ARC
8
DEFAULT_255_1_234
10
22.816769
20
45.0471348
40
0.4914567
50
139.6258461
51
156.0379525
0
ARC
8
DEFAULT_255_1_234
10
22.7578023
20
45.0945799
40
0.4158054
50
122.6416387
51
139.3430715
0
ARC
8
DEFAULT_255_1_234
10
22.7678643
20
45.0762451
40
0.4366739
50
93.0223692
51
122.455762
0
ARC
8
DEFAULT_255_1_234
10
22.778664
20
44.9797709
40
0.5336137
50
89.975342
51
93.6341897
0
ARC
8
DEFAULT_255_1_234
10
22.782542
20
45.0196242
40
0.4937738
50
73.746375
51
90.4233405
0
ARC
8
DEFAULT_255_1_234
10
22.8000998
20
45.0876287
40
0.4235786
50
57.662753
51
73.4518111
0
ARC
8
DEFAULT_255_1_234
10
22.7993004
20
45.0897832
40
0.4221899
50
29.1440151
51
57.414694
0
ARC
8
DEFAULT_255_1_234
10
22.7058199
20
45.0314005
40
0.5322966
50
24.0982783
51
29.7323517
0
ARC
8
DEFAULT_255_1_234
10
22.6024474
20
44.9885399
40
0.6441673
50
8.6655297
51
23.8241346
0
ARC
8
DEFAULT_255_1_234
10
22.3790212
20
44.9520854
40
0.8705386
50
359.7806941
51
8.8218784
0
ARC
8
DEFAULT_255_1_234
10
22.264321
20
44.9546345
40
0.8318373
50
359.7055579
51
8.036044
0
ARC
8
DEFAULT_255_1_234
10
22.5643216
20
44.9983239
40
0.5286768
50
7.8928306
51
20.2962107
0
ARC
8
DEFAULT_255_1_234
10
22.7270787
20
45.0583395
40
0.3552073
50
20.3231126
51
36.4992797
0
ARC
8
DEFAULT_255_1_234
10
22.7956333
20
45.1111402
40
0.2686974
50
36.1437156
51
85.6627023
0
ARC
8
DEFAULT_255_1_234
10
22.7793879
20
45.0071221
40
0.373739
50
84.3852322
51
90.0757696
0
ARC
8
DEFAULT_255_1_234
10
22.7751551
20
45.0731839
40
0.3076997
50
89.3038458
51
109.9045693
0
ARC
8
DEFAULT_255_1_234
10
22.7658942
20
45.1114062
40
0.2686424
50
110.8228367
51
143.9179474
0
ARC
8
DEFAULT_255_1_234
10
22.8592603
20
45.0401236
40
0.3860887
50
143.5289163
51
163.2980757
0
ARC
8
DEFAULT_255_1_234
10
23.0500423
20
44.9801433
40
0.5860659
50
163.0418846
51
174.3140048
0
ARC
8
DEFAULT_255_1_234
10
23.2904535
20
44.9523854
40
0.8280531
50
174.0509143
51
179.4176892
0
ARC
8
DEFAULT_255_1_234
10
23.2400274
20
44.8706954
40
0.7775954
50
179.6930361
51
188.7906598
0
ARC
8
DEFAULT_255_1_234
10
22.9736753
20
44.8280935
40
0.5078633
50
188.6331305
51
202.5629587
0
ARC
8
DEFAULT_255_1_234
10
22.8482345
20
44.7776996
40
0.3726913
50
202.8081362
51
216.1193925
0
ARC
8
DEFAULT_255_1_234
10
22.7672915
20
44.7125676
40
0.2689577
50
215.0755913
51
264.6379694
0
ARC
8
DEFAULT_255_1_234
10
22.7799865
20
44.7956513
40
0.3528978
50
263.846392
51
270.0833719
0
ARC
8
DEFAULT_255_1_234
10
22.7841255
20
44.7698374
40
0.3271036
50
269.3649385
51
287.5152008
0
ARC
8
DEFAULT_255_1_234
10
22.8019413
20
44.7051238
40
0.2600406
50
288.0630309
51
323.8113348
0
ARC
8
DEFAULT_255_1_234
10
22.7148255
20
44.7701049
40
0.3687189
50
323.6547608
51
342.6590488
0
ARC
8
DEFAULT_255_1_234
10
22.511687
20
44.8361952
40
0.5823286
50
342.4091907
51
353.6451149
0
ARC
8
DEFAULT_255_1_234
10
22.2285381
20
44.871419
40
0.8676442
50
353.4029884
51
359.4847795
0
LINE
8
DEFAULT_255_1_234
10
24.2085431
20
44.4491792
11
24.2085431
21
44.3279
0
LINE
8
DEFAULT_255_1_234
10
24.2085431
20
44.3279
11
23.4423152
21
44.3279
0
LINE
8
DEFAULT_255_1_234
10
23.4423152
20
44.3279
11
23.4423152
21
44.4347221
0
LINE
8
DEFAULT_255_1_234
10
23.4423152
20
44.4347221
11
23.8471148
21
44.8844995
0
LINE
8
DEFAULT_255_1_234
10
23.5684135
20
45.1527595
11
23.4198264
21
45.1527595
0
LINE
8
DEFAULT_255_1_234
10
23.9346608
20
44.7889218
11
23.621423
21
44.4491792
0
LINE
8
DEFAULT_255_1_234
10
23.621423
20
44.4491792
11
24.2085431
21
44.4491792
0
ARC
8
DEFAULT_255_1_234
10
22.4980982
20
46.0774527
40
1.8008286
50
318.5132453
51
320.7828378
0
ARC
8
DEFAULT_255_1_234
10
23.0267956
20
45.6471426
40
1.1191493
50
320.7372736
51
323.9737074
0
ARC
8
DEFAULT_255_1_234
10
23.4187813
20
45.3631361
40
0.6350923
50
323.8961724
51
328.6421089
0
ARC
8
DEFAULT_255_1_234
10
23.6234408
20
45.2369031
40
0.3946393
50
328.8299013
51
331.789948
0
ARC
8
DEFAULT_255_1_234
10
23.7231586
20
45.1854509
40
0.2824501
50
331.4255242
51
352.9364833
0
ARC
8
DEFAULT_255_1_234
10
23.7368087
20
45.1823976
40
0.2685315
50
353.2248685
51
0.0169286
0
ARC
8
DEFAULT_255_1_234
10
23.7577964
20
45.184695
40
0.2475536
50
359.4866256
51
15.9339782
0
ARC
8
DEFAULT_255_1_234
10
23.8084949
20
45.1983286
40
0.1950618
50
16.1714718
51
43.5284424
0
ARC
8
DEFAULT_255_1_234
10
23.8162258
20
45.2060573
40
0.184134
50
43.4415429
51
83.1661404
0
ARC
8
DEFAULT_255_1_234
10
23.8028176
20
45.1323771
40
0.258926
50
82.160215
51
90.1505798
0
ARC
8
DEFAULT_255_1_234
10
23.7996603
20
45.0786865
40
0.3126255
50
89.5460705
51
102.5418777
0
ARC
8
DEFAULT_255_1_234
10
23.7753689
20
45.1817665
40
0.2067346
50
102.1739365
51
129.2061916
0
ARC
8
DEFAULT_255_1_234
10
23.7674761
20
45.1942094
40
0.1921118
50
129.7279328
51
135.7542026
0
ARC
8
DEFAULT_255_1_234
10
23.7796289
20
45.1845045
40
0.2075944
50
136.175737
51
166.3674722
0
ARC
8
DEFAULT_255_1_234
10
23.8803208
20
45.1575182
40
0.3118201
50
165.9092917
51
178.8683903
0
ARC
8
DEFAULT_255_1_234
10
23.9668069
20
45.1528179
40
0.3983935
50
178.438168
51
180.0083905
0
ARC
8
DEFAULT_255_1_234
10
23.8266671
20
45.1567231
40
0.4068601
50
163.2878735
51
180.5581814
0
ARC
8
DEFAULT_255_1_234
10
23.7464933
20
45.178784
40
0.3237344
50
133.454115
51
162.9470031
0
ARC
8
DEFAULT_255_1_234
10
23.7643474
20
45.1598
40
0.349795
50
100.7869394
51
133.4384016
0
ARC
8
DEFAULT_255_1_234
10
23.7991246
20
45.0049319
40
0.5084616
50
89.6605301
51
101.3704185
0
ARC
8
DEFAULT_255_1_234
10
23.8057585
20
45.0110496
40
0.502348
50
78.2171172
51
90.4130393
0
ARC
8
DEFAULT_255_1_234
10
23.8412663
20
45.1734637
40
0.3361092
50
55.9268222
51
78.4888551
0
ARC
8
DEFAULT_255_1_234
10
23.8609103
20
45.2073324
40
0.2970617
50
47.9292255
51
55.4054003
0
ARC
8
DEFAULT_255_1_234
10
23.8710664
20
45.2176502
40
0.2825983
50
4.3347696
51
48.0560701
0
ARC
8
DEFAULT_255_1_234
10
23.7615057
20
45.2006601
40
0.393225
50
359.925209
51
5.5967654
0
ARC
8
DEFAULT_255_1_234
10
23.8043949
20
45.2062816
40
0.3503892
50
337.8914096
51
358.9967724
0
ARC
8
DEFAULT_255_1_234
10
23.5330361
20
45.3109706
40
0.6412172
50
326.9135351
51
338.3505194
0
ARC
8
DEFAULT_255_1_234
10
23.1344665
20
45.5664284
40
1.1146189
50
319.6472867
51
327.095818
0
ARC
8
DEFAULT_255_1_234
10
22.7511668
20
45.8826
40
1.6114559
50
317.2586784
51
319.9046139
0
LINE
8
DEFAULT_255_1_234
10
21.6037154
20
52.2654
11
21.2800364
21
52.2654
0
LINE
8
DEFAULT_255_1_234
10
21.2800364
20
52.2654
11
21.2800364
21
53.4348211
0
LINE
8
DEFAULT_255_1_234
10
21.2800364
20
53.4348211
11
21.6101408
21
53.4348211
0
LINE
8
DEFAULT_255_1_234
10
22.1257784
20
52.8894661
11
22.1257784
21
52.8147709
0
LINE
8
DEFAULT_255_1_234
10
21.6141567
20
53.3079196
11
21.4342458
21
53.3079196
0
LINE
8
DEFAULT_255_1_234
10
21.4342458
20
53.3079196
11
21.4342458
21
52.3914983
0
LINE
8
DEFAULT_255_1_234
10
21.4342458
20
52.3914983
11
21.5964869
21
52.3914983
0
LINE
8
DEFAULT_255_1_234
10
21.9731754
20
52.8179836
11
21.9731754
21
52.8862534
0
ARC
8
DEFAULT_255_1_234
10
21.6140351
20
52.8482894
40
0.5865446
50
75.4101064
51
90.3804066
0
ARC
8
DEFAULT_255_1_234
10
21.6369864
20
52.9439492
40
0.4881916
50
60.145586
51
75.1888407
0
ARC
8
DEFAULT_255_1_234
10
21.652864
20
52.9716199
40
0.4562893
50
26.5253612
51
60.1450928
0
ARC
8
DEFAULT_255_1_234
10
21.5408389
20
52.9122158
40
0.5830602
50
7.4030428
51
26.8320788
0
ARC
8
DEFAULT_255_1_234
10
21.3814146
20
52.8873804
40
0.7443669
50
0.1605367
51
7.7176192
0
ARC
8
DEFAULT_255_1_234
10
21.397805
20
52.8109434
40
0.7279835
50
348.7289388
51
0.3012466
0
ARC
8
DEFAULT_255_1_234
10
21.5634481
20
52.7780386
40
0.559104
50
333.0706509
51
348.7181832
0
ARC
8
DEFAULT_255_1_234
10
21.6601238
20
52.7255319
40
0.4491417
50
299.2531685
51
333.4571258
0
ARC
8
DEFAULT_255_1_234
10
21.6240378
20
52.7940828
40
0.5265881
50
278.107187
51
299.0339503
0
ARC
8
DEFAULT_255_1_234
10
21.5984457
20
52.9448216
40
0.679442
50
270.4443897
51
278.4511052
0
ARC
8
DEFAULT_255_1_234
10
21.6005287
20
52.8519213
40
0.4604407
50
269.4970433
51
284.0205042
0
ARC
8
DEFAULT_255_1_234
10
21.6360588
20
52.7153978
40
0.3193797
50
283.7700273
51
318.1555492
0
ARC
8
DEFAULT_255_1_234
10
21.6023346
20
52.7406367
40
0.3613588
50
318.7415601
51
343.6873628
0
ARC
8
DEFAULT_255_1_234
10
21.4219369
20
52.7969832
40
0.5503313
50
343.3325091
51
355.8548958
0
ARC
8
DEFAULT_255_1_234
10
21.2121054
20
52.8169319
40
0.7610708
50
355.4988528
51
0.0791727
0
ARC
8
DEFAULT_255_1_234
10
21.2903676
20
52.890478
40
0.6828208
50
359.6455037
51
9.8607896
0
ARC
8
DEFAULT_255_1_234
10
21.5264374
20
52.9331099
40
0.4429406
50
9.6571907
51
26.1932807
0
ARC
8
DEFAULT_255_1_234
10
21.6192363
20
52.9762118
40
0.3406537
50
26.5777228
51
40.1532208
0
ARC
8
DEFAULT_255_1_234
10
21.6448089
20
52.9961619
40
0.308246
50
40.3840491
51
80.1431104
0
ARC
8
DEFAULT_255_1_234
10
21.6121207
20
52.8512333
40
0.4566909
50
79.2152159
51
89.7445637
0
LINE
8
DEFAULT_255_1_234
10
23.2582535
20
52.8862534
11
23.2582535
21
52.8123614
0
LINE
8
DEFAULT_255_1_234
10
22.317737
20
52.8019201
11
22.317737
21
52.8862534
0
LINE
8
DEFAULT_255_1_234
10
23.1048473
20
52.8011169
11
23.1048473
21
52.8878597
0
LINE
8
DEFAULT_255_1_234
10
22.4711432
20
52.898301
11
22.4711432
21
52.8123614
0
ARC
8
DEFAULT_255_1_234
10
22.3940562
20
52.8084015
40
0.8642064
50
350.487711
51
0.2625388
0
ARC
8
DEFAULT_255_1_234
10
22.6233803
20
52.7689578
40
0.631518
50
336.0277639
51
350.5787438
0
ARC
8
DEFAULT_255_1_234
10
22.7578626
20
52.7081892
40
0.4839466
50
319.8877444
51
336.1328423
0
ARC
8
DEFAULT_255_1_234
10
22.8181267
20
52.659958
40
0.4067874
50
302.4806467
51
319.6143626
0
ARC
8
DEFAULT_255_1_234
10
22.8066278
20
52.6821202
40
0.4316636
50
275.8195682
51
302.1884709
0
ARC
8
DEFAULT_255_1_234
10
22.7899911
20
52.7963665
40
0.5470306
50
269.9171439
51
276.3397983
0
ARC
8
DEFAULT_255_1_234
10
22.7855121
20
52.7277681
40
0.4784458
50
252.5219675
51
270.4416499
0
ARC
8
DEFAULT_255_1_234
10
22.771138
20
52.6738592
40
0.422716
50
237.5352116
51
252.1857531
0
ARC
8
DEFAULT_255_1_234
10
22.7800575
20
52.6852363
40
0.4371052
50
209.063312
51
237.3492538
0
ARC
8
DEFAULT_255_1_234
10
22.8670423
20
52.7398685
40
0.5397041
50
205.1183774
51
209.6470015
0
ARC
8
DEFAULT_255_1_234
10
22.946746
20
52.773683
40
0.6262326
50
188.7215458
51
204.8240747
0
ARC
8
DEFAULT_255_1_234
10
23.1464988
20
52.8073067
40
0.8287794
50
180.3723947
51
188.9252049
0
ARC
8
DEFAULT_255_1_234
10
23.143774
20
52.8902402
40
0.8260467
50
169.5253763
51
180.2765336
0
ARC
8
DEFAULT_255_1_234
10
22.9535189
20
52.9252309
40
0.6326007
50
155.8315255
51
169.5089989
0
ARC
8
DEFAULT_255_1_234
10
22.825469
20
52.9846348
40
0.4914567
50
139.6258461
51
156.0379525
0
ARC
8
DEFAULT_255_1_234
10
22.7665023
20
53.0320799
40
0.4158054
50
122.6416387
51
139.3430715
0
ARC
8
DEFAULT_255_1_234
10
22.7765643
20
53.0137451
40
0.4366739
50
93.0223692
51
122.455762
0
ARC
8
DEFAULT_255_1_234
10
22.787364
20
52.9172709
40
0.5336137
50
89.975342
51
93.6341897
0
ARC
8
DEFAULT_255_1_234
10
22.791242
20
52.9571242
40
0.4937738
50
73.746375
51
90.4233405
0
ARC
8
DEFAULT_255_1_234
10
22.8087998
20
53.0251287
40
0.4235786
50
57.662753
51
73.4518111
0
ARC
8
DEFAULT_255_1_234
10
22.8080004
20
53.0272832
40
0.4221899
50
29.1440151
51
57.414694
0
ARC
8
DEFAULT_255_1_234
10
22.7145199
20
52.9689005
40
0.5322966
50
24.0982783
51
29.7323517
0
ARC
8
DEFAULT_255_1_234
10
22.6111474
20
52.9260399
40
0.6441673
50
8.6655297
51
23.8241346
0
ARC
8
DEFAULT_255_1_234
10
22.3877212
20
52.8895854
40
0.8705386
50
359.7806941
51
8.8218784
0
ARC
8
DEFAULT_255_1_234
10
22.273021
20
52.8921345
40
0.8318373
50
359.7055579
51
8.036044
0
ARC
8
DEFAULT_255_1_234
10
22.5730216
20
52.9358239
40
0.5286768
50
7.8928306
51
20.2962107
0
ARC
8
DEFAULT_255_1_234
10
22.7357787
20
52.9958395
40
0.3552073
50
20.3231126
51
36.4992797
0
ARC
8
DEFAULT_255_1_234
10
22.8043333
20
53.0486402
40
0.2686974
50
36.1437156
51
85.6627023
0
ARC
8
DEFAULT_255_1_234
10
22.7880879
20
52.9446221
40
0.373739
50
84.3852322
51
90.0757696
0
ARC
8
DEFAULT_255_1_234
10
22.7838551
20
53.0106839
40
0.3076997
50
89.3038458
51
109.9045693
0
ARC
8
DEFAULT_255_1_234
10
22.7745942
20
53.0489062
40
0.2686424
50
110.8228367
51
143.9179474
0
ARC
8
DEFAULT_255_1_234
10
22.8679603
20
52.9776236
40
0.3860887
50
143.5289163
51
163.2980757
0
ARC
8
DEFAULT_255_1_234
10
23.0587423
20
52.9176433
40
0.5860659
50
163.0418846
51
174.3140048
0
ARC
8
DEFAULT_255_1_234
10
23.2991535
20
52.8898854
40
0.8280531
50
174.0509143
51
179.4176892
0
ARC
8
DEFAULT_255_1_234
10
23.2487274
20
52.8081954
40
0.7775954
50
179.6930361
51
188.7906598
0
ARC
8
DEFAULT_255_1_234
10
22.9823753
20
52.7655935
40
0.5078633
50
188.6331305
51
202.5629587
0
ARC
8
DEFAULT_255_1_234
10
22.8569345
20
52.7151996
40
0.3726913
50
202.8081362
51
216.1193925
0
ARC
8
DEFAULT_255_1_234
10
22.7759915
20
52.6500676
40
0.2689577
50
215.0755913
51
264.6379694
0
ARC
8
DEFAULT_255_1_234
10
22.7886865
20
52.7331513
40
0.3528978
50
263.846392
51
270.0833719
0
ARC
8
DEFAULT_255_1_234
10
22.7928255
20
52.7073374
40
0.3271036
50
269.3649385
51
287.5152008
0
ARC
8
DEFAULT_255_1_234
10
22.8106413
20
52.6426238
40
0.2600406
50
288.0630309
51
323.8113348
0
ARC
8
DEFAULT_255_1_234
10
22.7235255
20
52.7076049
40
0.3687189
50
323.6547608
51
342.6590488
0
ARC
8
DEFAULT_255_1_234
10
22.520387
20
52.7736952
40
0.5823286
50
342.4091907
51
353.6451149
0
ARC
8
DEFAULT_255_1_234
10
22.2372381
20
52.808919
40
0.8676442
50
353.4029884
51
359.4847795
0
LINE
8
DEFAULT_255_1_234
10
23.9393449
20
53.4404433
11
23.9393449
21
52.2654
0
LINE
8
DEFAULT_255_1_234
10
23.9393449
20
52.2654
11
23.7899546
21
52.2654
0
LINE
8
DEFAULT_255_1_234
10
23.7899546
20
52.2654
11
23.7899546
21
53.2557133
0
LINE
8
DEFAULT_255_1_234
10
23.7899546
20
53.2557133
11
23.4903708
21
53.1456785
0
LINE
8
DEFAULT_255_1_234
10
23.4903708
20
53.1456785
11
23.4903708
21
53.2806117
0
LINE
8
DEFAULT_255_1_234
10
23.4903708
20
53.2806117
11
23.9160529
21
53.4404433
0
LINE
8
DEFAULT_255_1_234
10
23.9160529
20
53.4404433
11
23.9393449
21
53.4404433
0
LINE
8
DEFAULT_255_1_234
10
21.5950154
20
60.2029
11
21.2713364
21
60.2029
0
LINE
8
DEFAULT_255_1_234
10
21.2713364
20
60.2029
11
21.2713364
21
61.3723211
0
LINE
8
DEFAULT_255_1_234
10
21.2713364
20
61.3723211
11
21.6014408
21
61.3723211
0
LINE
8
DEFAULT_255_1_234
10
22.1170784
20
60.8269661
11
22.1170784
21
60.7522709
0
LINE
8
DEFAULT_255_1_234
10
21.6054567
20
61.2454196
11
21.4255458
21
61.2454196
0
LINE
8
DEFAULT_255_1_234
10
21.4255458
20
61.2454196
11
21.4255458
21
60.3289983
0
LINE
8
DEFAULT_255_1_234
10
21.4255458
20
60.3289983
11
21.5877869
21
60.3289983
0
LINE
8
DEFAULT_255_1_234
10
21.9644754
20
60.7554836
11
21.9644754
21
60.8237534
0
ARC
8
DEFAULT_255_1_234
10
21.6053351
20
60.7857894
40
0.5865446
50
75.4101064
51
90.3804066
0
ARC
8
DEFAULT_255_1_234
10
21.6282864
20
60.8814492
40
0.4881916
50
60.145586
51
75.1888407
0
ARC
8
DEFAULT_255_1_234
10
21.644164
20
60.9091199
40
0.4562893
50
26.5253612
51
60.1450928
0
ARC
8
DEFAULT_255_1_234
10
21.5321389
20
60.8497158
40
0.5830602
50
7.4030428
51
26.8320788
0
ARC
8
DEFAULT_255_1_234
10
21.3727146
20
60.8248804
40
0.7443669
50
0.1605367
51
7.7176192
0
ARC
8
DEFAULT_255_1_234
10
21.389105
20
60.7484434
40
0.7279835
50
348.7289388
51
0.3012466
0
ARC
8
DEFAULT_255_1_234
10
21.5547481
20
60.7155386
40
0.559104
50
333.0706509
51
348.7181832
0
ARC
8
DEFAULT_255_1_234
10
21.6514238
20
60.6630319
40
0.4491417
50
299.2531685
51
333.4571258
0
ARC
8
DEFAULT_255_1_234
10
21.6153378
20
60.7315828
40
0.5265881
50
278.107187
51
299.0339503
0
ARC
8
DEFAULT_255_1_234
10
21.5897457
20
60.8823216
40
0.679442
50
270.4443897
51
278.4511052
0
ARC
8
DEFAULT_255_1_234
10
21.5918287
20
60.7894213
40
0.4604407
50
269.4970433
51
284.0205042
0
ARC
8
DEFAULT_255_1_234
10
21.6273588
20
60.6528978
40
0.3193797
50
283.7700273
51
318.1555492
0
ARC
8
DEFAULT_255_1_234
10
21.5936346
20
60.6781367
40
0.3613588
50
318.7415601
51
343.6873628
0
ARC
8
DEFAULT_255_1_234
10
21.4132369
20
60.7344832
40
0.5503313
50
343.3325091
51
355.8548958
0
ARC
8
DEFAULT_255_1_234
10
21.2034054
20
60.7544319
40
0.7610708
50
355.4988528
51
0.0791727
0
ARC
8
DEFAULT_255_1_234
10
21.2816676
20
60.827978
40
0.6828208
50
359.6455037
51
9.8607896
0
ARC
8
DEFAULT_255_1_234
10
21.5177374
20
60.8706099
40
0.4429406
50
9.6571907
51
26.1932807
0
ARC
8
DEFAULT_255_1_234
10
21.6105363
20
60.9137118
40
0.3406537
50
26.5777228
51
40.1532208
0
ARC
8
DEFAULT_255_1_234
10
21.6361089
20
60.9336619
40
0.308246
50
40.3840491
51
80.1431104
0
ARC
8
DEFAULT_255_1_234
10
21.6034207
20
60.7887333
40
0.4566909
50
79.2152159
51
89.7445637
0
LINE
8
DEFAULT_255_1_234
10
23.2495535
20
60.8237534
11
23.2495535
21
60.7498614
0
LINE
8
DEFAULT_255_1_234
10
22.309037
20
60.7394201
11
22.309037
21
60.8237534
0
LINE
8
DEFAULT_255_1_234
10
23.0961473
20
60.7386169
11
23.0961473
21
60.8253597
0
LINE
8
DEFAULT_255_1_234
10
22.4624432
20
60.835801
11
22.4624432
21
60.7498614
0
ARC
8
DEFAULT_255_1_234
10
22.3853562
20
60.7459015
40
0.8642064
50
350.487711
51
0.2625388
0
ARC
8
DEFAULT_255_1_234
10
22.6146803
20
60.7064578
40
0.631518
50
336.0277639
51
350.5787438
0
ARC
8
DEFAULT_255_1_234
10
22.7491626
20
60.6456892
40
0.4839466
50
319.8877444
51
336.1328423
0
ARC
8
DEFAULT_255_1_234
10
22.8094267
20
60.597458
40
0.4067874
50
302.4806467
51
319.6143626
0
ARC
8
DEFAULT_255_1_234
10
22.7979278
20
60.6196202
40
0.4316636
50
275.8195682
51
302.1884709
0
ARC
8
DEFAULT_255_1_234
10
22.7812911
20
60.7338665
40
0.5470306
50
269.9171439
51
276.3397983
0
ARC
8
DEFAULT_255_1_234
10
22.7768121
20
60.6652681
40
0.4784458
50
252.5219675
51
270.4416499
0
ARC
8
DEFAULT_255_1_234
10
22.762438
20
60.6113592
40
0.422716
50
237.5352116
51
252.1857531
0
ARC
8
DEFAULT_255_1_234
10
22.7713575
20
60.6227363
40
0.4371052
50
209.063312
51
237.3492538
0
ARC
8
DEFAULT_255_1_234
10
22.8583423
20
60.6773685
40
0.5397041
50
205.1183774
51
209.6470015
0
ARC
8
DEFAULT_255_1_234
10
22.938046
20
60.711183
40
0.6262326
50
188.7215458
51
204.8240747
0
ARC
8
DEFAULT_255_1_234
10
23.1377988
20
60.7448067
40
0.8287794
50
180.3723947
51
188.9252049
0
ARC
8
DEFAULT_255_1_234
10
23.135074
20
60.8277402
40
0.8260467
50
169.5253763
51
180.2765336
0
ARC
8
DEFAULT_255_1_234
10
22.9448189
20
60.8627309
40
0.6326007
50
155.8315255
51
169.5089989
0
ARC
8
DEFAULT_255_1_234
10
22.816769
20
60.9221348
40
0.4914567
50
139.6258461
51
156.0379525
0
ARC
8
DEFAULT_255_1_234
10
22.7578023
20
60.9695799
40
0.4158054
50
122.6416387
51
139.3430715
0
ARC
8
DEFAULT_255_1_234
10
22.7678643
20
60.9512451
40
0.4366739
50
93.0223692
51
122.455762
0
ARC
8
DEFAULT_255_1_234
10
22.778664
20
60.8547709
40
0.5336137
50
89.975342
51
93.6341897
0
ARC
8
DEFAULT_255_1_234
10
22.782542
20
60.8946242
40
0.4937738
50
73.746375
51
90.4233405
0
ARC
8
DEFAULT_255_1_234
10
22.8000998
20
60.9626287
40
0.4235786
50
57.662753
51
73.4518111
0
ARC
8
DEFAULT_255_1_234
10
22.7993004
20
60.9647832
40
0.4221899
50
29.1440151
51
57.414694
0
ARC
8
DEFAULT_255_1_234
10
22.7058199
20
60.9064005
40
0.5322966
50
24.0982783
51
29.7323517
0
ARC
8
DEFAULT_255_1_234
10
22.6024474
20
60.8635399
40
0.6441673
50
8.6655297
51
23.8241346
0
ARC
8
DEFAULT_255_1_234
10
22.3790212
20
60.8270854
40
0.8705386
50
359.7806941
51
8.8218784
0
ARC
8
DEFAULT_255_1_234
10
22.264321
20
60.8296345
40
0.8318373
50
359.7055579
51
8.036044
0
ARC
8
DEFAULT_255_1_234
10
22.5643216
20
60.8733239
40
0.5286768
50
7.8928306
51
20.2962107
0
ARC
8
DEFAULT_255_1_234
10
22.7270787
20
60.9333395
40
0.3552073
50
20.3231126
51
36.4992797
0
ARC
8
DEFAULT_255_1_234
10
22.7956333
20
60.9861402
40
0.2686974
50
36.1437156
51
85.6627023
0
ARC
8
DEFAULT_255_1_234
10
22.7793879
20
60.8821221
40
0.373739
50
84.3852322
51
90.0757696
0
ARC
8
DEFAULT_255_1_234
10
22.7751551
20
60.9481839
40
0.3076997
50
89.3038458
51
109.9045693
0
ARC
8
DEFAULT_255_1_234
10
22.7658942
20
60.9864062
40
0.2686424
50
110.8228367
51
143.9179474
0
ARC
8
DEFAULT_255_1_234
10
22.8592603
20
60.9151236
40
0.3860887
50
143.5289163
51
163.2980757
0
ARC
8
DEFAULT_255_1_234
10
23.0500423
20
60.8551433
40
0.5860659
50
163.0418846
51
174.3140048
0
ARC
8
DEFAULT_255_1_234
10
23.2904535
20
60.8273854
40
0.8280531
50
174.0509143
51
179.4176892
0
ARC
8
DEFAULT_255_1_234
10
23.2400274
20
60.7456954
40
0.7775954
50
179.6930361
51
188.7906598
0
ARC
8
DEFAULT_255_1_234
10
22.9736753
20
60.7030935
40
0.5078633
50
188.6331305
51
202.5629587
0
ARC
8
DEFAULT_255_1_234
10
22.8482345
20
60.6526996
40
0.3726913
50
202.8081362
51
216.1193925
0
ARC
8
DEFAULT_255_1_234
10
22.7672915
20
60.5875676
40
0.2689577
50
215.0755913
51
264.6379694
0
ARC
8
DEFAULT_255_1_234
10
22.7799865
20
60.6706513
40
0.3528978
50
263.846392
51
270.0833719
0
ARC
8
DEFAULT_255_1_234
10
22.7841255
20
60.6448374
40
0.3271036
50
269.3649385
51
287.5152008
0
ARC
8
DEFAULT_255_1_234
10
22.8019413
20
60.5801238
40
0.2600406
50
288.0630309
51
323.8113348
0
ARC
8
DEFAULT_255_1_234
10
22.7148255
20
60.6451049
40
0.3687189
50
323.6547608
51
342.6590488
0
ARC
8
DEFAULT_255_1_234
10
22.511687
20
60.7111952
40
0.5823286
50
342.4091907
51
353.6451149
0
ARC
8
DEFAULT_255_1_234
10
22.2285381
20
60.746419
40
0.8676442
50
353.4029884
51
359.4847795
0
LINE
8
DEFAULT_255_1_234
10
24.1756129
20
60.8944327
11
24.1756129
21
60.7016709
0
LINE
8
DEFAULT_255_1_234
10
23.4374962
20
60.6815916
11
23.4374962
21
60.8799755
0
LINE
8
DEFAULT_255_1_234
10
24.0270258
20
60.6615123
11
24.0270258
21
60.9048739
0
LINE
8
DEFAULT_255_1_234
10
23.5860833
20
60.9161184
11
23.5860833
21
60.6783789
0
ARC
8
DEFAULT_255_1_234
10
22.9509019
20
60.6967805
40
1.2247208
50
353.8441951
51
0.2287902
0
ARC
8
DEFAULT_255_1_234
10
23.4148523
20
60.6449806
40
0.7578929
50
344.4934747
51
353.9765454
0
ARC
8
DEFAULT_255_1_234
10
23.7141113
20
60.5598981
40
0.4467846
50
329.2803592
51
344.7472793
0
ARC
8
DEFAULT_255_1_234
10
23.8133938
20
60.5054018
40
0.3336173
50
324.9352394
51
328.6160465
0
ARC
8
DEFAULT_255_1_234
10
23.8511046
20
60.4790427
40
0.2876076
50
280.580143
51
324.9173126
0
ARC
8
DEFAULT_255_1_234
10
23.8109839
20
60.6461099
40
0.4592847
50
269.5977311
51
281.6734359
0
ARC
8
DEFAULT_255_1_234
10
23.8037745
20
60.6341173
40
0.4472986
50
256.6228859
51
270.51044
0
ARC
8
DEFAULT_255_1_234
10
23.7635722
20
60.4792877
40
0.2873874
50
215.8618325
51
257.2788573
0
ARC
8
DEFAULT_255_1_234
10
23.8656754
20
60.5477977
40
0.4102928
50
197.9693508
51
215.2623606
0
ARC
8
DEFAULT_255_1_234
10
24.114187
20
60.6316709
40
0.6725652
50
187.8816417
51
198.2346507
0
ARC
8
DEFAULT_255_1_234
10
24.5100078
20
60.6888079
40
1.0724845
50
180.8976217
51
188.0055519
0
ARC
8
DEFAULT_255_1_234
10
24.7900266
20
60.6991777
40
1.3526448
50
180.7449369
51
181.1510016
0
ARC
8
DEFAULT_255_1_234
10
24.6322995
20
60.8848042
40
1.1948131
50
173.7675579
51
180.231553
0
ARC
8
DEFAULT_255_1_234
10
24.1805142
20
60.9358666
40
0.7401564
50
164.3058563
51
173.9002247
0
ARC
8
DEFAULT_255_1_234
10
23.8893211
20
61.0197656
40
0.4371288
50
148.7922025
51
164.568378
0
ARC
8
DEFAULT_255_1_234
10
23.7941663
20
61.0728929
40
0.3282386
50
144.5883898
51
148.1176286
0
ARC
8
DEFAULT_255_1_234
10
23.7598561
20
61.0968315
40
0.2864044
50
101.6440918
51
144.514236
0
ARC
8
DEFAULT_255_1_234
10
23.8023627
20
60.9279069
40
0.4604934
50
89.5284041
51
102.5819763
0
ARC
8
DEFAULT_255_1_234
10
23.8102715
20
60.9240018
40
0.464401
50
77.0437873
51
90.5081339
0
ARC
8
DEFAULT_255_1_234
10
23.8504717
20
61.0882615
40
0.2953195
50
48.2778575
51
77.4994676
0
ARC
8
DEFAULT_255_1_234
10
23.8577348
20
61.1011746
40
0.2808655
50
36.3142134
51
47.6305865
0
ARC
8
DEFAULT_255_1_234
10
23.7708655
20
61.0426515
40
0.3855453
50
18.2931786
51
35.6769206
0
ARC
8
DEFAULT_255_1_234
10
23.5165414
20
60.9553593
40
0.654423
50
8.024666
51
18.5605216
0
ARC
8
DEFAULT_255_1_234
10
23.1002334
20
60.8938792
40
1.0752407
50
1.1274072
51
8.1718305
0
ARC
8
DEFAULT_255_1_234
10
22.7766525
20
60.8811885
40
1.3990231
50
0.5424119
51
1.3863029
0
ARC
8
DEFAULT_255_1_234
10
22.9587902
20
60.9084342
40
1.0682415
50
359.8090433
51
4.9407866
0
ARC
8
DEFAULT_255_1_234
10
23.3797916
20
60.9460113
40
0.6455691
50
4.8362157
51
12.2904523
0
ARC
8
DEFAULT_255_1_234
10
23.6553031
20
61.0073965
40
0.3633074
50
12.0805627
51
23.8173984
0
ARC
8
DEFAULT_255_1_234
10
23.7726737
20
61.0570919
40
0.2358723
50
24.2871213
51
31.3935614
0
ARC
8
DEFAULT_255_1_234
10
23.8251434
20
61.0914233
40
0.1732111
50
30.7407893
51
82.4657128
0
ARC
8
DEFAULT_255_1_234
10
23.8071568
20
61.0030691
40
0.263235
50
81.1060089
51
90.2184952
0
ARC
8
DEFAULT_255_1_234
10
23.8035867
20
61.0288924
40
0.2374236
50
89.3806855
51
105.6762551
0
ARC
8
DEFAULT_255_1_234
10
23.7852498
20
61.0955567
40
0.1682847
50
105.7981136
51
149.7388061
0
ARC
8
DEFAULT_255_1_234
10
23.8916576
20
61.031595
40
0.2924306
50
149.4208916
51
163.6286378
0
ARC
8
DEFAULT_255_1_234
10
24.1007464
20
60.967825
40
0.5110213
50
163.3763315
51
172.1410975
0
ARC
8
DEFAULT_255_1_234
10
24.4308183
20
60.9205518
40
0.8444586
50
172.0259487
51
178.0703232
0
ARC
8
DEFAULT_255_1_234
10
24.7338272
20
60.9061906
40
1.1477868
50
177.8631668
51
179.5044149
0
ARC
8
DEFAULT_255_1_234
10
24.6265677
20
60.6747389
40
1.0404907
50
179.7995573
51
185.2460446
0
ARC
8
DEFAULT_255_1_234
10
24.2222716
20
60.6364513
40
0.6343885
50
185.1411642
51
193.0079639
0
ARC
8
DEFAULT_255_1_234
10
23.9579189
20
60.5739641
40
0.3627568
50
192.7897626
51
205.2507664
0
ARC
8
DEFAULT_255_1_234
10
23.8532736
20
60.5272415
40
0.2481908
50
205.8005384
51
211.2537509
0
ARC
8
DEFAULT_255_1_234
10
23.8009176
20
60.492158
40
0.1852521
50
210.3789793
51
238.4008143
0
ARC
8
DEFAULT_255_1_234
10
23.7989698
20
60.4968376
40
0.1882621
50
239.6520629
51
265.9793761
0
ARC
8
DEFAULT_255_1_234
10
23.8074898
20
60.5640427
40
0.2559272
50
265.1315437
51
270.060332
0
ARC
8
DEFAULT_255_1_234
10
23.8103677
20
60.5316534
40
0.2235528
50
269.3314664
51
287.2178029
0
ARC
8
DEFAULT_255_1_234
10
23.8241529
20
60.4813279
40
0.1714108
50
287.7958004
51
329.080874
0
ARC
8
DEFAULT_255_1_234
10
23.7283986
20
60.541093
40
0.2842745
50
328.6634704
51
343.3325132
0
ARC
8
DEFAULT_255_1_234
10
23.5111006
20
60.6087863
40
0.5118644
50
343.0499468
51
351.9393422
0
ARC
8
DEFAULT_255_1_234
10
23.1644306
20
60.6598949
40
0.8622784
50
351.8069023
51
357.7959224
0
ARC
8
DEFAULT_255_1_234
10
22.8408862
20
60.6766721
40
1.1862365
50
357.5871873
51
359.2677531
0
ENDSEC
0
EOF