0
SECTION
2
HEADER
9
$MEASUREMENT
70
1
0
ENDSEC
0
SECTION
2
TABLES
0
TABLE
2
LTYPE
0
LTYPE
72
65
70
64
2
CONTINUOUS
3
______
73
0
40
0
0
ENDTAB
0
TABLE
2
LAYER
0
LAYER
2
DEFAULT_255_2_778
70
0
62
255
6
CONTINUOUS
0
ENDTAB
0
ENDSEC
0
SECTION
2
ENTITIES
0
ARC
8
DEFAULT_255_2_778
10
0.9237028
20
134.0135523
40
0.7914215
50
129.1312896
51
180.1450914
0
ARC
8
DEFAULT_255_2_778
10
0.923968
20
134.0140394
40
0.7912112
50
89.854026
51
129.1684493
0
ARC
8
DEFAULT_255_2_778
10
33.7363879
20
134.0138291
40
0.7914215
50
39.1312896
51
90.1450914
0
ARC
8
DEFAULT_255_2_778
10
33.7368751
20
134.0135639
40
0.7912112
50
359.854026
51
39.1684493
0
ARC
8
DEFAULT_255_2_778
10
33.7365616
20
0.6595048
40
0.7915249
50
309.4792447
51
0.147911
0
ARC
8
DEFAULT_255_2_778
10
33.7364082
20
0.658905
40
0.7911595
50
269.8533901
51
309.5154338
0
ARC
8
DEFAULT_255_2_778
10
0.9239755
20
0.6591271
40
0.7913815
50
219.1282118
51
270.1454017
0
ARC
8
DEFAULT_255_2_778
10
0.9236582
20
0.6595096
40
0.7913769
50
179.8524075
51
219.1641908
0
LINE
8
DEFAULT_255_2_778
10
0.9259838
20
134.8052481
11
33.7343838
21
134.8052481
0
LINE
8
DEFAULT_255_2_778
10
34.5280838
20
134.0115481
11
34.5280838
21
0.6615481
0
LINE
8
DEFAULT_255_2_778
10
33.7343838
20
-0.1322519
11
0.9259838
21
-0.1322519
0
LINE
8
DEFAULT_255_2_778
10
0.1322838
20
0.6615481
11
0.1322838
21
134.0115481
0
LINE
8
DEFAULT_255_2_778
10
0.1322838
20
129.5135
11
34.5280838
21
129.5135
0
LINE
8
DEFAULT_255_2_778
10
0.1322734
20
105.6812
11
34.4831734
21
105.6812
0
LINE
8
DEFAULT_255_2_778
10
18.6531585
20
105.6800934
11
18.6531585
21
2.5134934
0
LINE
8
DEFAULT_255_2_778
10
18.6531585
20
2.5134934
11
33.2052585
21
2.4954934
0
LINE
8
DEFAULT_255_2_778
10
33.2052585
20
2.4954934
11
33.2052585
21
105.6800934
0
LINE
8
DEFAULT_255_2_778
10
18.6612929
20
58.076
11
33.1966929
21
58.076
0
ARC
8
DEFAULT_255_2_778
10
8.5819581
20
131.4372071
40
1.0819937
50
36.2933446
51
62.5015118
0
ARC
8
DEFAULT_255_2_778
10
8.678523
20
132.9564899
40
0.6895632
50
305.7645094
51
359.3494295
0
ARC
8
DEFAULT_255_2_778
10
8.6894119
20
132.953043
40
0.678644
50
359.6299858
51
47.7273673
0
ARC
8
DEFAULT_255_2_778
10
8.7022277
20
132.9641781
40
0.6617869
50
47.899913
51
90.2152254
0
ARC
8
DEFAULT_255_2_778
10
8.6149634
20
131.4736366
40
1.0422087
50
272.550511
51
299.666679
0
ARC
8
DEFAULT_255_2_778
10
8.6190685
20
131.4461542
40
1.0163466
50
300.2324327
51
359.6885534
0
ARC
8
DEFAULT_255_2_778
10
8.539744
20
131.4582452
40
1.0957977
50
359.0788988
51
0.0007942
0
ARC
8
DEFAULT_255_2_778
10
8.6153364
20
131.4828248
40
1.020501
50
358.6207041
51
28.4676499
0
ARC
8
DEFAULT_255_2_778
10
8.8986783
20
131.6083519
40
0.712014
50
30.4564026
51
30.6153177
0
ARC
8
DEFAULT_255_2_778
10
6.0035572
20
131.4372063
40
1.0819949
50
36.2933519
51
62.5014905
0
ARC
8
DEFAULT_255_2_778
10
6.1001303
20
132.9566111
40
0.6896573
50
305.7581306
51
359.3394504
0
ARC
8
DEFAULT_255_2_778
10
6.1111905
20
132.9530235
40
0.6785653
50
359.6315932
51
47.8217446
0
ARC
8
DEFAULT_255_2_778
10
6.1238101
20
132.9640164
40
0.6619485
50
47.9923323
51
90.2136518
0
ARC
8
DEFAULT_255_2_778
10
6.0366373
20
131.4735589
40
1.0421322
50
272.5521316
51
299.6679264
0
ARC
8
DEFAULT_255_2_778
10
6.0407166
20
131.4462102
40
1.0163988
50
300.2312205
51
359.685416
0
ARC
8
DEFAULT_255_2_778
10
5.9614439
20
131.4582452
40
1.0957977
50
359.0788987
51
0.0007942
0
ARC
8
DEFAULT_255_2_778
10
6.039844
20
131.483436
40
1.0177092
50
358.5824988
51
28.5682719
0
ARC
8
DEFAULT_255_2_778
10
6.1670251
20
131.5167717
40
0.8906302
50
30.597828
51
30.6613817
0
LINE
8
DEFAULT_255_2_778
10
3.9822418
20
132.0776604
11
3.4379418
21
133.6259604
0
LINE
8
DEFAULT_255_2_778
10
3.4379418
20
133.6259604
11
3.0273418
21
133.6259604
0
LINE
8
DEFAULT_255_2_778
10
3.0273418
20
133.6259604
11
3.0273418
21
132.0776604
0
LINE
8
DEFAULT_255_2_778
10
3.0273418
20
132.0776604
11
3.9822418
21
132.0776604
0
LINE
8
DEFAULT_255_2_778
10
3.0273418
20
131.1100604
11
3.5334418
21
131.1100604
0
LINE
8
DEFAULT_255_2_778
10
3.5334418
20
131.1100604
11
3.7626418
21
130.4326604
0
LINE
8
DEFAULT_255_2_778
10
3.7626418
20
130.4326604
11
4.5553418
21
130.4326604
0
LINE
8
DEFAULT_255_2_778
10
4.5553418
20
130.4326604
11
4.0110418
21
131.9810604
0
LINE
8
DEFAULT_255_2_778
10
4.0110418
20
131.9810604
11
3.0275418
21
131.9810604
0
LINE
8
DEFAULT_255_2_778
10
3.0275418
20
131.9810604
11
3.0273418
21
131.1100604
0
LINE
8
DEFAULT_255_2_778
10
2.9318418
20
133.6259604
11
2.5211418
21
133.6259604
0
LINE
8
DEFAULT_255_2_778
10
2.5211418
20
133.6259604
11
1.9769418
21
132.0776604
0
LINE
8
DEFAULT_255_2_778
10
1.9769418
20
132.0776604
11
2.9318418
21
132.0776604
0
LINE
8
DEFAULT_255_2_778
10
2.9318418
20
132.0776604
11
2.9318418
21
133.6259604
0
LINE
8
DEFAULT_255_2_778
10
1.9480418
20
131.9810604
11
1.4038418
21
130.4326604
0
LINE
8
DEFAULT_255_2_778
10
1.4038418
20
130.4326604
11
2.1965418
21
130.4326604
0
LINE
8
DEFAULT_255_2_778
10
2.1965418
20
130.4326604
11
2.4256418
21
131.1100604
0
LINE
8
DEFAULT_255_2_778
10
2.4256418
20
131.1100604
11
2.9318418
21
131.1100604
0
LINE
8
DEFAULT_255_2_778
10
2.9318418
20
131.1100604
11
2.9318418
21
131.9807604
0
LINE
8
DEFAULT_255_2_778
10
2.9318418
20
131.9807604
11
1.9480418
21
131.9810604
0
LINE
8
DEFAULT_255_2_778
10
7.4199418
20
133.6259604
11
8.3748418
21
133.6259604
0
LINE
8
DEFAULT_255_2_778
10
8.3748418
20
133.6259604
11
8.3748418
21
132.0776604
0
LINE
8
DEFAULT_255_2_778
10
8.3748418
20
132.0776604
11
7.4199418
21
132.0776604
0
LINE
8
DEFAULT_255_2_778
10
7.4199418
20
132.0776604
11
7.4199418
21
133.6259604
0
LINE
8
DEFAULT_255_2_778
10
8.6997418
20
133.6259604
11
8.4706418
21
133.6259604
0
LINE
8
DEFAULT_255_2_778
10
8.4706418
20
133.6259604
11
8.4706418
21
132.0776604
0
LINE
8
DEFAULT_255_2_778
10
8.4706418
20
132.0776604
11
9.4540418
21
132.0776604
0
LINE
8
DEFAULT_255_2_778
10
9.4540418
20
132.0776604
11
9.4540418
21
132.0776604
0
LINE
8
DEFAULT_255_2_778
10
7.4199418
20
131.9807604
11
8.3748418
21
131.9807604
0
LINE
8
DEFAULT_255_2_778
10
8.3748418
20
131.9807604
11
8.3748418
21
130.4324604
0
LINE
8
DEFAULT_255_2_778
10
8.3748418
20
130.4324604
11
7.4199418
21
130.4324604
0
LINE
8
DEFAULT_255_2_778
10
7.4199418
20
130.4324604
11
7.4199418
21
131.9807604
0
LINE
8
DEFAULT_255_2_778
10
8.4703418
20
130.4324604
11
8.6613418
21
130.4324604
0
LINE
8
DEFAULT_255_2_778
10
9.5114418
20
131.9709604
11
8.4706418
21
131.9709604
0
LINE
8
DEFAULT_255_2_778
10
8.4706418
20
131.9709604
11
8.4706418
21
130.4324604
0
LINE
8
DEFAULT_255_2_778
10
8.4706418
20
130.4324604
11
8.4703418
21
130.4324604
0
LINE
8
DEFAULT_255_2_778
10
4.8415418
20
133.6259604
11
5.7964418
21
133.6259604
0
LINE
8
DEFAULT_255_2_778
10
5.7964418
20
133.6259604
11
5.7964418
21
132.0776604
0
LINE
8
DEFAULT_255_2_778
10
5.7964418
20
132.0776604
11
4.8415418
21
132.0776604
0
LINE
8
DEFAULT_255_2_778
10
4.8415418
20
132.0776604
11
4.8415418
21
133.6259604
0
LINE
8
DEFAULT_255_2_778
10
6.1213418
20
133.6259604
11
5.8922418
21
133.6259604
0
LINE
8
DEFAULT_255_2_778
10
5.8922418
20
133.6259604
11
5.8922418
21
132.0776604
0
LINE
8
DEFAULT_255_2_778
10
5.8922418
20
132.0776604
11
6.8759418
21
132.0776604
0
LINE
8
DEFAULT_255_2_778
10
6.8759418
20
132.0776604
11
6.8756418
21
132.0776604
0
LINE
8
DEFAULT_255_2_778
10
4.8415418
20
131.9807604
11
5.7964418
21
131.9807604
0
LINE
8
DEFAULT_255_2_778
10
5.7964418
20
131.9807604
11
5.7964418
21
130.4324604
0
LINE
8
DEFAULT_255_2_778
10
5.7964418
20
130.4324604
11
4.8415418
21
130.4324604
0
LINE
8
DEFAULT_255_2_778
10
4.8415418
20
130.4324604
11
4.8415418
21
131.9807604
0
LINE
8
DEFAULT_255_2_778
10
5.8919418
20
130.4324604
11
6.0830418
21
130.4324604
0
LINE
8
DEFAULT_255_2_778
10
6.9331418
20
131.9709604
11
5.8922418
21
131.9709604
0
LINE
8
DEFAULT_255_2_778
10
5.8922418
20
131.9709604
11
5.8922418
21
130.4324604
0
LINE
8
DEFAULT_255_2_778
10
5.8922418
20
130.4324604
11
5.8919418
21
130.4324604
0
LINE
8
DEFAULT_255_2_778
10
1.4552084
20
126.8677581
11
8.0698084
21
126.8677581
0
LINE
8
DEFAULT_255_2_778
10
8.0698084
20
126.8677581
11
8.0698084
21
109.6698581
0
LINE
8
DEFAULT_255_2_778
10
8.0698084
20
109.6698581
11
1.4552084
21
109.6698581
0
LINE
8
DEFAULT_255_2_778
10
1.4552084
20
109.6698581
11
1.4552084
21
126.8677581
0
LINE
8
DEFAULT_255_2_778
10
5.4339854
20
125.5447625
11
7.2759854
21
125.5447625
0
LINE
8
DEFAULT_255_2_778
10
7.2759854
20
125.5447625
11
7.2759854
21
122.7666625
0
LINE
8
DEFAULT_255_2_778
10
7.2759854
20
122.7666625
11
5.4339854
21
122.7666625
0
LINE
8
DEFAULT_255_2_778
10
5.4339854
20
122.7666625
11
5.4339854
21
125.5447625
0
LINE
8
DEFAULT_255_2_778
10
5.4339854
20
121.8406625
11
7.2759854
21
121.8406625
0
LINE
8
DEFAULT_255_2_778
10
7.2759854
20
121.8406625
11
7.2759854
21
119.0625625
0
LINE
8
DEFAULT_255_2_778
10
7.2759854
20
119.0625625
11
5.4339854
21
119.0625625
0
LINE
8
DEFAULT_255_2_778
10
5.4339854
20
119.0625625
11
5.4339854
21
121.8406625
0
LINE
8
DEFAULT_255_2_778
10
5.4339854
20
118.1364625
11
7.2759854
21
118.1364625
0
LINE
8
DEFAULT_255_2_778
10
7.2759854
20
118.1364625
11
7.2759854
21
115.3583625
0
LINE
8
DEFAULT_255_2_778
10
7.2759854
20
115.3583625
11
5.4339854
21
115.3583625
0
LINE
8
DEFAULT_255_2_778
10
5.4339854
20
115.3583625
11
5.4339854
21
118.1364625
0
LINE
8
DEFAULT_255_2_778
10
5.4339854
20
114.4322625
11
7.2759854
21
114.4322625
0
LINE
8
DEFAULT_255_2_778
10
7.2759854
20
114.4322625
11
7.2759854
21
111.6541625
0
LINE
8
DEFAULT_255_2_778
10
7.2759854
20
111.6541625
11
5.4339854
21
111.6541625
0
LINE
8
DEFAULT_255_2_778
10
5.4339854
20
111.6541625
11
5.4339854
21
114.4322625
0
LINE
8
DEFAULT_255_2_778
10
9.3927084
20
126.8677581
11
16.0073084
21
126.8677581
0
LINE
8
DEFAULT_255_2_778
10
16.0073084
20
126.8677581
11
16.0073084
21
109.6698581
0
LINE
8
DEFAULT_255_2_778
10
16.0073084
20
109.6698581
11
9.3927084
21
109.6698581
0
LINE
8
DEFAULT_255_2_778
10
9.3927084
20
109.6698581
11
9.3927084
21
126.8677581
0
LINE
8
DEFAULT_255_2_778
10
13.3714854
20
125.5447625
11
15.2134854
21
125.5447625
0
LINE
8
DEFAULT_255_2_778
10
15.2134854
20
125.5447625
11
15.2134854
21
122.7666625
0
LINE
8
DEFAULT_255_2_778
10
15.2134854
20
122.7666625
11
13.3714854
21
122.7666625
0
LINE
8
DEFAULT_255_2_778
10
13.3714854
20
122.7666625
11
13.3714854
21
125.5447625
0
LINE
8
DEFAULT_255_2_778
10
13.3714854
20
121.8406625
11
15.2134854
21
121.8406625
0
LINE
8
DEFAULT_255_2_778
10
15.2134854
20
121.8406625
11
15.2134854
21
119.0625625
0
LINE
8
DEFAULT_255_2_778
10
15.2134854
20
119.0625625
11
13.3714854
21
119.0625625
0
LINE
8
DEFAULT_255_2_778
10
13.3714854
20
119.0625625
11
13.3714854
21
121.8406625
0
LINE
8
DEFAULT_255_2_778
10
13.3714854
20
118.1364625
11
15.2134854
21
118.1364625
0
LINE
8
DEFAULT_255_2_778
10
15.2134854
20
118.1364625
11
15.2134854
21
115.3583625
0
LINE
8
DEFAULT_255_2_778
10
15.2134854
20
115.3583625
11
13.3714854
21
115.3583625
0
LINE
8
DEFAULT_255_2_778
10
13.3714854
20
115.3583625
11
13.3714854
21
118.1364625
0
LINE
8
DEFAULT_255_2_778
10
13.3714854
20
114.4322625
11
15.2134854
21
114.4322625
0
LINE
8
DEFAULT_255_2_778
10
15.2134854
20
114.4322625
11
15.2134854
21
111.6541625
0
LINE
8
DEFAULT_255_2_778
10
15.2134854
20
111.6541625
11
13.3714854
21
111.6541625
0
LINE
8
DEFAULT_255_2_778
10
13.3714854
20
111.6541625
11
13.3714854
21
114.4322625
0
LINE
8
DEFAULT_255_2_778
10
17.3302084
20
126.8677581
11
23.9448084
21
126.8677581
0
LINE
8
DEFAULT_255_2_778
10
23.9448084
20
126.8677581
11
23.9448084
21
109.6698581
0
LINE
8
DEFAULT_255_2_778
10
23.9448084
20
109.6698581
11
17.3302084
21
109.6698581
0
LINE
8
DEFAULT_255_2_778
10
17.3302084
20
109.6698581
11
17.3302084
21
126.8677581
0
LINE
8
DEFAULT_255_2_778
10
21.3089854
20
125.5447625
11
23.1509854
21
125.5447625
0
LINE
8
DEFAULT_255_2_778
10
23.1509854
20
125.5447625
11
23.1509854
21
122.7666625
0
LINE
8
DEFAULT_255_2_778
10
23.1509854
20
122.7666625
11
21.3089854
21
122.7666625
0
LINE
8
DEFAULT_255_2_778
10
21.3089854
20
122.7666625
11
21.3089854
21
125.5447625
0
LINE
8
DEFAULT_255_2_778
10
21.3089854
20
121.8406625
11
23.1509854
21
121.8406625
0
LINE
8
DEFAULT_255_2_778
10
23.1509854
20
121.8406625
11
23.1509854
21
119.0625625
0
LINE
8
DEFAULT_255_2_778
10
23.1509854
20
119.0625625
11
21.3089854
21
119.0625625
0
LINE
8
DEFAULT_255_2_778
10
21.3089854
20
119.0625625
11
21.3089854
21
121.8406625
0
LINE
8
DEFAULT_255_2_778
10
21.3089854
20
118.1364625
11
23.1509854
21
118.1364625
0
LINE
8
DEFAULT_255_2_778
10
23.1509854
20
118.1364625
11
23.1509854
21
115.3583625
0
LINE
8
DEFAULT_255_2_778
10
23.1509854
20
115.3583625
11
21.3089854
21
115.3583625
0
LINE
8
DEFAULT_255_2_778
10
21.3089854
20
115.3583625
11
21.3089854
21
118.1364625
0
LINE
8
DEFAULT_255_2_778
10
21.3089854
20
114.4322625
11
23.1509854
21
114.4322625
0
LINE
8
DEFAULT_255_2_778
10
23.1509854
20
114.4322625
11
23.1509854
21
111.6541625
0
LINE
8
DEFAULT_255_2_778
10
23.1509854
20
111.6541625
11
21.3089854
21
111.6541625
0
LINE
8
DEFAULT_255_2_778
10
21.3089854
20
111.6541625
11
21.3089854
21
114.4322625
0
LINE
8
DEFAULT_255_2_778
10
25.2677084
20
126.8677581
11
31.8823084
21
126.8677581
0
LINE
8
DEFAULT_255_2_778
10
31.8823084
20
126.8677581
11
31.8823084
21
109.6698581
0
LINE
8
DEFAULT_255_2_778
10
31.8823084
20
109.6698581
11
25.2677084
21
109.6698581
0
LINE
8
DEFAULT_255_2_778
10
25.2677084
20
109.6698581
11
25.2677084
21
126.8677581
0
LINE
8
DEFAULT_255_2_778
10
29.2464854
20
125.5447625
11
31.0884854
21
125.5447625
0
LINE
8
DEFAULT_255_2_778
10
31.0884854
20
125.5447625
11
31.0884854
21
122.7666625
0
LINE
8
DEFAULT_255_2_778
10
31.0884854
20
122.7666625
11
29.2464854
21
122.7666625
0
LINE
8
DEFAULT_255_2_778
10
29.2464854
20
122.7666625
11
29.2464854
21
125.5447625
0
LINE
8
DEFAULT_255_2_778
10
29.2464854
20
121.8406625
11
31.0884854
21
121.8406625
0
LINE
8
DEFAULT_255_2_778
10
31.0884854
20
121.8406625
11
31.0884854
21
119.0625625
0
LINE
8
DEFAULT_255_2_778
10
31.0884854
20
119.0625625
11
29.2464854
21
119.0625625
0
LINE
8
DEFAULT_255_2_778
10
29.2464854
20
119.0625625
11
29.2464854
21
121.8406625
0
LINE
8
DEFAULT_255_2_778
10
29.2464854
20
118.1364625
11
31.0884854
21
118.1364625
0
LINE
8
DEFAULT_255_2_778
10
31.0884854
20
118.1364625
11
31.0884854
21
115.3583625
0
LINE
8
DEFAULT_255_2_778
10
31.0884854
20
115.3583625
11
29.2464854
21
115.3583625
0
LINE
8
DEFAULT_255_2_778
10
29.2464854
20
115.3583625
11
29.2464854
21
118.1364625
0
LINE
8
DEFAULT_255_2_778
10
29.2464854
20
114.4322625
11
31.0884854
21
114.4322625
0
LINE
8
DEFAULT_255_2_778
10
31.0884854
20
114.4322625
11
31.0884854
21
111.6541625
0
LINE
8
DEFAULT_255_2_778
10
31.0884854
20
111.6541625
11
29.2464854
21
111.6541625
0
LINE
8
DEFAULT_255_2_778
10
29.2464854
20
111.6541625
11
29.2464854
21
114.4322625
0
LINE
8
DEFAULT_255_2_778
10
24.8356219
20
131.1192989
11
24.5843219
21
131.8066989
0
LINE
8
DEFAULT_255_2_778
10
24.5843219
20
131.8066989
11
23.4810219
21
131.8066989
0
LINE
8
DEFAULT_255_2_778
10
23.4810219
20
131.8066989
11
23.2330219
21
131.1192989
0
LINE
8
DEFAULT_255_2_778
10
23.2330219
20
131.1192989
11
22.8748219
21
131.1192989
0
LINE
8
DEFAULT_255_2_778
10
22.8748219
20
131.1192989
11
23.8805219
21
133.7526989
0
LINE
8
DEFAULT_255_2_778
10
23.8805219
20
133.7526989
11
24.1842219
21
133.7526989
0
LINE
8
DEFAULT_255_2_778
10
24.1842219
20
133.7526989
11
25.1918219
21
131.1192989
0
LINE
8
DEFAULT_255_2_778
10
25.1918219
20
131.1192989
11
24.8354219
21
131.1192989
0
LINE
8
DEFAULT_255_2_778
10
24.8354219
20
131.1192989
11
24.8356219
21
131.1192989
0
LINE
8
DEFAULT_255_2_778
10
24.0326219
20
133.3240989
11
23.5860219
21
132.0923989
0
LINE
8
DEFAULT_255_2_778
10
23.5860219
20
132.0923989
11
24.4813219
21
132.0923989
0
LINE
8
DEFAULT_255_2_778
10
24.4813219
20
132.0923989
11
24.0329219
21
133.3240989
0
LINE
8
DEFAULT_255_2_778
10
24.0329219
20
133.3240989
11
24.0326219
21
133.3240989
0
LINE
8
DEFAULT_255_2_778
10
25.919101
20
133.7526989
11
25.919101
21
131.1192989
0
LINE
8
DEFAULT_255_2_778
10
25.919101
20
131.1192989
11
25.572001
21
131.1192989
0
LINE
8
DEFAULT_255_2_778
10
25.572001
20
131.1192989
11
25.572001
21
133.7526989
0
LINE
8
DEFAULT_255_2_778
10
25.572001
20
133.7526989
11
25.919401
21
133.7526989
0
LINE
8
DEFAULT_255_2_778
10
25.919401
20
133.7526989
11
25.919101
21
133.7526989
0
ARC
8
DEFAULT_255_2_778
10
27.3843137
20
131.9910294
40
0.8484819
50
89.0332871
51
120.0736236
0
ARC
8
DEFAULT_255_2_778
10
27.4125361
20
132.010631
40
0.8288762
50
67.6235788
51
90.9613765
0
ARC
8
DEFAULT_255_2_778
10
27.4600505
20
132.1530315
40
0.6791874
50
41.3218161
51
66.7568612
0
ARC
8
DEFAULT_255_2_778
10
27.3502846
20
132.0626602
40
0.8213069
50
10.1749724
51
41.0004184
0
ARC
8
DEFAULT_255_2_778
10
26.9091109
20
131.9664823
40
1.2726425
50
359.6447062
51
10.9281943
0
ARC
8
DEFAULT_255_2_778
10
27.0193711
20
131.9454868
40
1.1624317
50
344.8019331
51
0.6458925
0
ARC
8
DEFAULT_255_2_778
10
27.3963007
20
131.8423912
40
0.7716579
50
317.1388101
51
344.8520751
0
ARC
8
DEFAULT_255_2_778
10
27.4319767
20
131.8237892
40
0.7329308
50
278.2203671
51
316.3076096
0
ARC
8
DEFAULT_255_2_778
10
27.3527837
20
132.2110591
40
1.1277793
50
269.748274
51
279.3893091
0
ARC
8
DEFAULT_255_2_778
10
27.3342218
20
132.0531419
40
0.9699468
50
250.8132112
51
270.8038081
0
ARC
8
DEFAULT_255_2_778
10
27.2646014
20
131.8317396
40
0.7379956
50
228.7729066
51
250.2689346
0
ARC
8
DEFAULT_255_2_778
10
27.2678237
20
131.8263332
40
0.7360775
50
189.5823708
51
228.3069051
0
ARC
8
DEFAULT_255_2_778
10
27.5849916
20
131.9053755
40
1.0622754
50
185.0433995
51
190.9385806
0
ARC
8
DEFAULT_255_2_778
10
27.4831232
20
131.885753
40
0.6441317
50
186.5756229
51
207.9382081
0
ARC
8
DEFAULT_255_2_778
10
27.287286
20
131.7888373
40
0.4257559
50
208.763572
51
228.3123665
0
ARC
8
DEFAULT_255_2_778
10
27.3119245
20
131.8333242
40
0.4754958
50
229.6605214
51
267.2883817
0
ARC
8
DEFAULT_255_2_778
10
27.3470568
20
132.0885136
40
0.7324234
50
265.4872671
51
270.0603951
0
ARC
8
DEFAULT_255_2_778
10
27.3627841
20
131.8349527
40
0.4790956
50
268.2111863
51
303.3707144
0
ARC
8
DEFAULT_255_2_778
10
27.3780631
20
131.7932364
40
0.4359717
50
304.7095292
51
320.4090394
0
ARC
8
DEFAULT_255_2_778
10
27.2683803
20
131.8726306
40
0.5711594
50
321.2837047
51
351.4577985
0
ARC
8
DEFAULT_255_2_778
10
26.8827375
20
131.9493987
40
0.9641071
50
350.3503316
51
0.3263754
0
ARC
8
DEFAULT_255_2_778
10
27.1382093
20
131.9683822
40
0.708748
50
358.9092644
51
21.6774014
0
ARC
8
DEFAULT_255_2_778
10
27.3136217
20
132.0298152
40
0.5231056
50
22.5214198
51
41.8747814
0
ARC
8
DEFAULT_255_2_778
10
27.3409801
20
132.0507535
40
0.4887651
50
42.1878919
51
92.398101
0
ARC
8
DEFAULT_255_2_778
10
27.3078029
20
131.8445215
40
0.6946856
50
88.9503359
51
107.4955026
0
ARC
8
DEFAULT_255_2_778
10
27.2285809
20
132.1104411
40
0.4172739
50
108.0978195
51
127.0912375
0
LINE
8
DEFAULT_255_2_778
10
26.8885289
20
132.3707906
11
26.6207289
21
132.4395906
0
LINE
8
DEFAULT_255_2_778
10
26.6207289
20
132.4395906
11
26.7546289
21
133.7526906
0
LINE
8
DEFAULT_255_2_778
10
26.7546289
20
133.7526906
11
28.1040289
21
133.7526906
0
LINE
8
DEFAULT_255_2_778
10
28.1040289
20
133.7526906
11
28.1040289
21
133.4433906
0
LINE
8
DEFAULT_255_2_778
10
28.1040289
20
133.4433906
11
27.0387289
21
133.4433906
0
LINE
8
DEFAULT_255_2_778
10
27.0387289
20
133.4433906
11
26.9591289
21
132.7252906
0
LINE
8
DEFAULT_255_2_778
10
26.5268289
20
131.8119906
11
26.8432289
21
131.8119906
0
LINE
8
DEFAULT_255_2_778
10
26.9769289
20
132.4432906
11
26.8882289
21
132.3709906
0
LINE
8
DEFAULT_255_2_778
10
26.8882289
20
132.3709906
11
26.8885289
21
132.3707906
0
ARC
8
DEFAULT_255_2_778
10
29.8050347
20
132.3965845
40
1.074082
50
90.3270125
51
108.2445919
0
ARC
8
DEFAULT_255_2_778
10
29.7153149
20
132.6817265
40
0.7751961
50
108.5447551
51
134.0220002
0
ARC
8
DEFAULT_255_2_778
10
29.77552
20
132.6348414
40
0.8508157
50
134.7432392
51
164.7985856
0
ARC
8
DEFAULT_255_2_778
10
30.2096881
20
132.5000215
40
1.305245
50
164.0848947
51
175.2613439
0
ARC
8
DEFAULT_255_2_778
10
29.4302232
20
132.1515738
40
0.6927916
50
92.5238911
51
138.8065251
0
ARC
8
DEFAULT_255_2_778
10
29.4757479
20
131.8329687
40
1.0135804
50
89.9515787
51
94.3020141
0
ARC
8
DEFAULT_255_2_778
10
29.4912433
20
132.1075317
40
0.7391622
50
63.270457
51
91.1347902
0
ARC
8
DEFAULT_255_2_778
10
29.5110043
20
132.1749902
40
0.6701445
50
39.8214565
51
62.1852456
0
ARC
8
DEFAULT_255_2_778
10
29.360695
20
132.0518785
40
0.8644306
50
7.2716418
51
39.7086112
0
ARC
8
DEFAULT_255_2_778
10
28.9778225
20
131.9823781
40
1.2531881
50
359.8203591
51
8.2080246
0
ARC
8
DEFAULT_255_2_778
10
29.0684445
20
131.9651791
40
1.1626358
50
344.0473784
51
0.6539636
0
ARC
8
DEFAULT_255_2_778
10
29.406225
20
131.8705347
40
0.8118532
50
317.995257
51
343.9177474
0
ARC
8
DEFAULT_255_2_778
10
29.4616216
20
131.8263466
40
0.7411303
50
272.5846639
51
317.6678294
0
ARC
8
DEFAULT_255_2_778
10
29.4161532
20
132.1495701
40
1.0665216
50
269.9544085
51
274.2420195
0
ARC
8
DEFAULT_255_2_778
10
29.3957009
20
131.8342163
40
0.7514232
50
217.8303891
51
271.4949359
0
ARC
8
DEFAULT_255_2_778
10
29.6136991
20
132.0194721
40
1.0373036
50
189.6706974
51
218.5272851
0
ARC
8
DEFAULT_255_2_778
10
30.072293
20
132.1137776
40
1.505307
50
179.715621
51
190.2769825
0
ARC
8
DEFAULT_255_2_778
10
31.3595499
20
132.2619688
40
2.7925726
50
172.3960715
51
180.2527697
0
ARC
8
DEFAULT_255_2_778
10
30.4247812
20
132.3908132
40
1.8489789
50
160.9515181
51
172.5206044
0
ARC
8
DEFAULT_255_2_778
10
29.8434067
20
132.5962543
40
1.2323975
50
141.6359634
51
161.1583867
0
ARC
8
DEFAULT_255_2_778
10
29.6635695
20
132.7217736
40
1.0135719
50
103.2841345
51
140.8898
0
ARC
8
DEFAULT_255_2_778
10
29.8092125
20
132.1837046
40
1.5708137
50
90.5467277
51
103.9446561
0
ARC
8
DEFAULT_255_2_778
10
29.8290547
20
131.8069233
40
1.9478349
50
90.8398373
51
91.0246108
0
ARC
8
DEFAULT_255_2_778
10
29.4194309
20
132.0348165
40
0.5333335
50
89.8846602
51
126.2448234
0
ARC
8
DEFAULT_255_2_778
10
29.40852
20
132.0213857
40
0.5379751
50
124.4616425
51
159.9019413
0
ARC
8
DEFAULT_255_2_778
10
29.9953339
20
132.0701387
40
1.0921069
50
179.3174207
51
194.842926
0
ARC
8
DEFAULT_255_2_778
10
29.620648
20
131.9724237
40
0.7048936
50
194.9671988
51
215.9345912
0
ARC
8
DEFAULT_255_2_778
10
29.4463919
20
131.8328229
40
0.4819946
50
214.6543746
51
247.2260872
0
ARC
8
DEFAULT_255_2_778
10
29.4121949
20
131.7805277
40
0.4206902
50
248.7635877
51
270.4235099
0
ARC
8
DEFAULT_255_2_778
10
29.432843
20
131.7849216
40
0.4254343
50
267.6373155
51
322.5535113
0
ARC
8
DEFAULT_255_2_778
10
29.2728356
20
131.9001194
40
0.6225376
50
323.0900681
51
353.526351
0
ARC
8
DEFAULT_255_2_778
10
28.9299814
20
131.9588552
40
0.9700279
50
352.3623225
51
0.1827318
0
ARC
8
DEFAULT_255_2_778
10
29.0712839
20
131.9749127
40
0.828822
50
359.1037905
51
18.2331037
0
ARC
8
DEFAULT_255_2_778
10
29.3182493
20
132.0504477
40
0.5706495
50
18.7882366
51
37.8567042
0
ARC
8
DEFAULT_255_2_778
10
29.4328531
20
132.1471949
40
0.4208353
50
37.0322396
51
91.6814705
0
LINE
8
DEFAULT_255_2_778
10
29.8005045
20
133.7545489
11
29.8603045
21
133.7545489
0
LINE
8
DEFAULT_255_2_778
10
29.8603045
20
133.7545489
11
29.8603045
21
133.4706489
0
LINE
8
DEFAULT_255_2_778
10
29.8603045
20
133.4706489
11
29.7989045
21
133.4706489
0
LINE
8
DEFAULT_255_2_778
10
28.5670045
20
132.1212489
11
28.5670045
21
132.2496489
0
LINE
8
DEFAULT_255_2_778
10
29.8005045
20
133.7545489
11
29.8005045
21
133.7545489
0
LINE
8
DEFAULT_255_2_778
10
28.9033045
20
132.2062489
11
28.9033045
21
132.0831489
0
LINE
8
DEFAULT_255_2_778
10
29.4205045
20
132.5678489
11
29.4205045
21
132.5681489
0
LINE
8
DEFAULT_255_2_778
10
31.7267136
20
133.7653489
11
31.7267136
21
131.1192489
0
LINE
8
DEFAULT_255_2_778
10
31.7267136
20
131.1192489
11
31.3904136
21
131.1192489
0
LINE
8
DEFAULT_255_2_778
10
31.3904136
20
131.1192489
11
31.3904136
21
133.3494489
0
LINE
8
DEFAULT_255_2_778
10
31.3904136
20
133.3494489
11
30.7157136
21
133.1015489
0
LINE
8
DEFAULT_255_2_778
10
30.7157136
20
133.1015489
11
30.7157136
21
133.4055489
0
LINE
8
DEFAULT_255_2_778
10
30.7157136
20
133.4055489
11
31.6743136
21
133.7653489
0
LINE
8
DEFAULT_255_2_778
10
31.6743136
20
133.7653489
11
31.7267136
21
133.7653489
0
LINE
8
DEFAULT_255_2_778
10
31.7267136
20
133.7653489
11
31.7267136
21
133.7653489
0
ENDSEC
0
EOF