0
SECTION
2
HEADER
9
$MEASUREMENT
70
1
0
ENDSEC
0
SECTION
2
TABLES
0
TABLE
2
LTYPE
0
LTYPE
72
65
70
64
2
CONTINUOUS
3
______
73
0
40
0
0
ENDTAB
0
TABLE
2
LAYER
0
LAYER
2
DEFAULT_255_2_778
70
0
62
255
6
CONTINUOUS
0
ENDTAB
0
ENDSEC
0
SECTION
2
ENTITIES
0
LINE
8
DEFAULT_255_2_778
10
14.4521299
20
1.7449654
11
8.3765299
21
1.7449654
0
LINE
8
DEFAULT_255_2_778
10
8.3765299
20
1.7449654
11
8.3765299
21
4.1870654
0
LINE
8
DEFAULT_255_2_778
10
8.3765299
20
4.1870654
11
14.2357299
21
4.1870654
0
LINE
8
DEFAULT_255_2_778
10
14.2357299
20
4.1870654
11
14.2357299
21
6.0888654
0
LINE
8
DEFAULT_255_2_778
10
14.2357299
20
6.0888654
11
8.3765299
21
6.0888654
0
LINE
8
DEFAULT_255_2_778
10
8.3765299
20
6.0888654
11
8.3765299
21
8.5936654
0
LINE
8
DEFAULT_255_2_778
10
8.3765299
20
8.5936654
11
14.4521299
21
8.5936654
0
LINE
8
DEFAULT_255_2_778
10
14.4521299
20
8.5936654
11
14.4521299
21
10.5727654
0
LINE
8
DEFAULT_255_2_778
10
14.4521299
20
10.5727654
11
6.3506299
21
10.5727654
0
LINE
8
DEFAULT_255_2_778
10
6.3506299
20
10.5727654
11
6.3506299
21
-0.2645346
0
LINE
8
DEFAULT_255_2_778
10
6.3506299
20
-0.2645346
11
14.4521299
21
-0.2645346
0
LINE
8
DEFAULT_255_2_778
10
14.4521299
20
-0.2645346
11
14.4521299
21
1.7449654
0
LINE
8
DEFAULT_255_2_778
10
14.4521299
20
1.7449654
11
14.4521299
21
1.7449654
0
ARC
8
DEFAULT_255_2_778
10
10.6015641
20
6.7815573
40
9.0621873
50
138.8671128
51
147.3230894
0
ARC
8
DEFAULT_255_2_778
10
10.5377039
20
6.8352648
40
8.9787595
50
128.5270463
51
138.8571836
0
ARC
8
DEFAULT_255_2_778
10
10.613276
20
6.7322545
40
9.1064201
50
112.0335149
51
128.4953209
0
ARC
8
DEFAULT_255_2_778
10
10.7058297
20
6.5012843
40
9.3552428
50
89.9766516
51
112.0282837
0
ARC
8
DEFAULT_255_2_778
10
10.7096642
20
6.4594824
40
9.3970439
50
86.1553203
51
90.0001352
0
ARC
8
DEFAULT_255_2_778
10
10.7162767
20
6.5573024
40
9.2990006
50
86.0299446
51
86.1555582
0
ARC
8
DEFAULT_255_2_778
10
10.7105712
20
6.4707937
40
9.3856969
50
78.6207542
51
86.0317609
0
ARC
8
DEFAULT_255_2_778
10
10.7113056
20
6.4753981
40
9.3810381
50
72.3110488
51
78.6196031
0
ARC
8
DEFAULT_255_2_778
10
10.7024825
20
6.448426
40
9.4094158
50
66.7439728
51
72.3097674
0
ARC
8
DEFAULT_255_2_778
10
10.6890912
20
6.4161562
40
9.4443511
50
65.831156
51
66.746631
0
ARC
8
DEFAULT_255_2_778
10
9.2749329
20
7.4220055
40
9.2657831
50
57.3192438
51
62.4521849
0
ARC
8
DEFAULT_255_2_778
10
9.3334998
20
7.5339705
40
9.1394255
50
62.45309
51
68.4129584
0
ARC
8
DEFAULT_255_2_778
10
9.3574577
20
7.5935923
40
9.0751713
50
68.4151163
51
75.2669622
0
ARC
8
DEFAULT_255_2_778
10
9.3581004
20
7.5940869
40
9.0745293
50
75.2700924
51
83.4963107
0
ARC
8
DEFAULT_255_2_778
10
9.3547191
20
7.5672012
40
9.1016251
50
83.4943323
51
86.6783989
0
ARC
8
DEFAULT_255_2_778
10
9.3536237
20
7.5482675
40
9.1205904
50
86.6784203
51
90.0006056
0
ARC
8
DEFAULT_255_2_778
10
9.3516495
20
7.5318596
40
9.1369985
50
89.9882251
51
122.4820328
0
ARC
8
DEFAULT_255_2_778
10
9.2890066
20
7.6450121
40
9.0079098
50
122.532433
51
133.2375969
0
ARC
8
DEFAULT_255_2_778
10
9.3137733
20
7.620603
40
9.0426581
50
133.2459743
51
142.0042763
0
ARC
8
DEFAULT_255_2_778
10
9.4216695
20
7.5356799
40
9.1799654
50
142.0011367
51
147.2949897
0
ARC
8
DEFAULT_255_2_778
10
9.3976426
20
7.5480866
40
9.1530444
50
147.2790757
51
152.5116937
0
ARC
8
DEFAULT_255_2_778
10
9.2930422
20
7.60273
40
9.0350312
50
152.5129256
51
158.584387
0
ARC
8
DEFAULT_255_2_778
10
9.2467819
20
7.6213226
40
8.9851761
50
158.5870514
51
165.6318103
0
ARC
8
DEFAULT_255_2_778
10
9.2688741
20
7.6163672
40
9.0078072
50
165.6361476
51
174.2970416
0
ARC
8
DEFAULT_255_2_778
10
9.3144763
20
7.611126
40
9.0537046
50
174.2927146
51
177.1446151
0
ARC
8
DEFAULT_255_2_778
10
9.3405683
20
7.6098338
40
9.0798285
50
177.1446732
51
180.0006519
0
ARC
8
DEFAULT_255_2_778
10
9.4164925
20
7.6132257
40
9.1557534
50
180.0218725
51
210.363399
0
ARC
8
DEFAULT_255_2_778
10
9.3495663
20
7.5765136
40
9.07945
50
210.3769886
51
221.806399
0
ARC
8
DEFAULT_255_2_778
10
9.36496
20
7.5919015
40
9.1011823
50
221.8140073
51
230.5095443
0
ARC
8
DEFAULT_255_2_778
10
9.450535
20
7.6963451
40
9.2362059
50
230.5119016
51
237.3383194
0
ARC
8
DEFAULT_255_2_778
10
7.8895906
20
5.290546
40
6.3684444
50
237.4801088
51
239.4401959
0
ARC
8
DEFAULT_255_2_778
10
29.1711263
20
41.1235545
40
48.0446576
50
239.3129924
51
239.4538221
0
ARC
8
DEFAULT_255_2_778
10
10.9666191
20
6.8411908
40
9.4307911
50
220.2199506
51
228.788751
0
ARC
8
DEFAULT_255_2_778
10
10.9454585
20
6.8223847
40
9.4024898
50
209.4348136
51
220.2157096
0
ARC
8
DEFAULT_255_2_778
10
10.9464601
20
6.8236102
40
9.4039643
50
193.853539
51
209.4383177
0
ARC
8
DEFAULT_255_2_778
10
10.8325113
20
6.7976778
40
9.2871211
50
180.0250181
51
193.8665315
0
ARC
8
DEFAULT_255_2_778
10
10.7140935
20
6.793701
40
9.1687024
50
178.1185245
51
180.0004902
0
ARC
8
DEFAULT_255_2_778
10
10.613529
20
6.7995674
40
9.0679999
50
167.0756858
51
178.1347091
0
ARC
8
DEFAULT_255_2_778
10
10.5197745
20
6.8191597
40
8.9722387
50
159.1317313
51
167.0637214
0
ARC
8
DEFAULT_255_2_778
10
10.5365114
20
6.8119738
40
8.9904376
50
152.5082589
51
159.126936
0
ARC
8
DEFAULT_255_2_778
10
10.6282421
20
6.7640643
40
9.0939257
50
147.3226587
51
152.5072847
0
LINE
8
DEFAULT_255_2_778
10
14.5558634
20
15.0326428
11
14.2780634
21
15.2209428
0
ENDSEC
0
EOF