0
SECTION
2
HEADER
9
$MEASUREMENT
70
1
0
ENDSEC
0
SECTION
2
TABLES
0
TABLE
2
LTYPE
0
LTYPE
72
65
70
64
2
CONTINUOUS
3
______
73
0
40
0
0
ENDTAB
0
TABLE
2
LAYER
0
LAYER
2
DEFAULT_255_2_778
70
0
62
255
6
CONTINUOUS
0
ENDTAB
0
ENDSEC
0
SECTION
2
ENTITIES
0
LINE
8
DEFAULT_255_2_778
10
12.9848458
20
1.3095562
11
14.1471458
21
1.3095562
0
LINE
8
DEFAULT_255_2_778
10
14.1471458
20
1.3095562
11
14.1471458
21
-0.2427438
0
LINE
8
DEFAULT_255_2_778
10
14.1471458
20
-0.2427438
11
15.8058458
21
-0.2427438
0
LINE
8
DEFAULT_255_2_778
10
15.8058458
20
-0.2427438
11
15.8058458
21
1.3095562
0
LINE
8
DEFAULT_255_2_778
10
15.8058458
20
1.3095562
11
14.8453458
21
1.3095562
0
LINE
8
DEFAULT_255_2_778
10
14.8453458
20
1.3095562
11
16.4754458
21
3.3206562
0
LINE
8
DEFAULT_255_2_778
10
16.4754458
20
3.3206562
11
18.1076458
21
1.3095562
0
LINE
8
DEFAULT_255_2_778
10
18.1076458
20
1.3095562
11
17.1459458
21
1.3095562
0
LINE
8
DEFAULT_255_2_778
10
17.1459458
20
1.3095562
11
17.1459458
21
-0.2427438
0
LINE
8
DEFAULT_255_2_778
10
17.1459458
20
-0.2427438
11
20.9210458
21
-0.2427438
0
LINE
8
DEFAULT_255_2_778
10
20.9210458
20
-0.2427438
11
20.9210458
21
1.3095562
0
LINE
8
DEFAULT_255_2_778
10
20.9210458
20
1.3095562
11
20.2129458
21
1.3095562
0
LINE
8
DEFAULT_255_2_778
10
20.2129458
20
1.3095562
11
17.5279458
21
4.6186562
0
LINE
8
DEFAULT_255_2_778
10
17.5279458
20
4.6186562
11
20.1097458
21
7.8040562
0
LINE
8
DEFAULT_255_2_778
10
20.1097458
20
7.8040562
11
20.9212458
21
7.8040562
0
LINE
8
DEFAULT_255_2_778
10
20.9212458
20
7.8040562
11
20.9212458
21
9.3187562
0
LINE
8
DEFAULT_255_2_778
10
20.9212458
20
9.3187562
11
17.1461458
21
9.3187562
0
LINE
8
DEFAULT_255_2_778
10
17.1461458
20
9.3187562
11
17.1461458
21
7.8037562
0
LINE
8
DEFAULT_255_2_778
10
17.1461458
20
7.8037562
11
18.0037458
21
7.8037562
0
LINE
8
DEFAULT_255_2_778
10
18.0037458
20
7.8037562
11
16.4744458
21
5.9164562
0
LINE
8
DEFAULT_255_2_778
10
16.4744458
20
5.9164562
11
14.9435458
21
7.8032562
0
LINE
8
DEFAULT_255_2_778
10
14.9435458
20
7.8032562
11
15.8055458
21
7.8032562
0
LINE
8
DEFAULT_255_2_778
10
15.8055458
20
7.8032562
11
15.8055458
21
9.3187562
0
LINE
8
DEFAULT_255_2_778
10
15.8055458
20
9.3187562
11
12.9845458
21
9.3187562
0
LINE
8
DEFAULT_255_2_778
10
12.9845458
20
9.3187562
11
12.9845458
21
7.6225562
0
LINE
8
DEFAULT_255_2_778
10
12.9845458
20
7.6225562
11
15.4221458
21
4.6184562
0
LINE
8
DEFAULT_255_2_778
10
15.4221458
20
4.6184562
11
12.9845458
21
1.6114562
0
LINE
8
DEFAULT_255_2_778
10
12.9845458
20
1.6114562
11
12.9848458
21
1.3095562
0
LINE
8
DEFAULT_255_2_778
10
12.9847053
20
7.6225894
11
12.9847053
21
9.3187894
0
LINE
8
DEFAULT_255_2_778
10
12.9847053
20
9.3187894
11
12.0116053
21
9.3187894
0
LINE
8
DEFAULT_255_2_778
10
12.0116053
20
9.3187894
11
12.0116053
21
7.8037894
0
LINE
8
DEFAULT_255_2_778
10
12.0116053
20
7.8037894
11
12.8374053
21
7.8037894
0
LINE
8
DEFAULT_255_2_778
10
12.8374053
20
7.8037894
11
12.9847053
21
7.6225894
0
LINE
8
DEFAULT_255_2_778
10
14.1468053
20
1.3092894
11
12.9845053
21
1.3092894
0
LINE
8
DEFAULT_255_2_778
10
12.9845053
20
1.3092894
11
12.9845053
21
1.6117894
0
LINE
8
DEFAULT_255_2_778
10
12.9845053
20
1.6117894
11
12.7392053
21
1.3092894
0
LINE
8
DEFAULT_255_2_778
10
12.7392053
20
1.3092894
11
12.0116053
21
1.3092894
0
LINE
8
DEFAULT_255_2_778
10
12.0116053
20
1.3092894
11
12.0116053
21
-0.2430106
0
LINE
8
DEFAULT_255_2_778
10
12.0116053
20
-0.2430106
11
14.1465053
21
-0.2430106
0
LINE
8
DEFAULT_255_2_778
10
14.1465053
20
-0.2430106
11
14.1468053
21
1.3092894
0
ARC
8
DEFAULT_255_2_778
10
3.886727
20
3.3921128
40
3.6712717
50
318.4624972
51
338.0660531
0
ARC
8
DEFAULT_255_2_778
10
9.3617271
20
3.46122
40
3.7019209
50
202.8993029
51
222.5542501
0
ARC
8
DEFAULT_255_2_778
10
9.356304
20
3.4651578
40
3.6955138
50
137.429626
51
164.0729548
0
ARC
8
DEFAULT_255_2_778
10
3.8416704
20
3.4756778
40
2.2028674
50
16.3868992
51
27.1021197
0
ARC
8
DEFAULT_255_2_778
10
9.3315115
20
3.4684327
40
2.1439188
50
152.0449765
51
162.946855
0
ARC
8
DEFAULT_255_2_778
10
3.8652697
20
3.5126978
40
3.6994188
50
15.0525593
51
41.5237552
0
ARC
8
DEFAULT_255_2_778
10
3.7674813
20
3.4626179
40
2.2770581
50
0.0001554
51
16.1884334
0
ARC
8
DEFAULT_255_2_778
10
3.7539195
20
3.462624
40
2.2906199
50
359.7605699
51
359.9999995
0
ARC
8
DEFAULT_255_2_778
10
3.7683077
20
3.4625954
40
2.2762315
50
344.718165
51
359.7597774
0
ARC
8
DEFAULT_255_2_778
10
9.3604923
20
3.462112
40
2.175556
50
180.1715542
51
195.9943055
0
ARC
8
DEFAULT_255_2_778
10
9.3245099
20
3.462074
40
2.1395737
50
179.9982485
51
180.1734216
0
ARC
8
DEFAULT_255_2_778
10
9.3606089
20
3.4621644
40
2.1756727
50
163.0224197
51
180.0006583
0
ARC
8
DEFAULT_255_2_778
10
9.4028712
20
3.4617165
40
3.7422132
50
170.2189761
51
179.9994865
0
ARC
8
DEFAULT_255_2_778
10
9.506742
20
3.4618633
40
3.8460841
50
180.0016868
51
180.1028922
0
ARC
8
DEFAULT_255_2_778
10
9.4000214
20
3.461704
40
3.7393634
50
180.1033888
51
189.2185464
0
ARC
8
DEFAULT_255_2_778
10
3.764121
20
3.4628655
40
2.2803415
50
344.7393463
51
359.8180464
0
ARC
8
DEFAULT_255_2_778
10
3.7412384
20
3.4628065
40
2.3032238
50
359.8213199
51
359.9999998
0
ARC
8
DEFAULT_255_2_778
10
3.7675772
20
3.4629077
40
2.2768851
50
359.997453
51
16.1821009
0
LINE
8
DEFAULT_255_2_778
10
5.951554
20
2.0207554
11
7.292254
21
2.0207554
0
LINE
8
DEFAULT_255_2_778
10
5.955054
20
4.0971554
11
7.281854
21
4.0971554
0
LINE
8
DEFAULT_255_2_778
10
6.634954
20
5.9651554
11
6.634754
21
5.9651554
0
LINE
8
DEFAULT_255_2_778
10
5.964054
20
2.8626554
11
7.269154
21
2.8626554
0
LINE
8
DEFAULT_255_2_778
10
7.279754
20
4.0974554
11
5.954254
21
4.0974554
0
LINE
8
DEFAULT_255_2_778
10
5.954254
20
4.0974554
11
5.715054
21
4.0974554
0
LINE
8
DEFAULT_255_2_778
10
5.708954
20
2.8626554
11
5.964054
21
2.8626554
0
LINE
8
DEFAULT_255_2_778
10
5.954254
20
4.0974554
11
5.954254
21
4.0974554
0
ARC
8
DEFAULT_255_2_778
10
9.3826789
20
3.6052906
40
3.5608665
50
54.3221281
51
90.0008619
0
ARC
8
DEFAULT_255_2_778
10
9.3826271
20
3.6001329
40
3.5660243
50
90.000029
51
90.2820248
0
ARC
8
DEFAULT_255_2_778
10
9.360226
20
3.7121946
40
3.4539227
50
89.9195729
51
90.0022971
0
ARC
8
DEFAULT_255_2_778
10
9.3599848
20
3.4731613
40
3.692956
50
89.9984068
51
137.5730269
0
ARC
8
DEFAULT_255_2_778
10
3.8637882
20
3.5147068
40
3.6981793
50
15.0168084
51
41.4879911
0
ARC
8
DEFAULT_255_2_778
10
9.3463853
20
3.4619242
40
2.161693
50
90.9963096
51
152.1159213
0
ARC
8
DEFAULT_255_2_778
10
9.3462889
20
3.451666
40
2.1719481
50
89.9999797
51
90.9890617
0
LINE
8
DEFAULT_255_2_778
10
9.3462897
20
5.6236142
11
9.3473743
21
5.6236139
0
ARC
8
DEFAULT_255_2_778
10
9.3526159
20
3.5155029
40
2.1081176
50
69.7230844
51
90.1424591
0
ARC
8
DEFAULT_255_2_778
10
9.3352495
20
3.5130822
40
2.1164631
50
14.1517821
51
69.3047941
0
ARC
8
DEFAULT_255_2_778
10
9.1970386
20
3.4643381
40
2.2624372
50
359.9335437
51
14.4929947
0
ARC
8
DEFAULT_255_2_778
10
9.2187025
20
3.4567668
40
2.240782
50
338.8687796
51
359.8273332
0
ARC
8
DEFAULT_255_2_778
10
9.3502534
20
3.3943209
40
2.0955927
50
281.5453956
51
339.1646665
0
ARC
8
DEFAULT_255_2_778
10
9.3494621
20
3.4418072
40
2.1422942
50
269.9441603
51
281.3119408
0
LINE
8
DEFAULT_255_2_778
10
9.3473743
20
1.2995139
11
9.3465606
21
1.2995138
0
ARC
8
DEFAULT_255_2_778
10
9.3464899
20
3.4613839
40
2.1618701
50
208.8808383
51
270.0018732
0
ARC
8
DEFAULT_255_2_778
10
9.3557459
20
3.4663565
40
2.1723765
50
207.888741
51
208.8777674
0
ARC
8
DEFAULT_255_2_778
10
9.330234
20
3.4564313
40
2.1451876
50
196.0895868
51
207.9731661
0
ARC
8
DEFAULT_255_2_778
10
9.349137
20
3.4544634
40
3.6874831
50
189.247071
51
202.8757388
0
ARC
8
DEFAULT_255_2_778
10
3.8845962
20
3.3930834
40
3.6726054
50
318.4660902
51
338.0624565
0
ARC
8
DEFAULT_255_2_778
10
9.3597859
20
3.4499038
40
3.6933931
50
222.4320674
51
270.0000252
0
ARC
8
DEFAULT_255_2_778
10
9.359926
20
3.2104327
40
3.4539222
50
269.9977029
51
270.0804271
0
ARC
8
DEFAULT_255_2_778
10
9.3828162
20
3.3100866
40
3.5536185
50
269.7091056
51
270.000592
0
ARC
8
DEFAULT_255_2_778
10
9.3831449
20
3.3156447
40
3.5591765
50
269.9952996
51
317.5984847
0
ARC
8
DEFAULT_255_2_778
10
9.3639334
20
3.3378646
40
3.5882319
50
305.7326405
51
317.5524683
0
ARC
8
DEFAULT_255_2_778
10
9.2841582
20
3.4824009
40
3.6213213
50
164.025648
51
170.2284215
0
ARC
8
DEFAULT_255_2_778
10
3.8828238
20
3.4918829
40
2.1583173
50
16.2823883
51
27.2169732
0
LINE
8
DEFAULT_255_2_778
10
12.8374743
20
7.8038139
11
12.0116743
21
7.8038139
0
LINE
8
DEFAULT_255_2_778
10
12.0116743
20
7.8038139
11
12.0116743
21
9.3185139
0
LINE
8
DEFAULT_255_2_778
10
12.0116743
20
9.3185139
11
10.4522743
21
9.3185139
0
LINE
8
DEFAULT_255_2_778
10
10.4522743
20
9.3185139
11
10.4522743
21
7.8038139
0
LINE
8
DEFAULT_255_2_778
10
10.4522743
20
7.8038139
11
11.4594743
21
7.8038139
0
LINE
8
DEFAULT_255_2_778
10
11.4594743
20
7.8038139
11
11.4594743
21
6.4978139
0
LINE
8
DEFAULT_255_2_778
10
11.4594743
20
3.4617139
11
11.4594743
21
3.4500139
0
LINE
8
DEFAULT_255_2_778
10
7.2690743
20
2.8619139
11
5.7095743
21
2.8619139
0
LINE
8
DEFAULT_255_2_778
10
5.9516743
20
2.0210139
11
7.2912743
21
2.0210139
0
LINE
8
DEFAULT_255_2_778
10
12.0113743
20
0.9156139
11
12.0113743
21
1.3082139
0
LINE
8
DEFAULT_255_2_778
10
12.0113743
20
1.3082139
11
12.7379743
21
1.3082139
0
LINE
8
DEFAULT_255_2_778
10
12.7379743
20
1.3082139
11
12.9832743
21
1.6109139
0
LINE
8
DEFAULT_255_2_778
10
12.9832743
20
1.6109139
11
12.9832743
21
7.6223139
0
LINE
8
DEFAULT_255_2_778
10
12.9832743
20
7.6223139
11
12.8374743
21
7.8038139
0
LINE
8
DEFAULT_255_2_778
10
11.4600743
20
0.4253139
11
11.4600743
21
-0.2450861
0
LINE
8
DEFAULT_255_2_778
10
11.4600743
20
-0.2450861
11
12.0116743
21
-0.2450861
0
LINE
8
DEFAULT_255_2_778
10
12.0116743
20
-0.2450861
11
12.0116743
21
0.9161139
0
LINE
8
DEFAULT_255_2_778
10
11.4594743
20
0.4251139
11
11.4600743
21
0.4253139
0
LINE
8
DEFAULT_255_2_778
10
5.7153743
20
4.0970139
11
5.9545743
21
4.0970139
0
LINE
8
DEFAULT_255_2_778
10
5.8021743
20
4.4790139
11
5.8026743
21
4.4790139
0
ARC
8
DEFAULT_255_2_778
10
3.7739517
20
3.4827754
40
3.7940333
50
9.3159239
51
15.1314117
0
ARC
8
DEFAULT_255_2_778
10
9.3309508
20
3.4676456
40
2.1448043
50
152.0430731
51
162.9379581
0
ARC
8
DEFAULT_255_2_778
10
9.36152
20
3.461684
40
2.1757797
50
163.0240678
51
179.9990776
0
ARC
8
DEFAULT_255_2_778
10
9.3746369
20
3.4617827
40
2.1888966
50
180.0016668
51
180.181653
0
ARC
8
DEFAULT_255_2_778
10
9.3606546
20
3.4617144
40
2.1749143
50
180.1810236
51
196.0049475
0
ARC
8
DEFAULT_255_2_778
10
3.6382951
20
3.4618785
40
3.9314776
50
351.2240104
51
359.9037354
0
ARC
8
DEFAULT_255_2_778
10
3.6850949
20
3.4618693
40
3.8846778
50
359.9027119
51
360
0
ARC
8
DEFAULT_255_2_778
10
3.637543
20
3.4618381
40
3.9322296
50
0.0004537
51
9.2947559
0
ARC
8
DEFAULT_255_2_778
10
3.9477953
20
3.4663148
40
3.6997323
50
89.9620701
51
108.3609523
0
ARC
8
DEFAULT_255_2_778
10
3.9531213
20
3.4581005
40
3.7092069
50
108.3990646
51
160.1361402
0
ARC
8
DEFAULT_255_2_778
10
3.9610376
20
3.4601257
40
3.7159669
50
160.206983
51
170.1322765
0
ARC
8
DEFAULT_255_2_778
10
3.9286921
20
3.4641509
40
2.1582014
50
133.3034929
51
162.9500693
0
ARC
8
DEFAULT_255_2_778
10
3.9322273
20
3.4626281
40
2.1617347
50
94.1825323
51
133.3439975
0
ARC
8
DEFAULT_255_2_778
10
3.9324437
20
3.4504226
40
2.1739238
50
89.9973415
51
94.1647588
0
ARC
8
DEFAULT_255_2_778
10
3.941305
20
3.5388956
40
2.0854691
50
90.0000386
51
90.2406826
0
ARC
8
DEFAULT_255_2_778
10
3.9413438
20
3.539588
40
2.0847766
50
27.92901
51
90.0011049
0
ARC
8
DEFAULT_255_2_778
10
3.9321979
20
3.53503
40
2.0949922
50
26.7887031
51
27.921992
0
ARC
8
DEFAULT_255_2_778
10
9.358119
20
3.4639588
40
3.6978832
50
137.4383165
51
164.0642594
0
ARC
8
DEFAULT_255_2_778
10
3.9696972
20
3.6107515
40
3.5558477
50
41.4616896
51
90.0001707
0
ARC
8
DEFAULT_255_2_778
10
3.9696529
20
3.6129716
40
3.5536277
50
89.9994568
51
90.3129263
0
ARC
8
DEFAULT_255_2_778
10
3.9428006
20
3.3758656
40
2.0772481
50
270.0051528
51
319.258177
0
ARC
8
DEFAULT_255_2_778
10
3.9429891
20
3.3781729
40
2.0795553
50
269.6984557
51
269.9999551
0
LINE
8
DEFAULT_255_2_778
10
3.9320446
20
1.2986463
11
3.9313647
21
1.2986462
0
ARC
8
DEFAULT_255_2_778
10
3.9300767
20
3.4557706
40
2.1571248
50
240.9739737
51
270.0342109
0
ARC
8
DEFAULT_255_2_778
10
3.9306868
20
3.4597705
40
2.1609188
50
200.6008213
51
241.0112879
0
ARC
8
DEFAULT_255_2_778
10
3.9430651
20
3.4636066
40
2.1738555
50
196.078557
51
200.5806706
0
ARC
8
DEFAULT_255_2_778
10
9.4000119
20
3.4605949
40
3.7393633
50
180.1033888
51
189.2185464
0
ARC
8
DEFAULT_255_2_778
10
9.5067326
20
3.4607542
40
3.8460841
50
180.0016868
51
180.1028922
0
ARC
8
DEFAULT_255_2_778
10
9.4028618
20
3.4606074
40
3.7422133
50
170.2189761
51
179.9994865
0
ARC
8
DEFAULT_255_2_778
10
3.9876618
20
3.4606074
40
3.7422132
50
170.2189761
51
179.9994865
0
ARC
8
DEFAULT_255_2_778
10
4.0915326
20
3.4607542
40
3.8460841
50
180.0016868
51
180.1028922
0
ARC
8
DEFAULT_255_2_778
10
3.9848119
20
3.4605949
40
3.7393634
50
180.1033888
51
189.2185464
0
ARC
8
DEFAULT_255_2_778
10
3.9447435
20
3.4589472
40
3.6995514
50
189.292769
51
207.5865873
0
ARC
8
DEFAULT_255_2_778
10
3.9521465
20
3.4658806
40
3.7093246
50
207.628554
51
259.9125965
0
ARC
8
DEFAULT_255_2_778
10
3.9489459
20
3.4744433
40
3.7171973
50
259.9842836
51
270.0169342
0
ARC
8
DEFAULT_255_2_778
10
3.9688278
20
3.3281954
40
3.5709985
50
269.6986254
51
269.9993431
0
ARC
8
DEFAULT_255_2_778
10
3.9687514
20
3.3129952
40
3.5557982
50
270.0005716
51
318.5622377
0
ARC
8
DEFAULT_255_2_778
10
9.3631392
20
3.4640968
40
3.7037205
50
202.9007414
51
222.545195
0
LINE
8
DEFAULT_255_2_778
10
7.2700446
20
2.8620463
11
7.5237446
21
2.8620463
0
LINE
8
DEFAULT_255_2_778
10
7.5181446
20
4.0969463
11
7.5179446
21
4.0969463
0
LINE
8
DEFAULT_255_2_778
10
0.3000446
20
4.0969463
11
1.8653446
21
4.0969463
0
LINE
8
DEFAULT_255_2_778
10
3.9502446
20
7.1665463
11
3.9502446
21
7.1660463
0
LINE
8
DEFAULT_255_2_778
10
1.8542446
20
2.8615463
11
5.7089446
21
2.8615463
0
LINE
8
DEFAULT_255_2_778
10
5.7150446
20
4.0963463
11
0.2998446
21
4.0963463
0
LINE
8
DEFAULT_255_2_778
10
5.9513446
20
2.0228463
11
5.5168446
21
2.0228463
0
LINE
8
DEFAULT_255_2_778
10
5.5168446
20
2.0228463
11
5.5166446
21
2.0201463
0
ENDSEC
0
EOF