0
SECTION
2
HEADER
9
$MEASUREMENT
70
1
0
ENDSEC
0
SECTION
2
TABLES
0
TABLE
2
LTYPE
0
LTYPE
72
65
70
64
2
CONTINUOUS
3
______
73
0
40
0
0
ENDTAB
0
TABLE
2
LAYER
0
LAYER
2
DEFAULT_255_2_778
70
0
62
255
6
CONTINUOUS
0
ENDTAB
0
ENDSEC
0
SECTION
2
ENTITIES
0
ARC
8
DEFAULT_255_2_778
10
8.3117969
20
13.7109586
40
2.4330765
50
67.3030009
51
89.6059575
0
ARC
8
DEFAULT_255_2_778
10
8.0087058
20
12.9392037
40
3.2620659
50
57.538452
51
67.6221177
0
ARC
8
DEFAULT_255_2_778
10
7.4749495
20
12.0919841
40
4.263396
50
50.2327151
51
57.5972236
0
ARC
8
DEFAULT_255_2_778
10
6.6777561
20
11.1292838
40
5.5133168
50
44.4194437
51
50.2644069
0
ARC
8
DEFAULT_255_2_778
10
5.5875745
20
10.0580354
40
7.0417362
50
39.5143452
51
44.4365225
0
ARC
8
DEFAULT_255_2_778
10
4.1377117
20
8.8614798
40
8.9215894
50
35.0453365
51
39.5181655
0
ARC
8
DEFAULT_255_2_778
10
2.2777354
20
7.5555733
40
11.1942315
50
30.956576
51
35.050962
0
ARC
8
DEFAULT_255_2_778
10
-0.0256662
20
6.1753361
40
13.8795085
50
26.7953138
51
30.9515804
0
ARC
8
DEFAULT_255_2_778
10
-3.3935676
20
4.5088887
40
17.6370426
50
19.1643219
51
26.695398
0
ARC
8
DEFAULT_255_2_778
10
-4.4571434
20
4.1031265
40
18.7749099
50
16.9215802
51
19.2684655
0
ARC
8
DEFAULT_255_2_778
10
-3.7851178
20
4.306373
40
18.072823
50
14.9167815
51
16.925241
0
ARC
8
DEFAULT_255_2_778
10
-2.6506903
20
4.6083717
40
16.8988856
50
13.1566286
51
14.917453
0
ARC
8
DEFAULT_255_2_778
10
-1.2279469
20
4.940103
40
15.4379806
50
11.3509265
51
13.1596433
0
ARC
8
DEFAULT_255_2_778
10
0.3341712
20
5.2539911
40
13.8446387
50
9.6862762
51
11.3497013
0
ARC
8
DEFAULT_255_2_778
10
1.9474632
20
5.5284094
40
12.2081743
50
7.8514633
51
9.6906668
0
ARC
8
DEFAULT_255_2_778
10
3.4948089
20
5.7425976
40
10.6460747
50
6.1973505
51
7.8471334
0
ARC
8
DEFAULT_255_2_778
10
4.9883942
20
5.9032042
40
9.1438803
50
4.1452558
51
6.2071857
0
ARC
8
DEFAULT_255_2_778
10
6.5206765
20
6.0134639
40
7.6076364
50
1.8320447
51
4.1512069
0
ARC
8
DEFAULT_255_2_778
10
7.7341198
20
6.054221
40
6.3935106
50
0.0229108
51
1.8146338
0
ARC
8
DEFAULT_255_2_778
10
8.2980774
20
6.0173102
40
5.829686
50
0.0000922
51
0.3878996
0
ARC
8
DEFAULT_255_2_778
10
8.3338142
20
6.0162616
40
5.7939494
50
342.1140483
51
0.0104623
0
ARC
8
DEFAULT_255_2_778
10
8.3267216
20
6.0184402
40
5.8013683
50
306.8185286
51
342.1150847
0
ARC
8
DEFAULT_255_2_778
10
8.3246186
20
6.0238604
40
5.8069678
50
300.1279969
51
306.8030904
0
ARC
8
DEFAULT_255_2_778
10
8.3275501
20
6.0173604
40
5.7998745
50
288.7076703
51
300.13518
0
ARC
8
DEFAULT_255_2_778
10
8.328595
20
6.0172518
40
5.7994367
50
269.9958984
51
288.6982367
0
ARC
8
DEFAULT_255_2_778
10
8.3275386
20
6.0162462
40
5.7984312
50
250.4747986
51
270.0056209
0
ARC
8
DEFAULT_255_2_778
10
8.3289552
20
6.0172687
40
5.7998683
50
239.8631213
51
250.4649849
0
ARC
8
DEFAULT_255_2_778
10
8.3242918
20
6.0134308
40
5.7942082
50
221.976308
51
239.8839479
0
ARC
8
DEFAULT_255_2_778
10
8.3296545
20
6.0181998
40
5.8013847
50
186.1850794
51
221.9759007
0
ARC
8
DEFAULT_255_2_778
10
8.3352375
20
6.0173086
40
5.8068395
50
179.9971834
51
186.1704014
0
ARC
8
DEFAULT_255_2_778
10
8.3646636
20
6.0175549
40
5.8362656
50
179.6149401
51
179.9996156
0
ARC
8
DEFAULT_255_2_778
10
9.0932014
20
6.0522203
40
6.5646731
50
177.6070864
51
179.9602243
0
ARC
8
DEFAULT_255_2_778
10
10.5033379
20
5.9932801
40
7.9760409
50
175.3348026
51
177.6069958
0
ARC
8
DEFAULT_255_2_778
10
11.9895427
20
5.8738571
40
9.467035
50
173.5181086
51
175.3460007
0
ARC
8
DEFAULT_255_2_778
10
13.559682
20
5.6947331
40
11.0473584
50
171.5598543
51
173.5143367
0
ARC
8
DEFAULT_255_2_778
10
15.1476575
20
5.4610139
40
12.6524404
50
169.9812571
51
171.5684085
0
ARC
8
DEFAULT_255_2_778
10
16.696711
20
5.1866756
40
14.225599
50
168.2135858
51
169.9785765
0
ARC
8
DEFAULT_255_2_778
10
18.2400787
20
4.865241
40
15.8020837
50
166.4788567
51
168.2157503
0
ARC
8
DEFAULT_255_2_778
10
19.5974678
20
4.539166
40
17.1980887
50
164.6405081
51
166.4799424
0
ARC
8
DEFAULT_255_2_778
10
20.6310682
20
4.2560578
40
18.26976
50
162.6852916
51
164.6429478
0
ARC
8
DEFAULT_255_2_778
10
21.1368973
20
4.0998272
40
18.7991647
50
160.7482183
51
162.6895399
0
ARC
8
DEFAULT_255_2_778
10
19.8922926
20
4.5750681
40
17.4675053
50
152.7512252
51
160.8738272
0
ARC
8
DEFAULT_255_2_778
10
16.3666804
20
6.3527166
40
13.5192783
50
148.6503911
51
152.6078021
0
ARC
8
DEFAULT_255_2_778
10
14.1863083
20
7.6808719
40
10.9662372
50
144.6153223
51
148.6498611
0
ARC
8
DEFAULT_255_2_778
10
12.3860428
20
8.9610988
40
8.7571797
50
140.131204
51
144.623693
0
ARC
8
DEFAULT_255_2_778
10
10.9461066
20
10.1657544
40
6.8797858
50
134.9548907
51
140.1440767
0
ARC
8
DEFAULT_255_2_778
10
9.8563684
20
11.2596076
40
5.3357518
50
128.7901912
51
134.9730829
0
ARC
8
DEFAULT_255_2_778
10
9.0803707
20
12.2290212
40
4.0940083
50
120.9804712
51
128.8246355
0
ARC
8
DEFAULT_255_2_778
10
8.5812664
20
13.0670672
40
3.1186056
50
110.1584911
51
121.0443548
0
ARC
8
DEFAULT_255_2_778
10
8.3401945
20
13.7429603
40
2.4010471
50
90.2855114
51
110.3164762
0
LINE
8
DEFAULT_255_2_778
10
8.3282298
20
16.1439776
11
8.3285298
21
16.1439776
0
ARC
8
DEFAULT_255_2_778
10
13.6856855
20
8.6323576
40
0.0005364
50
229.3147384
51
273.8906262
0
ARC
8
DEFAULT_255_2_778
10
13.6866091
20
8.6408899
40
0.0091106
50
264.4121409
51
270.805752
0
ARC
8
DEFAULT_255_2_778
10
13.6810484
20
8.8022264
40
0.1705412
50
271.9115677
51
276.020072
0
ARC
8
DEFAULT_255_2_778
10
13.512383
20
10.5802902
40
1.9565782
50
275.4712156
51
276.5626014
0
ARC
8
DEFAULT_255_2_778
10
12.7426807
20
17.3964565
40
8.816062
50
276.4693272
51
276.8769045
0
ARC
8
DEFAULT_255_2_778
10
10.9423479
20
32.3889405
40
23.9162524
50
276.8582917
51
277.0637887
0
ARC
8
DEFAULT_255_2_778
10
8.0522555
20
55.7600287
40
47.4653582
50
277.0566827
51
277.1665949
0
ARC
8
DEFAULT_255_2_778
10
3.4957429
20
91.995921
40
83.9866082
50
277.1668095
51
277.2615861
0
ARC
8
DEFAULT_255_2_778
10
-4.0104448
20
150.9261603
40
143.3929711
50
277.2604781
51
277.3287617
0
ARC
8
DEFAULT_255_2_778
10
-16.5308691
20
248.2530346
40
241.5218736
50
277.3294446
51
277.3947826
0
ARC
8
DEFAULT_255_2_778
10
-35.6245736
20
395.4211144
40
389.9234006
50
277.3938405
51
277.4396817
0
ARC
8
DEFAULT_255_2_778
10
-117.9001928
20
1025.5964546
40
1025.4469933
50
277.4389219
51
277.4403325
0
ARC
8
DEFAULT_255_2_778
10
-61.9859707
20
597.270819
40
593.4872157
50
277.4424569
51
277.4813732
0
ARC
8
DEFAULT_255_2_778
10
-80.2233874
20
736.2323894
40
733.6404222
50
277.480501
51
277.4982038
0
ARC
8
DEFAULT_255_2_778
10
-88.7514489
20
801.0500224
40
799.016667
50
277.497971
51
277.5097533
0
ARC
8
DEFAULT_255_2_778
10
-87.2835767
20
789.9191314
40
787.7894061
50
277.5097147
51
277.5194609
0
ARC
8
DEFAULT_255_2_778
10
-76.0348128
20
704.726895
40
701.8577366
50
277.5191732
51
277.5271675
0
ARC
8
DEFAULT_255_2_778
10
-68.8790931
20
650.5944921
40
647.2544275
50
277.5269095
51
277.532038
0
ARC
8
DEFAULT_255_2_778
10
-50.9421912
20
514.9425215
40
510.421721
50
277.531948
51
277.5372659
0
ARC
8
DEFAULT_255_2_778
10
-25.2938138
20
321.1060291
40
314.8956994
50
277.5370766
51
277.5413909
0
ARC
8
DEFAULT_255_2_778
10
42.4676559
20
-190.6708176
40
201.3476131
50
97.5414997
51
97.543821
0
ARC
8
DEFAULT_255_2_778
10
2.9703879
20
8.6323556
40
0.0005338
50
266.1564234
51
310.6835412
0
ARC
8
DEFAULT_255_2_778
10
2.9694705
20
8.6407748
40
0.0089951
50
269.1890199
51
275.6244307
0
ARC
8
DEFAULT_255_2_778
10
2.9750453
20
8.8014372
40
0.1697524
50
263.953442
51
268.0750278
0
ARC
8
DEFAULT_255_2_778
10
3.1443258
20
10.5781238
40
1.9544766
50
263.4130201
51
264.504908
0
ARC
8
DEFAULT_255_2_778
10
3.9159606
20
17.384892
40
8.8048393
50
263.0979423
51
263.5058981
0
ARC
8
DEFAULT_255_2_778
10
5.7133569
20
32.2989612
40
23.8268254
50
262.9106947
51
263.1169158
0
ARC
8
DEFAULT_255_2_778
10
8.6159759
20
55.6875203
40
47.3948095
50
262.8080115
51
262.9180687
0
ARC
8
DEFAULT_255_2_778
10
13.174688
20
91.8126312
40
83.8064215
50
262.7129207
51
262.8078887
0
ARC
8
DEFAULT_255_2_778
10
20.6957007
20
150.6528292
40
143.1253438
50
262.645749
51
262.7141533
0
ARC
8
DEFAULT_255_2_778
10
33.2486918
20
247.8928477
40
241.1722652
50
262.5796942
51
262.6451216
0
ARC
8
DEFAULT_255_2_778
10
52.5532554
20
396.1700875
40
390.7008778
50
262.5349256
51
262.5806724
0
ARC
8
DEFAULT_255_2_778
10
55.8874409
20
421.6871138
40
416.4348115
50
262.5327416
51
262.5362041
0
ARC
8
DEFAULT_255_2_778
10
78.8639172
20
596.9316499
40
593.1791632
50
262.4931418
51
262.5320744
0
ARC
8
DEFAULT_255_2_778
10
98.5771956
20
746.6020014
40
744.1421632
50
262.4764097
51
262.4938611
0
ARC
8
DEFAULT_255_2_778
10
105.0873254
20
795.9000227
40
793.8681795
50
262.4646042
51
262.4764618
0
ARC
8
DEFAULT_255_2_778
10
105.3361896
20
797.7919408
40
795.776395
50
262.4550566
51
262.4647041
0
ARC
8
DEFAULT_255_2_778
10
98.926975
20
749.4061852
40
746.9680005
50
262.4475831
51
262.4550941
0
ARC
8
DEFAULT_255_2_778
10
89.4685344
20
678.0404197
40
674.9781777
50
262.4423737
51
262.4472912
0
ARC
8
DEFAULT_255_2_778
10
70.7113899
20
536.6565167
40
532.355464
50
262.4371598
51
262.4422582
0
ARC
8
DEFAULT_255_2_778
10
39.7600249
20
303.5346051
40
297.1878374
50
262.4326143
51
262.4371853
0
ARC
8
DEFAULT_255_2_778
10
12.4165719
20
97.7250804
40
89.5698594
50
262.4285558
51
262.4337737
0
LINE
8
DEFAULT_255_2_778
10
15.6816359
20
10.5882508
11
13.3157359
21
9.7537508
0
LINE
8
DEFAULT_255_2_778
10
13.3157359
20
9.7537508
11
13.6853359
21
8.6319508
0
LINE
8
DEFAULT_255_2_778
10
16.0419359
20
8.9351508
11
15.6816359
21
10.5882508
0
LINE
8
DEFAULT_255_2_778
10
0.9744359
20
10.5882508
11
3.3403359
21
9.7537508
0
LINE
8
DEFAULT_255_2_778
10
3.3403359
20
9.7537508
11
2.9707359
21
8.6319508
0
LINE
8
DEFAULT_255_2_778
10
0.6146359
20
8.9361508
11
0.9744359
21
10.5882508
0
ARC
8
DEFAULT_255_2_778
10
5.9100924
20
10.0394604
40
0.7466023
50
89.9994583
51
91.3068557
0
ARC
8
DEFAULT_255_2_778
10
5.909805
20
10.0478163
40
0.7382466
50
9.1465872
51
89.977148
0
ARC
8
DEFAULT_255_2_778
10
-2.9262262
20
8.3849266
40
9.729152
50
3.3029072
51
10.5433954
0
ARC
8
DEFAULT_255_2_778
10
5.1635041
20
8.9157184
40
1.6235332
50
0.0004175
51
1.0499663
0
ARC
8
DEFAULT_255_2_778
10
5.1917928
20
8.9152917
40
1.5952447
50
348.6545406
51
0.0157506
0
ARC
8
DEFAULT_255_2_778
10
5.9106371
20
9.3039712
40
0.7380916
50
9.1363391
51
89.98704
0
ARC
8
DEFAULT_255_2_778
10
5.9107971
20
9.2950419
40
0.7470208
50
89.9994702
51
91.3064849
0
ARC
8
DEFAULT_255_2_778
10
6.0922421
20
-10.1569025
40
20.1997462
50
90.5629823
51
98.1272426
0
ARC
8
DEFAULT_255_2_778
10
20.1644072
20
4.4087118
40
17.7778064
50
159.5641994
51
162.211289
0
ARC
8
DEFAULT_255_2_778
10
6.065447
20
-8.7978794
40
19.5819049
50
90.5038043
51
97.511896
0
ARC
8
DEFAULT_255_2_778
10
14.7341738
20
18.1871222
40
11.8887222
50
263.8597422
51
267.0207445
0
ARC
8
DEFAULT_255_2_778
10
14.8249807
20
19.0416462
40
12.748057
50
260.9857354
51
263.864759
0
ARC
8
DEFAULT_255_2_778
10
14.9092757
20
19.5847148
40
13.2976259
50
258.8439222
51
260.9936386
0
ARC
8
DEFAULT_255_2_778
10
14.9458431
20
19.7742291
40
13.4906343
50
256.9623082
51
258.847283
0
ARC
8
DEFAULT_255_2_778
10
14.9113538
20
19.6282928
40
13.3406796
50
255.2398284
51
256.9652209
0
ARC
8
DEFAULT_255_2_778
10
14.7756265
20
19.115772
40
12.8104917
50
253.6307461
51
255.2428319
0
ARC
8
DEFAULT_255_2_778
10
14.6126443
20
18.5556402
40
12.2271321
50
253.0909924
51
253.6237909
0
ARC
8
DEFAULT_255_2_778
10
14.4353178
20
17.9763557
40
11.6213154
50
251.9638097
51
253.0967801
0
ARC
8
DEFAULT_255_2_778
10
14.096043
20
16.9370968
40
10.5280793
50
250.7041347
51
251.9683285
0
ARC
8
DEFAULT_255_2_778
10
13.6199744
20
15.5798589
40
9.0897695
50
249.3644152
51
250.7093736
0
ARC
8
DEFAULT_255_2_778
10
13.0349387
20
14.0280702
40
7.4313622
50
247.9774345
51
249.3691516
0
ARC
8
DEFAULT_255_2_778
10
12.4078054
20
12.4784201
40
5.7596233
50
246.5666641
51
247.9804216
0
ARC
8
DEFAULT_255_2_778
10
11.74516
20
10.9539113
40
4.0973291
50
244.7463314
51
246.5907624
0
ARC
8
DEFAULT_255_2_778
10
11.1037354
20
9.5958584
40
2.5954195
50
242.6005552
51
244.7626828
0
ARC
8
DEFAULT_255_2_778
10
10.5663999
20
8.5629383
40
1.4310966
50
239.5232874
51
242.669273
0
ARC
8
DEFAULT_255_2_778
10
10.4851566
20
8.6782747
40
1.4948267
50
239.5655537
51
244.4552984
0
ARC
8
DEFAULT_255_2_778
10
10.4216369
20
8.5696429
40
1.3689873
50
233.7324253
51
239.5546573
0
ARC
8
DEFAULT_255_2_778
10
10.3855657
20
8.5202451
40
1.3078216
50
221.8125716
51
233.7263461
0
ARC
8
DEFAULT_255_2_778
10
10.4487587
20
8.5737707
40
1.3906083
50
210.1378956
51
221.720434
0
ARC
8
DEFAULT_255_2_778
10
10.667576
20
8.7002216
40
1.6433347
50
200.5331436
51
210.1202117
0
ARC
8
DEFAULT_255_2_778
10
11.0541961
20
8.8453546
40
2.0562978
50
192.5727548
51
200.5416663
0
ARC
8
DEFAULT_255_2_778
10
11.5209054
20
8.9538983
40
2.5354471
50
188.1657907
51
192.67101
0
ARC
8
DEFAULT_255_2_778
10
13.290826
20
8.2046275
40
4.2973168
50
174.804496
51
178.5082144
0
ARC
8
DEFAULT_255_2_778
10
12.6695524
20
8.2250017
40
3.6757257
50
178.5735778
51
179.9908484
0
ARC
8
DEFAULT_255_2_778
10
11.6958771
20
8.2003904
40
2.7021678
50
179.465694
51
192.3250546
0
ARC
8
DEFAULT_255_2_778
10
10.5793101
20
7.9292714
40
1.5536892
50
191.3466315
51
230.3975825
0
ARC
8
DEFAULT_255_2_778
10
10.6398356
20
8.0398395
40
1.6776323
50
231.2120957
51
244.6084867
0
ARC
8
DEFAULT_255_2_778
10
10.1142943
20
6.8610261
40
0.3885557
50
240.0762938
51
243.5189541
0
ARC
8
DEFAULT_255_2_778
10
10.8258766
20
8.2556232
40
1.9541883
50
243.0770717
51
244.5872266
0
ARC
8
DEFAULT_255_2_778
10
11.5853694
20
9.8467318
40
3.7172681
50
244.5378849
51
245.7674826
0
ARC
8
DEFAULT_255_2_778
10
12.1902457
20
11.1860313
40
5.1868244
50
245.7467579
51
246.7593246
0
ARC
8
DEFAULT_255_2_778
10
12.6331885
20
12.2152133
40
6.3072766
50
246.7512306
51
247.6270535
0
ARC
8
DEFAULT_255_2_778
10
13.0403429
20
13.2057953
40
7.3782702
50
247.6312685
51
248.7864826
0
ARC
8
DEFAULT_255_2_778
10
13.4366402
20
14.2265428
40
8.4732484
50
248.7858624
51
250.0614348
0
ARC
8
DEFAULT_255_2_778
10
13.7317169
20
15.0368354
40
9.3355958
50
250.0548698
51
251.0342289
0
ARC
8
DEFAULT_255_2_778
10
13.9728292
20
15.7400586
40
10.0790054
50
251.0372238
51
252.3568255
0
ARC
8
DEFAULT_255_2_778
10
14.1897794
20
16.421147
40
10.7938121
50
252.3551497
51
253.6683449
0
ARC
8
DEFAULT_255_2_778
10
14.3079966
20
16.8205796
40
11.2103699
50
253.6625802
51
254.1095423
0
ARC
8
DEFAULT_255_2_778
10
14.4104112
20
17.1841221
40
11.5880614
50
254.1146678
51
255.5391357
0
ARC
8
DEFAULT_255_2_778
10
14.5297886
20
17.6455594
40
12.0646903
50
255.537398
51
256.8238196
0
ARC
8
DEFAULT_255_2_778
10
14.6248975
20
18.052755
40
12.4828456
50
256.8248002
51
258.4237222
0
ARC
8
DEFAULT_255_2_778
10
14.6998574
20
18.4172172
40
12.8549365
50
258.4223958
51
259.9160089
0
ARC
8
DEFAULT_255_2_778
10
14.7549886
20
18.7273597
40
13.1699409
50
259.9161124
51
261.5875693
0
ARC
8
DEFAULT_255_2_778
10
14.7977434
20
19.0167249
40
13.4624476
50
261.5877339
51
263.4524779
0
ARC
8
DEFAULT_255_2_778
10
14.8263695
20
19.2642877
40
13.7116599
50
263.4515985
51
265.1685968
0
ARC
8
DEFAULT_255_2_778
10
14.8442212
20
19.4749768
40
13.9231039
50
265.168419
51
266.9366303
0
ARC
8
DEFAULT_255_2_778
10
8.3526754
20
6.0552575
40
5.7677894
50
355.1914993
51
359.9961366
0
ARC
8
DEFAULT_255_2_778
10
9.7000826
20
6.1115196
40
4.4207451
50
359.2657456
51
359.9998488
0
ARC
8
DEFAULT_255_2_778
10
9.7034111
20
6.1115377
40
4.4174166
50
359.9996138
51
0.3781311
0
ARC
8
DEFAULT_255_2_778
10
9.704497
20
6.1115722
40
4.4163304
50
0.3777763
51
2.6046551
0
ARC
8
DEFAULT_255_2_778
10
1.927542
20
18.18799
40
11.8895895
50
272.9791039
51
276.1400124
0
ARC
8
DEFAULT_255_2_778
10
1.8367791
20
19.0421513
40
12.748559
50
276.1349896
51
279.0139978
0
ARC
8
DEFAULT_255_2_778
10
1.7525429
20
19.5848738
40
13.2977769
50
279.0060892
51
281.1558354
0
ARC
8
DEFAULT_255_2_778
10
1.7160497
20
19.7740171
40
13.4904069
50
281.152474
51
283.0375128
0
ARC
8
DEFAULT_255_2_778
10
1.7506609
20
19.627547
40
13.3399047
50
283.0346051
51
284.7601128
0
ARC
8
DEFAULT_255_2_778
10
1.886544
20
19.1144484
40
12.8091185
50
284.7570906
51
286.3693488
0
ARC
8
DEFAULT_255_2_778
10
2.0492059
20
18.5553981
40
12.2268867
50
286.3763209
51
286.9091265
0
ARC
8
DEFAULT_255_2_778
10
2.2269483
20
17.9747181
40
11.6196139
50
286.9033836
51
288.0365056
0
ARC
8
DEFAULT_255_2_778
10
2.5664342
20
16.9348396
40
10.5257233
50
288.0319701
51
289.2964193
0
ARC
8
DEFAULT_255_2_778
10
3.0424307
20
15.5778447
40
9.0876667
50
289.2911898
51
290.6364146
0
ARC
8
DEFAULT_255_2_778
10
3.6275815
20
14.0258023
40
7.4289814
50
290.6317203
51
292.0238175
0
ARC
8
DEFAULT_255_2_778
10
4.2546195
20
12.4764669
40
5.7575701
50
292.0208975
51
293.435069
0
ARC
8
DEFAULT_255_2_778
10
4.9174852
20
10.9515793
40
4.0948407
50
293.4109399
51
295.2563347
0
ARC
8
DEFAULT_255_2_778
10
5.5585946
20
9.5943513
40
2.5938115
50
295.2400385
51
297.4032591
0
ARC
8
DEFAULT_255_2_778
10
6.0958432
20
8.5617657
40
1.4298255
50
297.3345085
51
300.4828027
0
ARC
8
DEFAULT_255_2_778
10
6.1763492
20
8.678741
40
1.4953438
50
295.544727
51
300.4360529
0
ARC
8
DEFAULT_255_2_778
10
6.2399693
20
8.569943
40
1.3693103
50
300.4469942
51
306.2722266
0
ARC
8
DEFAULT_255_2_778
10
6.2760839
20
8.520492
40
1.308076
50
306.2783691
51
318.1894938
0
ARC
8
DEFAULT_255_2_778
10
6.2129737
20
8.5739415
40
1.3907503
50
318.2815629
51
329.8622138
0
ARC
8
DEFAULT_255_2_778
10
5.9942871
20
8.7003092
40
1.6433218
50
329.880102
51
339.4662403
0
ARC
8
DEFAULT_255_2_778
10
5.6079531
20
8.8453345
40
2.0559793
50
339.4578526
51
347.4268303
0
ARC
8
DEFAULT_255_2_778
10
5.1417121
20
8.9537788
40
2.5346499
50
347.3285106
51
351.8343516
0
ARC
8
DEFAULT_255_2_778
10
3.356335
20
8.1994382
40
4.3123966
50
1.5530177
51
5.2465196
0
ARC
8
DEFAULT_255_2_778
10
3.9946619
20
8.2209601
40
3.6737232
50
0.010259
51
1.4872935
0
ARC
8
DEFAULT_255_2_778
10
4.96416
20
8.1974302
40
2.7043333
50
348.0087662
51
0.5124623
0
ARC
8
DEFAULT_255_2_778
10
6.0838954
20
7.9311787
40
1.553963
50
310.02186
51
349.0339502
0
ARC
8
DEFAULT_255_2_778
10
6.028212
20
8.0345477
40
1.6691019
50
296.1364656
51
309.2037342
0
ARC
8
DEFAULT_255_2_778
10
5.9139619
20
8.2480458
40
1.9111167
50
295.5812669
51
296.3918851
0
ARC
8
DEFAULT_255_2_778
10
6.5453352
20
6.8610259
40
0.3885555
50
296.4810461
51
299.9237064
0
ARC
8
DEFAULT_255_2_778
10
5.8337543
20
8.2556202
40
1.954185
50
295.4127735
51
296.9229284
0
ARC
8
DEFAULT_255_2_778
10
5.0743178
20
9.8465889
40
3.7171143
50
294.2326148
51
295.4622595
0
ARC
8
DEFAULT_255_2_778
10
4.4694396
20
11.1858828
40
5.1866662
50
293.2407632
51
294.253356
0
ARC
8
DEFAULT_255_2_778
10
4.0260008
20
12.2162232
40
6.3083786
50
292.3731636
51
293.2488282
0
ARC
8
DEFAULT_255_2_778
10
3.6193775
20
13.2055133
40
7.3779753
50
291.2136705
51
292.368922
0
ARC
8
DEFAULT_255_2_778
10
3.2229031
20
14.226683
40
8.4734112
50
289.9388184
51
291.2143541
0
ARC
8
DEFAULT_255_2_778
10
2.928026
20
15.0364128
40
9.3351614
50
288.9659932
51
289.9453868
0
ARC
8
DEFAULT_255_2_778
10
2.6866176
20
15.7404966
40
10.0794812
50
287.6434622
51
288.962984
0
ARC
8
DEFAULT_255_2_778
10
2.4698372
20
16.4210615
40
10.7937376
50
286.3319179
51
287.6451018
0
ARC
8
DEFAULT_255_2_778
10
2.3507371
20
16.8235512
40
11.2134774
50
285.8907778
51
286.3376084
0
ARC
8
DEFAULT_255_2_778
10
2.2491656
20
17.1841581
40
11.5881146
50
284.4611722
51
285.885607
0
ARC
8
DEFAULT_255_2_778
10
2.1298761
20
17.6452541
40
12.0643911
50
283.176471
51
284.4628976
0
ARC
8
DEFAULT_255_2_778
10
2.0347654
20
18.0524424
40
12.4825397
50
281.5765731
51
283.1754968
0
ARC
8
DEFAULT_255_2_778
10
1.9598175
20
18.4168491
40
12.8545738
50
280.0842722
51
281.5778885
0
ARC
8
DEFAULT_255_2_778
10
1.904722
20
18.7267817
40
13.1693654
50
278.4126867
51
280.0841685
0
ARC
8
DEFAULT_255_2_778
10
1.861991
20
19.0159696
40
13.4616931
50
276.547738
51
278.4125271
0
ARC
8
DEFAULT_255_2_778
10
1.8333736
20
19.2634345
40
13.7108071
50
274.8315789
51
276.5486241
0
ARC
8
DEFAULT_255_2_778
10
1.8155278
20
19.4740502
40
13.9221775
50
273.0634928
51
274.831755
0
ARC
8
DEFAULT_255_2_778
10
8.3415611
20
6.0584653
40
5.802444
50
181.3376169
51
184.8115024
0
ARC
8
DEFAULT_255_2_778
10
8.2219742
20
6.05503
40
5.6828096
50
180.0016275
51
181.3311359
0
ARC
8
DEFAULT_255_2_778
10
11.0551494
20
5.9753188
40
8.5163563
50
178.5988115
51
179.4648027
0
ARC
8
DEFAULT_255_2_778
10
11.0165237
20
5.9763441
40
8.477717
50
177.7290946
51
178.5993554
0
ARC
8
DEFAULT_255_2_778
10
10.7395323
20
10.039045
40
0.7470177
50
88.6935144
51
90.0005292
0
ARC
8
DEFAULT_255_2_778
10
10.7397593
20
10.0478927
40
0.7381701
50
90.0181535
51
170.8584672
0
ARC
8
DEFAULT_255_2_778
10
19.5367315
20
8.3896773
40
9.6898195
50
169.4418905
51
176.7118083
0
ARC
8
DEFAULT_255_2_778
10
11.4613936
20
8.9147671
40
1.5988237
50
178.8997088
51
179.9992213
0
ARC
8
DEFAULT_255_2_778
10
11.4532338
20
8.9149444
40
1.5906638
50
180.0056038
51
191.3658108
0
ARC
8
DEFAULT_255_2_778
10
19.6893477
20
7.6285793
40
9.8437778
50
169.5076761
51
174.3280313
0
ARC
8
DEFAULT_255_2_778
10
10.7389593
20
9.3038927
40
0.7381702
50
90.0181535
51
170.8584672
0
ARC
8
DEFAULT_255_2_778
10
10.7387323
20
9.295045
40
0.7470177
50
88.6935144
51
90.0005292
0
ARC
8
DEFAULT_255_2_778
10
10.5574849
20
-10.1543014
40
20.1971432
50
81.8722693
51
89.4375058
0
ARC
8
DEFAULT_255_2_778
10
-3.7242378
20
4.338338
40
17.9986568
50
17.7984141
51
20.412913
0
ARC
8
DEFAULT_255_2_778
10
10.5841824
20
-8.7978794
40
19.5819049
50
82.488104
51
89.4961957
0
LINE
8
DEFAULT_255_2_778
10
6.7558647
20
8.6014686
11
6.6393647
21
9.4211686
0
LINE
8
DEFAULT_255_2_778
10
5.8932647
20
10.7832686
11
5.8930647
21
10.7858686
0
LINE
8
DEFAULT_255_2_778
10
14.1162647
20
6.3122686
11
14.1162647
21
6.3144686
0
LINE
8
DEFAULT_255_2_778
10
2.5454647
20
6.3122686
11
2.5454647
21
6.3144686
0
LINE
8
DEFAULT_255_2_778
10
10.7563647
20
10.7832686
11
10.7565647
21
10.7858686
0
ARC
8
DEFAULT_255_2_778
10
19.8354382
20
4.5903847
40
17.9293018
50
154.1338782
51
157.6320172
0
ARC
8
DEFAULT_255_2_778
10
17.7289446
20
5.6133055
40
15.5875761
50
150.6466982
51
154.139174
0
ARC
8
DEFAULT_255_2_778
10
15.5987005
20
6.8128944
40
13.1427956
50
147.0280983
51
150.6525668
0
ARC
8
DEFAULT_255_2_778
10
13.6452876
20
8.0809366
40
10.8139006
50
143.2523536
51
147.0318435
0
ARC
8
DEFAULT_255_2_778
10
12.256355
20
9.1105114
40
9.0849948
50
140.6578278
51
143.2144458
0
ARC
8
DEFAULT_255_2_778
10
11.1419836
20
10.0000741
40
7.6592529
50
135.5723806
51
140.5195
0
ARC
8
DEFAULT_255_2_778
10
9.9660884
20
11.1562314
40
6.0101862
50
129.4726843
51
135.5963759
0
ARC
8
DEFAULT_255_2_778
10
9.1269974
20
12.1791911
40
4.6871172
50
121.7174516
51
129.5043245
0
ARC
8
DEFAULT_255_2_778
10
8.5924234
20
13.050705
40
3.6647228
50
111.0208192
51
121.7713244
0
ARC
8
DEFAULT_255_2_778
10
8.3360752
20
13.7371147
40
2.9320478
50
90.1898853
51
111.156275
0
ARC
8
DEFAULT_255_2_778
10
8.3165697
20
13.7304838
40
2.938679
50
68.9782015
51
89.8091549
0
ARC
8
DEFAULT_255_2_778
10
8.0663273
20
13.0555875
40
3.6584346
50
58.3471179
51
69.1115361
0
ARC
8
DEFAULT_255_2_778
10
7.5566939
20
12.2194295
40
4.6376519
50
50.7856847
51
58.4085235
0
ARC
8
DEFAULT_255_2_778
10
6.7674546
20
11.2486617
40
5.8887653
50
44.5973708
51
50.807573
0
ARC
8
DEFAULT_255_2_778
10
5.6591059
20
10.1510916
40
7.4486011
50
39.6383233
51
44.62306
0
ARC
8
DEFAULT_255_2_778
10
4.927771
20
9.5276147
40
8.4095436
50
39.4241424
51
39.7308738
0
ARC
8
DEFAULT_255_2_778
10
4.0958083
20
8.8426081
40
9.4872243
50
35.0754694
51
39.4289821
0
ARC
8
DEFAULT_255_2_778
10
2.3024011
20
7.5784018
40
11.6814243
50
31.3861769
51
35.0952406
0
ARC
8
DEFAULT_255_2_778
10
0.3606137
20
6.3933775
40
13.9562476
50
27.6816084
51
31.3875619
0
ARC
8
DEFAULT_255_2_778
10
-1.6209448
20
5.3509239
40
16.1952826
50
24.1688771
51
27.6907668
0
ARC
8
DEFAULT_255_2_778
10
-3.0257986
20
4.7115769
40
17.7387588
50
22.1917775
51
24.1950973
0
ARC
8
DEFAULT_255_2_778
10
-2.6869288
20
4.8295833
40
16.8007501
50
23.1842079
51
24.3299568
0
ARC
8
DEFAULT_255_2_778
10
-2.3899625
20
4.9644207
40
16.4746061
50
24.3281665
51
25.5697979
0
ARC
8
DEFAULT_255_2_778
10
-1.7595926
20
5.2669429
40
15.7754029
50
25.5668228
51
27.0408567
0
ARC
8
DEFAULT_255_2_778
10
-0.8531187
20
5.7303511
40
14.7573451
50
27.0383597
51
28.6540372
0
ARC
8
DEFAULT_255_2_778
10
2.6015116
20
7.7198666
40
10.7721577
50
28.1790638
51
39.1569017
0
ARC
8
DEFAULT_255_2_778
10
5.9265161
20
10.3598608
40
6.5270804
50
39.6173915
51
46.7747797
0
ARC
8
DEFAULT_255_2_778
10
7.1858085
20
11.6998722
40
4.6882088
50
46.7732439
51
55.1586955
0
ARC
8
DEFAULT_255_2_778
10
7.7403978
20
12.4765135
40
3.7339678
50
55.3347415
51
59.9454783
0
ARC
8
DEFAULT_255_2_778
10
8.2880699
20
13.5495697
40
2.5316909
50
58.5110602
51
89.0972367
0
ARC
8
DEFAULT_255_2_778
10
8.3749322
20
13.5255287
40
2.5558494
50
91.0531022
51
121.3409787
0
ARC
8
DEFAULT_255_2_778
10
9.1152208
20
12.16727
40
4.101638
50
120.3044182
51
130.1452267
0
ARC
8
DEFAULT_255_2_778
10
10.161185
20
10.9212069
40
5.7285072
50
130.1069951
51
137.7554994
0
ARC
8
DEFAULT_255_2_778
10
11.944628
20
9.3045855
40
8.1356072
50
137.7713058
51
144.6339677
0
ARC
8
DEFAULT_255_2_778
10
15.0698798
20
7.1013917
40
11.9593697
50
144.6926469
51
151.6373508
0
ARC
8
DEFAULT_255_2_778
10
17.7708427
20
5.5875674
40
15.055328
50
151.4508407
51
153.472591
0
ARC
8
DEFAULT_255_2_778
10
18.814879
20
5.0639108
40
16.2233276
50
153.4647052
51
154.9834276
0
ARC
8
DEFAULT_255_2_778
10
19.356608
20
4.8095603
40
16.8217947
50
154.9786518
51
155.8904535
0
ARC
8
DEFAULT_255_2_778
10
19.5838464
20
4.7075893
40
17.0708636
50
155.8896052
51
156.7604523
0
ARC
8
DEFAULT_255_2_778
10
5.1452834
20
-1.1161787
40
12.6023633
50
95.8369125
51
98.4231353
0
ARC
8
DEFAULT_255_2_778
10
14.5733621
20
21.8990766
40
14.8677515
50
266.6754632
51
268.4960997
0
ARC
8
DEFAULT_255_2_778
10
0.0120812
20
5.3430845
40
13.7573613
50
7.3578972
51
10.0932845
0
ARC
8
DEFAULT_255_2_778
10
-2.7832847
20
4.8472805
40
16.5963557
50
10.0872055
51
12.7879785
0
ARC
8
DEFAULT_255_2_778
10
-5.1212954
20
4.3182742
40
18.9934661
50
12.7830928
51
15.8112387
0
ARC
8
DEFAULT_255_2_778
10
-6.0319548
20
4.0678047
40
19.9379169
50
15.7907388
51
17.1319825
0
ARC
8
DEFAULT_255_2_778
10
-6.0014825
20
4.078873
40
19.9055363
50
17.1273747
51
19.5176164
0
ARC
8
DEFAULT_255_2_778
10
-5.5190193
20
4.2090207
40
19.989917
50
17.0266037
51
18.9140683
0
ARC
8
DEFAULT_255_2_778
10
-5.2731443
20
4.2783776
40
19.734511
50
13.5672504
51
17.0430921
0
ARC
8
DEFAULT_255_2_778
10
-3.2914919
20
4.7551202
40
17.6963188
50
10.8640064
51
13.5718793
0
ARC
8
DEFAULT_255_2_778
10
-0.5972693
20
5.2704297
40
14.9532592
50
8.1885641
51
10.870633
0
ARC
8
DEFAULT_255_2_778
10
1.5808947
20
5.5914843
40
12.7515764
50
6.7928723
51
8.1546737
0
LINE
8
DEFAULT_255_2_778
10
13.398958
20
11.4116464
11
13.426458
21
11.3409464
0
LINE
8
DEFAULT_255_2_778
10
13.426458
20
11.3409464
11
13.355858
21
11.3507464
0
LINE
8
DEFAULT_255_2_778
10
13.355858
20
11.3507464
11
12.791458
21
11.4214464
0
LINE
8
DEFAULT_255_2_778
10
12.791458
20
11.4214464
11
12.766858
21
11.4214464
0
LINE
8
DEFAULT_255_2_778
10
12.766858
20
11.4214464
11
12.757058
21
11.4438464
0
LINE
8
DEFAULT_255_2_778
10
3.898058
20
11.4433464
11
3.888258
21
11.4208464
0
LINE
8
DEFAULT_255_2_778
10
3.888258
20
11.4208464
11
3.863658
21
11.4208464
0
LINE
8
DEFAULT_255_2_778
10
3.299258
20
11.3502464
11
3.228658
21
11.3404464
0
LINE
8
DEFAULT_255_2_778
10
3.228658
20
11.3404464
11
3.255158
21
11.4134464
0
LINE
8
DEFAULT_255_2_778
10
13.711158
20
7.0563464
11
13.662558
21
7.0563464
0
LINE
8
DEFAULT_255_2_778
10
13.662558
20
7.0563464
11
13.656158
21
7.1049464
0
LINE
8
DEFAULT_255_2_778
10
12.760258
20
10.7292464
11
12.728558
21
10.8192464
0
LINE
8
DEFAULT_255_2_778
10
12.728558
20
10.8192464
11
12.823758
21
10.8065464
0
LINE
8
DEFAULT_255_2_778
10
12.823758
20
10.8065464
11
13.380158
21
10.7218464
0
LINE
8
DEFAULT_255_2_778
10
13.380158
20
10.7218464
11
13.391558
21
10.6887464
0
LINE
8
DEFAULT_255_2_778
10
14.242958
20
7.0997464
11
14.250958
21
7.0290464
0
LINE
8
DEFAULT_255_2_778
10
14.250958
20
7.0290464
11
14.183158
21
7.0364464
0
LINE
8
DEFAULT_255_2_778
10
13.6654575
20
9.8228002
11
13.3911575
21
10.6912002
0
LINE
8
DEFAULT_255_2_778
10
13.3911575
20
10.6912002
11
13.3797575
21
10.7242002
0
LINE
8
DEFAULT_255_2_778
10
13.3797575
20
10.7242002
11
13.3453575
21
10.7295002
0
LINE
8
DEFAULT_255_2_778
10
13.3453575
20
10.7295002
11
12.8233575
21
10.8089002
0
LINE
8
DEFAULT_255_2_778
10
12.8233575
20
10.8089002
11
12.7280575
21
10.8216002
0
LINE
8
DEFAULT_255_2_778
10
12.7280575
20
10.8216002
11
12.7597575
21
10.7316002
0
LINE
8
DEFAULT_255_2_778
10
12.7597575
20
10.7316002
11
13.0328575
21
9.9035002
0
LINE
8
DEFAULT_255_2_778
10
13.0328575
20
9.9035002
11
13.6657575
21
9.8231002
0
LINE
8
DEFAULT_255_2_778
10
13.6657575
20
9.8231002
11
13.6654575
21
9.8228002
0
ARC
8
DEFAULT_255_2_778
10
15.5956258
20
5.5535096
40
13.2360729
50
170.5145416
51
173.1705278
0
ARC
8
DEFAULT_255_2_778
10
18.5012134
20
5.0695838
40
16.1816835
50
167.9493633
51
170.5199364
0
ARC
8
DEFAULT_255_2_778
10
21.2219463
20
4.4892435
40
18.963622
50
165.1011106
51
167.9507903
0
ARC
8
DEFAULT_255_2_778
10
22.7735271
20
4.0839517
40
20.5672478
50
163.0166181
51
165.1213546
0
ARC
8
DEFAULT_255_2_778
10
23.0350458
20
4.0064582
40
20.8399972
50
161.217137
51
163.0228707
0
ARC
8
DEFAULT_255_2_778
10
5.9635762
20
-4.6675814
40
15.6422312
50
97.6817538
51
99.6158669
0
ARC
8
DEFAULT_255_2_778
10
22.9706785
20
4.0179222
40
20.1922592
50
160.5038026
51
162.8548329
0
ARC
8
DEFAULT_255_2_778
10
22.4657538
20
4.1664943
40
19.665976
50
162.8347917
51
166.1660168
0
ARC
8
DEFAULT_255_2_778
10
20.2476008
20
4.71075
40
17.3820293
50
166.159711
51
168.9848564
0
ARC
8
DEFAULT_255_2_778
10
17.4380048
20
5.2567966
40
14.5198629
50
168.9815477
51
171.7059543
0
ARC
8
DEFAULT_255_2_778
10
15.4754973
20
5.5520823
40
12.5352889
50
171.7475433
51
172.7557563
0
ARC
8
DEFAULT_255_2_778
10
2.1723047
20
20.8280893
40
13.7680384
50
271.4190736
51
273.3851285
0
LINE
8
DEFAULT_255_2_778
10
3.3048699
20
10.7165735
11
3.3162699
21
10.7495735
0
LINE
8
DEFAULT_255_2_778
10
3.3162699
20
10.7495735
11
3.3506699
21
10.7548735
0
LINE
8
DEFAULT_255_2_778
10
3.8726699
20
10.8342735
11
3.9679699
21
10.8469735
0
LINE
8
DEFAULT_255_2_778
10
3.9679699
20
10.8469735
11
3.9361699
21
10.7569735
0
LINE
8
DEFAULT_255_2_778
10
3.0402699
20
7.1327735
11
3.0339699
21
7.0840735
0
LINE
8
DEFAULT_255_2_778
10
3.0339699
20
7.0840735
11
2.9852699
21
7.0840735
0
LINE
8
DEFAULT_255_2_778
10
2.5132699
20
7.0642735
11
2.4428699
21
7.0642735
0
LINE
8
DEFAULT_255_2_778
10
2.4428699
20
7.0642735
11
2.4534699
21
7.1274735
0
LINE
8
DEFAULT_255_2_778
10
3.350333
20
10.7554291
11
3.316033
21
10.7501291
0
LINE
8
DEFAULT_255_2_778
10
3.316033
20
10.7501291
11
3.304633
21
10.7170291
0
LINE
8
DEFAULT_255_2_778
10
3.304633
20
10.7170291
11
3.030233
21
9.8473291
0
LINE
8
DEFAULT_255_2_778
10
3.030233
20
9.8473291
11
3.655933
21
9.9066291
0
LINE
8
DEFAULT_255_2_778
10
3.655933
20
9.9066291
11
3.938033
21
10.7572291
0
LINE
8
DEFAULT_255_2_778
10
3.938033
20
10.7572291
11
3.969733
21
10.8472291
0
LINE
8
DEFAULT_255_2_778
10
3.969733
20
10.8472291
11
3.874533
21
10.8345291
0
LINE
8
DEFAULT_255_2_778
10
3.874533
20
10.8345291
11
3.350633
21
10.7551291
0
LINE
8
DEFAULT_255_2_778
10
3.350633
20
10.7551291
11
3.350333
21
10.7554291
0
LINE
8
DEFAULT_255_2_778
10
8.3282518
20
-0.2636314
11
8.32629
21
-0.2636317
0
ARC
8
DEFAULT_255_2_778
10
8.324421
20
6.0562596
40
6.3198916
50
254.8366775
51
270.0169438
0
ARC
8
DEFAULT_255_2_778
10
8.3286831
20
6.0636103
40
6.3281016
50
211.1046262
51
254.8168396
0
ARC
8
DEFAULT_255_2_778
10
8.3339161
20
6.0626584
40
6.3320915
50
201.5055482
51
211.0727899
0
ARC
8
DEFAULT_255_2_778
10
8.4076226
20
6.066702
40
6.4021912
50
179.9974701
51
201.2974024
0
ARC
8
DEFAULT_255_2_778
10
8.4127022
20
6.0669773
40
6.4072707
50
177.7773567
51
179.9999334
0
ARC
8
DEFAULT_255_2_778
10
8.3407908
20
6.0556338
40
5.7577784
50
177.2899752
51
179.9999059
0
ARC
8
DEFAULT_255_2_778
10
8.3408703
20
6.0557149
40
5.7578579
50
180.0007124
51
201.196407
0
ARC
8
DEFAULT_255_2_778
10
8.3259062
20
6.0541277
40
5.7433336
50
201.2356197
51
220.170369
0
ARC
8
DEFAULT_255_2_778
10
8.3196987
20
6.0488349
40
5.7351759
50
220.169968
51
252.6067165
0
ARC
8
DEFAULT_255_2_778
10
8.3247349
20
6.0669601
40
5.753978
50
252.6128125
51
258.7282965
0
ARC
8
DEFAULT_255_2_778
10
8.3284724
20
6.0833557
40
5.7707881
50
258.7237224
51
262.9997544
0
ARC
8
DEFAULT_255_2_778
10
8.3263101
20
6.0668712
40
5.7541628
50
263.0011201
51
263.6105543
0
ARC
8
DEFAULT_255_2_778
10
8.3256152
20
6.0593152
40
5.7465764
50
263.6090556
51
269.2029967
0
ARC
8
DEFAULT_255_2_778
10
8.3254188
20
6.051391
40
5.7386502
50
269.2038572
51
270.0000712
0
ARC
8
DEFAULT_255_2_778
10
8.325482
20
6.0516046
40
5.7388637
50
269.9994404
51
310.9962391
0
ARC
8
DEFAULT_255_2_778
10
8.3117467
20
6.066789
40
5.7593346
50
311.000274
51
316.1719277
0
ARC
8
DEFAULT_255_2_778
10
8.3686014
20
6.0287826
40
5.6920117
50
316.0516083
51
338.8265286
0
ARC
8
DEFAULT_255_2_778
10
8.3185085
20
6.0528658
40
5.7474232
50
338.7830218
51
0.0081089
0
ARC
8
DEFAULT_255_2_778
10
8.3030809
20
6.0536613
40
5.7628507
50
0.0001781
51
2.7173174
0
ARC
8
DEFAULT_255_2_778
10
8.2424162
20
6.0673799
40
6.4009026
50
0.0000143
51
2.2113958
0
ARC
8
DEFAULT_255_2_778
10
8.2398726
20
6.0675445
40
6.4034461
50
338.7084882
51
359.9985412
0
ARC
8
DEFAULT_255_2_778
10
8.3292666
20
6.0505653
40
6.3140104
50
323.3638649
51
338.5574915
0
ARC
8
DEFAULT_255_2_778
10
8.3239997
20
6.0571945
40
6.322193
50
279.5991888
51
323.3441384
0
ARC
8
DEFAULT_255_2_778
10
8.3271393
20
6.0602979
40
6.3247303
50
269.9908257
51
279.5664576
0
ARC
8
DEFAULT_255_2_778
10
8.325208
20
3.955805
40
4.2202375
50
269.9625807
51
270.0124709
0
LINE
8
DEFAULT_255_2_778
10
2.0102518
20
6.3154686
11
2.0102518
21
6.3551686
0
LINE
8
DEFAULT_255_2_778
10
2.0102518
20
6.3551686
11
2.0499518
21
6.3551686
0
LINE
8
DEFAULT_255_2_778
10
2.0499518
20
6.3551686
11
2.5436518
21
6.3736686
0
LINE
8
DEFAULT_255_2_778
10
2.5436518
20
6.3736686
11
2.5894518
21
6.3736686
0
LINE
8
DEFAULT_255_2_778
10
2.5894518
20
6.3736686
11
2.5894518
21
6.3278686
0
LINE
8
DEFAULT_255_2_778
10
14.0594518
20
6.3268686
11
14.0594518
21
6.3725686
0
LINE
8
DEFAULT_255_2_778
10
14.0594518
20
6.3725686
11
14.1051518
21
6.3725686
0
LINE
8
DEFAULT_255_2_778
10
14.1051518
20
6.3725686
11
14.5989518
21
6.3540686
0
LINE
8
DEFAULT_255_2_778
10
14.5989518
20
6.3540686
11
14.6385518
21
6.3540686
0
LINE
8
DEFAULT_255_2_778
10
14.6385518
20
6.3540686
11
14.6385518
21
6.3143686
0
LINE
8
DEFAULT_255_2_778
10
8.3224518
20
-0.2644314
11
8.3282518
21
-0.2636314
0
ARC
8
DEFAULT_255_2_778
10
8.8012442
20
6.082353
40
6.2130803
50
180.0370453
51
184.6972649
0
ARC
8
DEFAULT_255_2_778
10
8.811151
20
6.0824249
40
6.2229872
50
178.8741544
51
180.0376481
0
ARC
8
DEFAULT_255_2_778
10
8.8170037
20
6.0822888
40
6.2288415
50
177.7110957
51
178.8739604
0
ARC
8
DEFAULT_255_2_778
10
8.6737326
20
6.0896129
40
6.6661266
50
178.0335345
51
180.0015539
0
ARC
8
DEFAULT_255_2_778
10
8.7039905
20
6.0893772
40
6.6963845
50
179.9995304
51
180.2081753
0
ARC
8
DEFAULT_255_2_778
10
8.770725
20
6.0904084
40
6.7631223
50
180.2148572
51
184.5086839
0
ARC
8
DEFAULT_255_2_778
10
14.6028297
20
10.721441
40
4.366283
50
269.2917215
51
269.9960904
0
ARC
8
DEFAULT_255_2_778
10
14.6382996
20
12.5734418
40
6.2185935
50
267.3141472
51
269.1758721
0
ARC
8
DEFAULT_255_2_778
10
15.7209359
20
35.960574
40
29.63077
50
266.9133867
51
267.3421264
0
ARC
8
DEFAULT_255_2_778
10
5.5972224
20
-156.7636021
40
163.3591538
50
87.0074907
51
87.0133279
0
ARC
8
DEFAULT_255_2_778
10
7.8063676
20
6.0753201
40
6.2618586
50
0.5927038
51
2.3113401
0
ARC
8
DEFAULT_255_2_778
10
7.8262906
20
6.0755626
40
6.2419342
50
0.0000114
51
0.5923694
0
ARC
8
DEFAULT_255_2_778
10
7.8581008
20
6.0751722
40
6.2101239
50
355.401214
51
0.0036139
0
ARC
8
DEFAULT_255_2_778
10
7.9961023
20
6.0798663
40
6.6514562
50
355.4538487
51
359.0918352
0
ARC
8
DEFAULT_255_2_778
10
7.9816789
20
6.0802121
40
6.6658833
50
359.0908278
51
359.9999475
0
ARC
8
DEFAULT_255_2_778
10
7.9832989
20
6.0802131
40
6.6642634
50
359.9999396
51
1.9928214
0
LINE
8
DEFAULT_255_2_778
10
2.5931318
20
6.331058
11
2.5931318
21
6.376558
0
LINE
8
DEFAULT_255_2_778
10
2.5931318
20
6.376558
11
2.5473318
21
6.376558
0
LINE
8
DEFAULT_255_2_778
10
2.5473318
20
6.376558
11
2.0536318
21
6.358058
0
LINE
8
DEFAULT_255_2_778
10
2.0536318
20
6.358058
11
2.0115318
21
6.358058
0
LINE
8
DEFAULT_255_2_778
10
2.0115318
20
6.358058
11
2.0115318
21
6.318358
0
LINE
8
DEFAULT_255_2_778
10
2.0285318
20
5.558758
11
2.0475318
21
5.558758
0
LINE
8
DEFAULT_255_2_778
10
2.0475318
20
5.558758
11
2.6013318
21
5.575658
0
LINE
8
DEFAULT_255_2_778
10
2.6013318
20
5.575658
11
2.6090318
21
5.573558
0
LINE
8
DEFAULT_255_2_778
10
14.6422318
20
6.355158
11
14.6025318
21
6.355158
0
LINE
8
DEFAULT_255_2_778
10
14.1088318
20
6.373658
11
14.0631318
21
6.373658
0
LINE
8
DEFAULT_255_2_778
10
14.0631318
20
6.373658
11
14.0631318
21
6.327858
0
LINE
8
DEFAULT_255_2_778
10
14.0482318
20
5.577258
11
14.6266318
21
5.552658
0
LINE
8
DEFAULT_255_2_778
10
14.6435318
20
6.311958
11
14.6422318
21
6.355158
0
ARC
8
DEFAULT_255_2_778
10
14.8600235
20
20.0201504
40
13.7648903
50
270.0001327
51
270.4504549
0
ARC
8
DEFAULT_255_2_778
10
14.8605959
20
20.028888
40
13.7736278
50
255.3890572
51
269.9977513
0
ARC
8
DEFAULT_255_2_778
10
13.5678617
20
15.1143306
40
8.6919117
50
245.1877976
51
255.4629579
0
ARC
8
DEFAULT_255_2_778
10
10.7167841
20
8.936564
40
1.888036
50
234.2943746
51
244.6672256
0
ARC
8
DEFAULT_255_2_778
10
10.5144394
20
8.6553859
40
1.5416194
50
219.4321218
51
234.302096
0
ARC
8
DEFAULT_255_2_778
10
10.716456
20
8.7561975
40
1.7624065
50
183.4273492
51
217.7918044
0
ARC
8
DEFAULT_255_2_778
10
12.1265229
20
8.9446863
40
3.1829145
50
179.8582418
51
185.2971592
0
ARC
8
DEFAULT_255_2_778
10
13.0906464
20
8.9496618
40
4.1470292
50
177.6032466
51
179.9599401
0
ARC
8
DEFAULT_255_2_778
10
14.9057719
20
8.8588063
40
5.9643848
50
173.7320712
51
177.460408
0
ARC
8
DEFAULT_255_2_778
10
8.2785323
20
9.5838152
40
0.7023994
50
353.9664547
51
0.0554416
0
ARC
8
DEFAULT_255_2_778
10
8.1994901
20
9.5832733
40
0.7814423
50
0.0895676
51
12.1833954
0
ARC
8
DEFAULT_255_2_778
10
8.2984156
20
9.617575
40
0.6776237
50
11.1135767
51
49.5273637
0
ARC
8
DEFAULT_255_2_778
10
8.3697547
20
9.6830251
40
0.581649
50
50.6884424
51
56.5056106
0
ARC
8
DEFAULT_255_2_778
10
8.3291346
20
9.6275438
40
0.6503417
50
56.218661
51
90.0170745
0
ARC
8
DEFAULT_255_2_778
10
8.328747
20
9.6275438
40
0.6503417
50
89.9829255
51
123.781339
0
ARC
8
DEFAULT_255_2_778
10
8.3288973
20
9.6386938
40
0.641189
50
124.3465014
51
162.2684552
0
ARC
8
DEFAULT_255_2_778
10
8.4520542
20
9.5853834
40
0.7748449
50
161.2872009
51
167.6868068
0
ARC
8
DEFAULT_255_2_778
10
8.456436
20
9.5836628
40
0.7794932
50
167.6319265
51
179.9053857
0
ARC
8
DEFAULT_255_2_778
10
8.375197
20
9.584257
40
0.6982536
50
179.943134
51
186.0564487
0
ARC
8
DEFAULT_255_2_778
10
1.8059475
20
8.8678206
40
5.9099508
50
2.455937
51
6.2438266
0
ARC
8
DEFAULT_255_2_778
10
3.5686117
20
8.9540063
40
4.145226
50
0.0367342
51
2.3097746
0
ARC
8
DEFAULT_255_2_778
10
5.2932447
20
8.9031264
40
2.4211842
50
341.1005317
51
1.2670343
0
ARC
8
DEFAULT_255_2_778
10
6.157699
20
8.6331351
40
1.5160806
50
316.0570763
51
340.1719955
0
ARC
8
DEFAULT_255_2_778
10
6.093357
20
8.7072709
40
1.6138784
50
302.6147182
51
315.7471244
0
ARC
8
DEFAULT_255_2_778
10
5.9097755
20
8.9872908
40
1.9486947
50
295.5107719
51
302.7236856
0
ARC
8
DEFAULT_255_2_778
10
3.1034626
20
15.098872
40
8.6736449
50
284.4916147
51
294.770895
0
ARC
8
DEFAULT_255_2_778
10
1.7988806
20
20.0346404
40
13.7788629
50
270.0019336
51
284.6078684
0
ARC
8
DEFAULT_255_2_778
10
1.799352
20
20.0284646
40
13.7726872
50
269.5589785
51
269.9999734
0
LINE
8
DEFAULT_255_2_778
10
1.6880408
20
6.2561855
11
1.6873768
21
6.2561853
0
ARC
8
DEFAULT_255_2_778
10
1.6873234
20
7.3478551
40
1.0916698
50
194.3556997
51
270.0028019
0
ARC
8
DEFAULT_255_2_778
10
29.0105931
20
14.3480283
40
29.2974049
50
194.1160741
51
194.3694624
0
ARC
8
DEFAULT_255_2_778
10
24.5222559
20
13.2204788
40
24.6696044
50
193.6708643
51
194.1187355
0
ARC
8
DEFAULT_255_2_778
10
21.258433
20
12.4267716
40
21.3106594
50
193.087596
51
193.6713058
0
ARC
8
DEFAULT_255_2_778
10
19.74823
20
12.073491
40
19.759687
50
193.0382589
51
193.0814108
0
ARC
8
DEFAULT_255_2_778
10
17.9490665
20
11.6642775
40
17.9145889
50
191.656938
51
193.0613837
0
ARC
8
DEFAULT_255_2_778
10
14.7559155
20
11.0085001
40
14.6547963
50
189.6092586
51
191.6683865
0
ARC
8
DEFAULT_255_2_778
10
11.0185759
20
10.3969229
40
10.8678254
50
184.892009
51
189.7192904
0
ARC
8
DEFAULT_255_2_778
10
8.1430081
20
10.1341606
40
7.9803421
50
181.6908665
51
184.772953
0
ARC
8
DEFAULT_255_2_778
10
1.1723442
20
9.9280023
40
1.0066304
50
180.0007126
51
181.6689029
0
ARC
8
DEFAULT_255_2_778
10
1.1660222
20
9.9278576
40
1.0003083
50
114.0701992
51
179.9924266
0
ARC
8
DEFAULT_255_2_778
10
2.4962373
20
6.9164972
40
4.2923775
50
110.2467808
51
113.8879672
0
ARC
8
DEFAULT_255_2_778
10
3.0619133
20
5.385692
40
5.9243559
50
107.1412702
51
110.2561251
0
ARC
8
DEFAULT_255_2_778
10
3.6642906
20
3.4409511
40
7.9602518
50
104.6543253
51
107.1589002
0
ARC
8
DEFAULT_255_2_778
10
4.2792891
20
1.0934931
40
10.3869328
50
102.4692325
51
104.6604846
0
ARC
8
DEFAULT_255_2_778
10
4.9864571
20
-2.1249403
40
13.6821391
50
100.0042561
51
102.4507158
0
ARC
8
DEFAULT_255_2_778
10
5.7052729
20
-6.1836455
40
17.8040049
50
97.8239961
51
100.0132749
0
ARC
8
DEFAULT_255_2_778
10
6.2149871
20
-9.8572547
40
21.5128044
50
95.836842
51
97.8369903
0
ARC
8
DEFAULT_255_2_778
10
6.371717
20
-11.3196787
40
22.9835864
50
94.5476857
51
95.8547776
0
ARC
8
DEFAULT_255_2_778
10
6.314391
20
-10.5789758
40
22.2406702
50
93.5514947
51
94.5517662
0
ARC
8
DEFAULT_255_2_778
10
6.2026585
20
-8.7803571
40
20.4385845
50
92.7816098
51
93.5512105
0
ARC
8
DEFAULT_255_2_778
10
6.0806707
20
-6.2331574
40
17.8884661
50
91.8642468
51
92.7872772
0
ARC
8
DEFAULT_255_2_778
10
5.9795478
20
-3.1288468
40
14.782509
50
91.0078599
51
91.8639309
0
ARC
8
DEFAULT_255_2_778
10
5.9254598
20
0.0149149
40
11.6382825
50
90.0240362
51
91.013855
0
ARC
8
DEFAULT_255_2_778
10
5.920927
20
1.9992652
40
9.6539312
50
89.7210598
51
90.0020749
0
ARC
8
DEFAULT_255_2_778
10
5.9245972
20
2.7574018
40
8.8957857
50
89.4738207
51
89.7209262
0
ARC
8
DEFAULT_255_2_778
10
5.9303594
20
3.3734568
40
8.2797037
50
89.2160646
51
89.4745433
0
ARC
8
DEFAULT_255_2_778
10
6.0536451
20
10.1359868
40
1.5164317
50
89.99892
51
90.3779956
0
ARC
8
DEFAULT_255_2_778
10
6.0537792
20
10.1337113
40
1.5187072
50
44.648198
51
90.0039832
0
ARC
8
DEFAULT_255_2_778
10
8.3772765
20
8.5486254
40
2.9291896
50
90.8594266
51
115.1102638
0
ARC
8
DEFAULT_255_2_778
10
8.2888669
20
8.546291
40
2.9315318
50
64.8995712
51
89.1307383
0
ARC
8
DEFAULT_255_2_778
10
10.6097363
20
10.1413634
40
1.5110805
50
89.9997467
51
135.4738536
0
ARC
8
DEFAULT_255_2_778
10
10.6097399
20
10.1377318
40
1.514712
50
89.496869
51
89.9998836
0
ARC
8
DEFAULT_255_2_778
10
10.6871807
20
7.0234588
40
4.629371
50
90.5700826
51
90.7938578
0
ARC
8
DEFAULT_255_2_778
10
10.6951429
20
6.2089962
40
5.4438725
50
90.3036639
51
90.5685895
0
ARC
8
DEFAULT_255_2_778
10
10.6999028
20
5.3067646
40
6.3461166
50
90.0705641
51
90.303466
0
ARC
8
DEFAULT_255_2_778
10
10.7009733
20
4.6024498
40
7.0504324
50
89.9996721
51
90.0722152
0
ARC
8
DEFAULT_255_2_778
10
10.6975115
20
2.8822021
40
8.7706808
50
89.3163713
51
89.9771213
0
ARC
8
DEFAULT_255_2_778
10
10.6474551
20
-1.2173869
40
12.8705754
50
88.5576435
51
89.3112991
0
ARC
8
DEFAULT_255_2_778
10
10.535905
20
-5.7219395
40
17.3765086
50
87.869952
51
88.5638102
0
ARC
8
DEFAULT_255_2_778
10
10.4030428
20
-9.3366072
40
20.993617
50
87.2087937
51
87.874261
0
ARC
8
DEFAULT_255_2_778
10
10.2942423
20
-11.6006415
40
23.2602634
50
86.6337797
51
87.2126833
0
ARC
8
DEFAULT_255_2_778
10
10.2220151
20
-12.8326173
40
24.4943546
50
85.8510588
51
86.6343327
0
ARC
8
DEFAULT_255_2_778
10
10.2169024
20
-12.9195448
40
24.5814243
50
84.9432612
51
85.853832
0
ARC
8
DEFAULT_255_2_778
10
10.3426907
20
-11.5330884
40
23.1892771
50
83.6034754
51
84.9509044
0
ARC
8
DEFAULT_255_2_778
10
10.7232743
20
-8.2104003
40
19.8448751
50
81.512651
51
83.6266829
0
ARC
8
DEFAULT_255_2_778
10
11.4861909
20
-3.1918619
40
14.7687041
50
78.2422584
51
81.5664614
0
ARC
8
DEFAULT_255_2_778
10
12.3472525
20
0.9921746
40
10.4969996
50
75.4948782
51
78.1898408
0
ARC
8
DEFAULT_255_2_778
10
13.0042972
20
3.5349189
40
7.870737
50
72.6593661
51
75.4892675
0
ARC
8
DEFAULT_255_2_778
10
13.5678401
20
5.3421263
40
5.9777028
50
69.7086281
51
72.652542
0
ARC
8
DEFAULT_255_2_778
10
14.0781998
20
6.718098
40
4.5101325
50
66.0555441
51
69.727786
0
ARC
8
DEFAULT_255_2_778
10
15.5028123
20
9.9258195
40
1.0002895
50
0.0066377
51
66.0643025
0
ARC
8
DEFAULT_255_2_778
10
15.4970485
20
9.9259381
40
1.0060532
50
358.2654236
51
359.9998428
0
ARC
8
DEFAULT_255_2_778
10
8.8482461
20
10.1023319
40
7.657189
50
355.2882023
51
358.4520602
0
ARC
8
DEFAULT_255_2_778
10
5.8671205
20
10.3753844
40
10.6507044
50
350.0348479
51
355.1416153
0
ARC
8
DEFAULT_255_2_778
10
1.7972254
20
11.0533374
40
14.7765623
50
348.4083311
51
350.1766363
0
ARC
8
DEFAULT_255_2_778
10
-2.0117681
20
11.83378
40
18.664688
50
347.0878933
51
348.4109001
0
ARC
8
DEFAULT_255_2_778
10
-6.2237855
20
12.789513
40
22.9837667
50
346.7099269
51
347.1119111
0
ARC
8
DEFAULT_255_2_778
10
-11.118556
20
13.9483464
40
28.013843
50
346.2622377
51
346.7046439
0
ARC
8
DEFAULT_255_2_778
10
-22.1334382
20
16.6399331
40
39.352814
50
346.0120087
51
346.2639977
0
ARC
8
DEFAULT_255_2_778
10
-39.3729722
20
20.9262984
40
57.1172282
50
345.9644283
51
346.0198888
0
ARC
8
DEFAULT_255_2_778
10
14.9818989
20
7.344087
40
1.0911021
50
269.9972577
51
345.6674607
0
LINE
8
DEFAULT_255_2_778
10
14.9818467
20
6.2529849
11
14.9807408
21
6.2529855
0
ARC
8
DEFAULT_255_2_778
10
10.7530888
20
10.0358374
40
0.7078347
50
88.6843631
51
89.999198
0
ARC
8
DEFAULT_255_2_778
10
10.7533397
20
10.045244
40
0.6984281
50
90.0197714
51
170.7770633
0
ARC
8
DEFAULT_255_2_778
10
19.6584686
20
8.3706355
40
9.7594428
50
169.4520344
51
176.6361521
0
ARC
8
DEFAULT_255_2_778
10
11.8273923
20
8.9214593
40
1.9116761
50
179.3458241
51
179.9978431
0
ARC
8
DEFAULT_255_2_778
10
11.3905123
20
8.9086684
40
1.474852
50
179.5002895
51
192.3819596
0
ARC
8
DEFAULT_255_2_778
10
10.845459
20
8.7826926
40
0.9154849
50
191.9957463
51
216.635553
0
ARC
8
DEFAULT_255_2_778
10
10.7592071
20
8.7365208
40
0.8188475
50
217.6444501
51
244.7212492
0
ARC
8
DEFAULT_255_2_778
10
13.9150273
20
15.8810869
40
8.6291183
50
246.0311923
51
253.8062692
0
ARC
8
DEFAULT_255_2_778
10
14.2676532
20
17.0878134
40
9.8863097
50
253.7941217
51
259.4780796
0
ARC
8
DEFAULT_255_2_778
10
14.5810708
20
18.7650541
40
11.5925819
50
259.4688682
51
264.038096
0
ARC
8
DEFAULT_255_2_778
10
14.8078023
20
20.9130453
40
13.7525051
50
264.0280995
51
267.7478346
0
ARC
8
DEFAULT_255_2_778
10
14.9008786
20
23.0348727
40
15.8763543
50
267.713111
51
269.7371365
0
ARC
8
DEFAULT_255_2_778
10
14.8261699
20
7.4524228
40
0.2937433
50
270.3649389
51
345.1794504
0
ARC
8
DEFAULT_255_2_778
10
-11.9351727
20
14.2783399
40
27.9118888
50
345.6854983
51
345.923669
0
ARC
8
DEFAULT_255_2_778
10
-7.1879657
20
13.0895712
40
23.0181028
50
345.9198961
51
346.3790984
0
ARC
8
DEFAULT_255_2_778
10
-3.8309935
20
12.2759327
40
19.5639358
50
346.3796819
51
346.9524527
0
ARC
8
DEFAULT_255_2_778
10
-0.8670468
20
11.5928183
40
16.5222901
50
346.9397576
51
348.155081
0
ARC
8
DEFAULT_255_2_778
10
2.4787797
20
10.8986736
40
13.1052267
50
348.1226772
51
350.5309267
0
ARC
8
DEFAULT_255_2_778
10
5.7505452
20
10.3577949
40
9.7890589
50
350.5031469
51
353.9435952
0
ARC
8
DEFAULT_255_2_778
10
8.3737496
20
10.0797082
40
7.1511558
50
353.941728
51
357.9228781
0
ARC
8
DEFAULT_255_2_778
10
9.4850032
20
10.0278888
40
6.0387652
50
358.0320685
51
358.3421838
0
ARC
8
DEFAULT_255_2_778
10
15.3142051
20
9.860081
40
0.2071505
50
358.0923983
51
0.0008646
0
ARC
8
DEFAULT_255_2_778
10
15.315061
20
9.860036
40
0.2062947
50
0.0133743
51
66.129989
0
ARC
8
DEFAULT_255_2_778
10
13.9832957
20
6.8557047
40
3.49257
50
66.0953376
51
69.8903756
0
ARC
8
DEFAULT_255_2_778
10
13.489193
20
5.5091763
40
4.9268906
50
69.8785079
51
73.0746847
0
ARC
8
DEFAULT_255_2_778
10
12.9571499
20
3.7689524
40
6.7466282
50
73.0545143
51
75.5887912
0
ARC
8
DEFAULT_255_2_778
10
12.4074809
20
1.6343407
40
8.9508746
50
75.581669
51
77.7707033
0
ARC
8
DEFAULT_255_2_778
10
11.7438258
20
-1.4542697
40
12.1099772
50
77.7974267
51
80.3367792
0
ARC
8
DEFAULT_255_2_778
10
11.0788683
20
-5.3231709
40
16.035603
50
80.3149763
51
82.3036871
0
ARC
8
DEFAULT_255_2_778
10
10.5846607
20
-8.9667844
40
19.7125794
50
82.2984724
51
84.2872685
0
ARC
8
DEFAULT_255_2_778
10
10.407235
20
-10.6621784
40
21.4172158
50
84.2664458
51
85.4967834
0
ARC
8
DEFAULT_255_2_778
10
10.4536576
20
-10.0500157
40
20.8032982
50
85.4918681
51
86.4632196
0
ARC
8
DEFAULT_255_2_778
10
10.5678325
20
-8.2022082
40
18.9519666
50
86.4631216
51
87.2086149
0
ARC
8
DEFAULT_255_2_778
10
10.6983584
20
-5.4848376
40
16.2314638
50
87.2016826
51
88.1021671
0
ARC
8
DEFAULT_255_2_778
10
10.8091811
20
-2.1367707
40
12.8815631
50
88.1016455
51
88.95433
0
ARC
8
DEFAULT_255_2_778
10
10.8687181
20
1.2083626
40
9.5359005
50
88.9452001
51
89.9678777
0
ARC
8
DEFAULT_255_2_778
10
10.8736533
20
3.2748087
40
7.4694529
50
89.9968471
51
90.3103996
0
ARC
8
DEFAULT_255_2_778
10
10.8695059
20
4.0541398
40
6.6901106
50
90.3110389
51
90.591728
0
ARC
8
DEFAULT_255_2_778
10
10.8626119
20
4.7117299
40
6.0324844
50
90.5907556
51
90.8906616
0
ARC
8
DEFAULT_255_2_778
10
1.3490696
20
9.8592901
40
0.2064077
50
114.1140507
51
179.9691788
0
ARC
8
DEFAULT_255_2_778
10
1.349396
20
9.8593929
40
0.206734
50
179.9977016
51
181.5819891
0
ARC
8
DEFAULT_255_2_778
10
7.9843106
20
10.0635134
40
6.8447867
50
181.756686
51
185.3566787
0
ARC
8
DEFAULT_255_2_778
10
9.3626532
20
10.1820158
40
8.2281795
50
185.2822329
51
186.292452
0
ARC
8
DEFAULT_255_2_778
10
11.8795236
20
10.4917785
40
10.7638854
50
186.4629951
51
190.9222133
0
ARC
8
DEFAULT_255_2_778
10
15.8994219
20
11.2369604
40
14.852189
50
190.8065136
51
192.554849
0
ARC
8
DEFAULT_255_2_778
10
18.2909369
20
11.7610802
40
17.3004509
50
192.5274729
51
193.0427044
0
ARC
8
DEFAULT_255_2_778
10
20.086236
20
12.1777467
40
19.1434672
50
193.0449768
51
193.6271579
0
ARC
8
DEFAULT_255_2_778
10
22.5453475
20
12.7732843
40
21.6736636
50
193.6255701
51
194.0317385
0
ARC
8
DEFAULT_255_2_778
10
25.9193179
20
13.6166514
40
25.1514422
50
194.0320841
51
194.3622704
0
ARC
8
DEFAULT_255_2_778
10
1.8358728
20
7.4502916
40
0.2911061
50
194.4225636
51
270.0133963
0
ARC
8
DEFAULT_255_2_778
10
1.7741976
20
22.5305128
40
15.3714513
50
270.2301433
51
273.6090094
0
ARC
8
DEFAULT_255_2_778
10
1.9353087
20
20.0052196
40
12.8410247
50
273.6008402
51
277.6867179
0
ARC
8
DEFAULT_255_2_778
10
2.1954616
20
18.0775792
40
10.8959084
50
277.6868185
51
282.3450153
0
ARC
8
DEFAULT_255_2_778
10
2.5178329
20
16.6185223
40
9.4016662
50
282.3268912
51
288.6826032
0
ARC
8
DEFAULT_255_2_778
10
2.7924226
20
15.7876641
40
8.5266319
50
288.7230825
51
293.9832638
0
ARC
8
DEFAULT_255_2_778
10
5.8990783
20
8.7478103
40
0.832127
50
295.5704068
51
347.8865932
0
ARC
8
DEFAULT_255_2_778
10
5.3322245
20
8.9047907
40
1.4197213
50
346.4928329
51
359.7541278
0
ARC
8
DEFAULT_255_2_778
10
4.922085
20
8.9224698
40
1.8300021
50
359.2557113
51
0.0020587
0
ARC
8
DEFAULT_255_2_778
10
4.8637877
20
8.9224722
40
1.8882994
50
0.0019238
51
0.7134703
0
ARC
8
DEFAULT_255_2_778
10
-2.9107577
20
8.4059247
40
9.6777791
50
3.1990071
51
10.4291123
0
ARC
8
DEFAULT_255_2_778
10
5.9176834
20
10.0457699
40
0.6984977
50
9.2281654
51
89.9837849
0
ARC
8
DEFAULT_255_2_778
10
5.9178816
20
10.037291
40
0.7069764
50
90.0000419
51
91.3001112
0
ARC
8
DEFAULT_255_2_778
10
5.8525074
20
7.5459208
40
3.1985451
50
89.1162506
51
89.3720846
0
ARC
8
DEFAULT_255_2_778
10
5.8450876
20
6.8550464
40
3.8894594
50
89.3743229
51
89.6715561
0
ARC
8
DEFAULT_255_2_778
10
5.8402525
20
6.0272812
40
4.7172385
50
89.6704634
51
89.9251767
0
ARC
8
DEFAULT_255_2_778
10
5.8392746
20
5.6522474
40
5.0922732
50
89.9196843
51
90.0020001
0
ARC
8
DEFAULT_255_2_778
10
5.8425097
20
3.7230594
40
7.0214621
50
90.0278492
51
90.6984056
0
ARC
8
DEFAULT_255_2_778
10
5.8921213
20
-0.2757419
40
11.0205711
50
90.7029075
51
91.4364587
0
ARC
8
DEFAULT_255_2_778
10
6.0030602
20
-4.7810639
40
15.5272584
50
91.4289428
51
92.0888591
0
ARC
8
DEFAULT_255_2_778
10
6.1347605
20
-8.4366525
40
19.1852182
50
92.0839876
51
92.7111224
0
ARC
8
DEFAULT_255_2_778
10
6.2427162
20
-10.7488206
40
21.4999048
50
92.7070411
51
93.2511405
0
ARC
8
DEFAULT_255_2_778
10
6.3138061
20
-12.0040133
40
22.757109
50
93.250612
51
93.9879173
0
ARC
8
DEFAULT_255_2_778
10
6.3216379
20
-12.1321356
40
22.8854658
50
93.9851695
51
94.8451945
0
ARC
8
DEFAULT_255_2_778
10
6.2060443
20
-10.8021363
40
21.5504559
50
94.8376341
51
96.1177655
0
ARC
8
DEFAULT_255_2_778
10
5.8544546
20
-7.5918798
40
18.3210137
50
96.0944272
51
98.1209836
0
ARC
8
DEFAULT_255_2_778
10
5.1476047
20
-2.7339241
40
13.4119283
50
98.0632758
51
101.3318444
0
ARC
8
DEFAULT_255_2_778
10
4.3499624
20
1.2907176
40
9.3090191
50
101.3854759
51
104.0866468
0
ARC
8
DEFAULT_255_2_778
10
3.7450136
20
3.7037884
40
6.8212744
50
104.0913296
51
106.9768352
0
ARC
8
DEFAULT_255_2_778
10
3.2296171
20
5.3938952
40
5.0543297
50
106.9830579
51
110.0386373
0
ARC
8
DEFAULT_255_2_778
10
2.7667738
20
6.6583588
40
3.7078199
50
110.0146786
51
113.9023804
0
LINE
8
DEFAULT_255_2_778
10
9.9203408
20
7.2247855
11
9.9089408
21
7.2300855
0
LINE
8
DEFAULT_255_2_778
10
6.7490408
20
7.2285855
11
6.7376408
21
7.2232855
0
LINE
8
DEFAULT_255_2_778
10
1.6933408
20
6.2561855
11
1.6880408
21
6.2561855
0
LINE
8
DEFAULT_255_2_778
10
14.9807408
20
6.2529855
11
14.9682408
21
6.2556855
0
LINE
8
DEFAULT_255_2_778
10
10.7688408
20
10.7434855
11
10.7693408
21
10.7434855
0
LINE
8
DEFAULT_255_2_778
10
1.2644408
20
10.0481855
11
1.2647408
21
10.0476855
0
ENDSEC
0
EOF