0
SECTION
2
HEADER
9
$MEASUREMENT
70
1
0
ENDSEC
0
SECTION
2
TABLES
0
TABLE
2
LTYPE
0
LTYPE
72
65
70
64
2
CONTINUOUS
3
______
73
0
40
0
0
ENDTAB
0
TABLE
2
LAYER
0
LAYER
2
DEFAULT_255_2_778
70
0
62
255
6
CONTINUOUS
0
ENDTAB
0
ENDSEC
0
SECTION
2
ENTITIES
0
ARC
8
DEFAULT_255_2_778
10
1.6189313
20
4.2223068
40
2.4603678
50
269.4166931
51
277.7643641
0
ARC
8
DEFAULT_255_2_778
10
1.8206472
20
2.8374451
40
1.0610277
50
277.0746201
51
298.9312746
0
ARC
8
DEFAULT_255_2_778
10
1.9319808
20
2.595986
40
0.7960793
50
300.3254486
51
328.5854886
0
ARC
8
DEFAULT_255_2_778
10
1.5812283
20
2.8157341
40
1.2099657
50
328.3621721
51
341.3532801
0
ARC
8
DEFAULT_255_2_778
10
0.8392044
20
3.0723454
40
1.995095
50
341.184058
51
349.3931983
0
ARC
8
DEFAULT_255_2_778
10
-0.3748724
20
3.3063933
40
3.2315151
50
349.2766032
51
354.6697613
0
ARC
8
DEFAULT_255_2_778
10
-2.1374044
20
3.4766559
40
5.0022455
50
354.6033955
51
358.3191163
0
ARC
8
DEFAULT_255_2_778
10
-4.0661396
20
3.543679
40
6.9321246
50
358.2329998
51
0.035437
0
ARC
8
DEFAULT_255_2_778
10
-1.620013
20
13.5079367
40
4.4860326
50
359.7704823
51
4.0121845
0
ARC
8
DEFAULT_255_2_778
10
0.5842145
20
13.6686183
40
2.2759726
50
3.8596017
51
11.5381636
0
ARC
8
DEFAULT_255_2_778
10
1.6673
20
13.8966463
40
1.1691838
50
11.2058832
51
26.2427644
0
ARC
8
DEFAULT_255_2_778
10
2.0256525
20
14.0653374
40
0.7732093
50
26.7726505
51
68.5593887
0
ARC
8
DEFAULT_255_2_778
10
1.7649603
20
13.4738067
40
1.4193428
50
67.4925948
51
78.9025399
0
ARC
8
DEFAULT_255_2_778
10
1.5413072
20
12.3876299
40
2.5282792
50
78.6667319
51
85.0480843
0
ARC
8
DEFAULT_255_2_778
10
1.3738068
20
10.5271596
40
4.3962683
50
84.9662383
51
89.1225922
0
ARC
8
DEFAULT_255_2_778
10
1.3252895
20
8.5595331
40
6.3644336
50
88.9571146
51
90.0162571
0
ARC
8
DEFAULT_255_2_778
10
-92.3278203
20
-0.7771168
40
107.2370057
50
5.8011861
51
5.8498055
0
ARC
8
DEFAULT_255_2_778
10
-74.9198303
20
1.0063608
40
89.7378941
50
5.8498381
51
5.9068543
0
ARC
8
DEFAULT_255_2_778
10
-66.5505145
20
1.8723075
40
81.3238992
50
5.9068191
51
5.9157534
0
ARC
8
DEFAULT_255_2_778
10
-37.1192596
20
4.9602279
40
51.7311342
50
5.8735404
51
6.5436533
0
ARC
8
DEFAULT_255_2_778
10
-12.6219468
20
7.7717135
40
27.0730161
50
6.5405813
51
7.6541392
0
ARC
8
DEFAULT_255_2_778
10
-1.5312026
20
9.2719889
40
15.8812658
50
7.6191464
51
9.6685269
0
ARC
8
DEFAULT_255_2_778
10
4.5833524
20
10.3178668
40
9.6779106
50
9.6442806
51
12.7546103
0
ARC
8
DEFAULT_255_2_778
10
8.062271
20
11.1109132
40
6.1097526
50
12.7038182
51
17.532548
0
ARC
8
DEFAULT_255_2_778
10
10.1368516
20
11.7716727
40
3.9324959
50
17.4582084
51
24.9545134
0
ARC
8
DEFAULT_255_2_778
10
11.3356522
20
12.3374569
40
2.6069179
50
24.796446
51
38.12803
0
ARC
8
DEFAULT_255_2_778
10
11.7180743
20
12.6220327
40
2.1304243
50
38.4577172
51
62.7775124
0
ARC
8
DEFAULT_255_2_778
10
11.4198405
20
12.0549367
40
2.7711392
50
62.6579182
51
72.7104199
0
ARC
8
DEFAULT_255_2_778
10
11.0980798
20
11.0373007
40
3.8384239
50
72.639081
51
79.4295316
0
ARC
8
DEFAULT_255_2_778
10
10.8144251
20
9.5438866
40
5.3585318
50
79.3773295
51
84.1975664
0
ARC
8
DEFAULT_255_2_778
10
10.6014411
20
7.4862311
40
7.427178
50
84.1677366
51
87.786528
0
ARC
8
DEFAULT_255_2_778
10
10.4975022
20
4.9978902
40
9.9176797
50
87.7417281
51
90.0480577
0
ARC
8
DEFAULT_255_2_778
10
7.5361211
20
12.899485
40
3.3065527
50
269.7394298
51
277.3980705
0
ARC
8
DEFAULT_255_2_778
10
7.6871291
20
11.7749578
40
2.1719481
50
277.2673752
51
289.2723707
0
ARC
8
DEFAULT_255_2_778
10
7.9191123
20
11.1389089
40
1.4950025
50
288.9255641
51
329.6110786
0
ARC
8
DEFAULT_255_2_778
10
7.3849967
20
11.468555
40
2.1225411
50
329.2287041
51
340.6152755
0
ARC
8
DEFAULT_255_2_778
10
6.4787594
20
11.793832
40
3.0853734
50
340.5029543
51
347.9868504
0
ARC
8
DEFAULT_255_2_778
10
5.1099919
20
12.0888937
40
4.4855793
50
347.9394636
51
353.5136104
0
ARC
8
DEFAULT_255_2_778
10
3.1539453
20
12.3164113
40
6.4548089
50
353.4684112
51
357.5491318
0
ARC
8
DEFAULT_255_2_778
10
0.8000574
20
12.4259139
40
8.8112305
50
357.4922739
51
0.056264
0
ARC
8
DEFAULT_255_2_778
10
1.1623691
20
4.859208
40
8.4489224
50
359.9217317
51
3.050209
0
ARC
8
DEFAULT_255_2_778
10
3.5226688
20
4.9890682
40
6.0850578
50
3.0117713
51
7.3382654
0
ARC
8
DEFAULT_255_2_778
10
5.3324489
20
5.2253466
40
4.259923
50
7.2954242
51
13.1144164
0
ARC
8
DEFAULT_255_2_778
10
6.6133127
20
5.5270458
40
2.9440129
50
13.0519986
51
21.1119376
0
ARC
8
DEFAULT_255_2_778
10
7.4611
20
5.8588479
40
2.0336224
50
20.9945759
51
33.3468936
0
ARC
8
DEFAULT_255_2_778
10
7.8873693
20
6.139703
40
1.5231472
50
33.3359314
51
73.8453508
0
ARC
8
DEFAULT_255_2_778
10
7.6417844
20
5.3895613
40
2.3121582
50
73.1719283
51
84.4383832
0
ARC
8
DEFAULT_255_2_778
10
7.5300207
20
4.3707285
40
3.3370499
50
84.2238281
51
90.1534458
0
ARC
8
DEFAULT_255_2_778
10
11.0815453
20
5.9859942
40
4.2234546
50
269.7956715
51
277.0672103
0
ARC
8
DEFAULT_255_2_778
10
11.2342028
20
4.7897231
40
3.0174932
50
276.9852553
51
287.8642495
0
ARC
8
DEFAULT_255_2_778
10
11.4612569
20
4.1023357
40
2.2936016
50
287.7332999
51
322.6442781
0
ARC
8
DEFAULT_255_2_778
10
10.8399648
20
4.6001614
40
3.0895752
50
322.2967959
51
332.210863
0
ARC
8
DEFAULT_255_2_778
10
9.8302406
20
5.1372819
40
4.2332653
50
332.1510185
51
339.1447299
0
ARC
8
DEFAULT_255_2_778
10
8.3339209
20
5.7125883
40
5.8363662
50
339.0965165
51
344.1863785
0
ARC
8
DEFAULT_255_2_778
10
6.2698406
20
6.3013709
40
7.9827772
50
344.157535
51
348.0447684
0
ARC
8
DEFAULT_255_2_778
10
3.6104629
20
6.8702993
40
10.7023258
50
348.0142252
51
350.8438517
0
ARC
8
DEFAULT_255_2_778
10
0.1830496
20
7.4240936
40
14.1741912
50
350.8383998
51
353.2332801
0
ARC
8
DEFAULT_255_2_778
10
-4.3150957
20
7.9617883
40
18.7043585
50
353.2211947
51
355.0980496
0
ARC
8
DEFAULT_255_2_778
10
-10.0683025
20
8.4576578
40
24.4788948
50
355.0923398
51
356.6388356
0
LINE
8
DEFAULT_255_2_778
10
0.2497836
20
-0.1323336
11
0.2497836
21
1.7620664
0
LINE
8
DEFAULT_255_2_778
10
0.2497836
20
1.7620664
11
1.5938836
21
1.7620664
0
LINE
8
DEFAULT_255_2_778
10
2.8659836
20
3.5479664
11
2.8659836
21
13.4899664
0
LINE
8
DEFAULT_255_2_778
10
1.3234836
20
14.9239664
11
0.2497836
21
14.9239664
0
LINE
8
DEFAULT_255_2_778
10
0.2497836
20
14.9239664
11
0.2497836
21
16.8009664
0
LINE
8
DEFAULT_255_2_778
10
0.2497836
20
16.8009664
11
16.1459836
21
16.8009664
0
LINE
8
DEFAULT_255_2_778
10
16.1459836
20
16.8009664
11
16.1459836
21
10.0620664
0
LINE
8
DEFAULT_255_2_778
10
16.1459836
20
10.0620664
11
14.3599836
21
10.0620664
0
LINE
8
DEFAULT_255_2_778
10
10.4891836
20
14.9155664
11
6.2489836
21
14.9155664
0
LINE
8
DEFAULT_255_2_778
10
6.2489836
20
14.9155664
11
6.2489836
21
9.5929664
0
LINE
8
DEFAULT_255_2_778
10
6.2489836
20
9.5929664
11
7.5210836
21
9.5929664
0
LINE
8
DEFAULT_255_2_778
10
9.6112836
20
12.4345664
11
9.6112836
21
12.7591664
0
LINE
8
DEFAULT_255_2_778
10
9.6112836
20
12.7591664
11
11.3971836
21
12.7591664
0
LINE
8
DEFAULT_255_2_778
10
11.3971836
20
12.7591664
11
11.3971836
21
4.2337664
0
LINE
8
DEFAULT_255_2_778
10
11.3971836
20
4.2337664
11
9.6112836
21
4.2337664
0
LINE
8
DEFAULT_255_2_778
10
9.6112836
20
4.2337664
11
9.6112836
21
4.8476664
0
LINE
8
DEFAULT_255_2_778
10
7.5210836
20
7.7077664
11
6.2489836
21
7.7077664
0
LINE
8
DEFAULT_255_2_778
10
6.2489836
20
7.7077664
11
6.2489836
21
1.7625664
0
LINE
8
DEFAULT_255_2_778
10
6.2489836
20
1.7625664
11
11.0664836
21
1.7625664
0
LINE
8
DEFAULT_255_2_778
10
14.3684836
20
7.0224664
11
16.1543836
21
7.0224664
0
LINE
8
DEFAULT_255_2_778
10
16.1543836
20
7.0224664
11
16.1543836
21
-0.1323336
0
LINE
8
DEFAULT_255_2_778
10
16.1543836
20
-0.1323336
11
0.2497836
21
-0.1323336
0
ENDSEC
0
EOF