0
SECTION
2
HEADER
9
$MEASUREMENT
70
1
0
ENDSEC
0
SECTION
2
TABLES
0
TABLE
2
LTYPE
0
LTYPE
72
65
70
64
2
CONTINUOUS
3
______
73
0
40
0
0
ENDTAB
0
TABLE
2
LAYER
0
LAYER
2
DEFAULT_255_2_778
70
0
62
255
6
CONTINUOUS
0
ENDTAB
0
ENDSEC
0
SECTION
2
ENTITIES
0
ARC
8
DEFAULT_255_2_778
10
14.4875063
20
3.7384285
40
2.0028307
50
248.6339234
51
270.4095974
0
ARC
8
DEFAULT_255_2_778
10
14.4970815
20
3.6127392
40
1.8900603
50
224.944973
51
246.9752325
0
ARC
8
DEFAULT_255_2_778
10
14.5160237
20
3.5473476
40
1.858231
50
204.2142685
51
223.1049912
0
ARC
8
DEFAULT_255_2_778
10
14.8939659
20
3.7356747
40
2.280225
50
200.8403779
51
204.6350189
0
ARC
8
DEFAULT_255_2_778
10
14.8011312
20
3.6914828
40
2.1777579
50
186.6180554
51
200.6227098
0
ARC
8
DEFAULT_255_2_778
10
15.4914167
20
3.782894
40
2.8740006
50
179.8653352
51
186.8422675
0
ARC
8
DEFAULT_255_2_778
10
15.3584134
20
3.8026263
40
2.7410201
50
170.0661263
51
180.2712676
0
ARC
8
DEFAULT_255_2_778
10
14.7250599
20
3.9106319
40
2.0985319
50
159.2288022
51
169.9876474
0
ARC
8
DEFAULT_255_2_778
10
14.9146307
20
3.8178874
40
2.3087542
50
146.4852672
51
158.7451745
0
ARC
8
DEFAULT_255_2_778
10
14.5410598
20
4.0565656
40
1.8655195
50
137.7885804
51
146.2619466
0
ARC
8
DEFAULT_255_2_778
10
14.44027
20
4.1142747
40
1.7522726
50
114.0727659
51
136.9719522
0
ARC
8
DEFAULT_255_2_778
10
14.3805012
20
4.313752
40
1.545997
50
89.9954443
51
115.0658754
0
ARC
8
DEFAULT_255_2_778
10
14.3940564
20
4.1319531
40
1.727848
50
75.5913744
51
90.4454219
0
ARC
8
DEFAULT_255_2_778
10
14.4709627
20
4.4633063
40
1.3878032
50
65.6292945
51
75.2625278
0
ARC
8
DEFAULT_255_2_778
10
14.5296789
20
4.5331132
40
1.3002221
50
39.2316953
51
66.7168781
0
ARC
8
DEFAULT_255_2_778
10
14.2889236
20
4.330046
40
1.6151492
50
19.7959432
51
39.4100309
0
ARC
8
DEFAULT_255_2_778
10
13.9416976
20
4.1873769
40
1.9902431
50
17.1229017
51
20.2750606
0
ARC
8
DEFAULT_255_2_778
10
13.592669
20
4.090032
40
2.3524819
50
4.9420777
51
16.8858809
0
ARC
8
DEFAULT_255_2_778
10
12.8966287
20
4.0176023
40
3.0521986
50
359.9164011
51
5.1710492
0
ARC
8
DEFAULT_255_2_778
10
13.1737418
20
4.0134134
40
2.7750823
50
355.6483955
51
359.9945401
0
ARC
8
DEFAULT_255_2_778
10
15.1326489
20
3.7923212
40
0.8082437
50
348.6276964
51
0.7463224
0
ARC
8
DEFAULT_255_2_778
10
15.3114917
20
3.7508086
40
2.0420716
50
183.308707
51
195.2786253
0
ARC
8
DEFAULT_255_2_778
10
14.7221798
20
3.5835002
40
1.4295135
50
195.0339897
51
217.7087838
0
ARC
8
DEFAULT_255_2_778
10
14.6168654
20
3.5144165
40
1.3039777
50
218.1376865
51
222.8533932
0
ARC
8
DEFAULT_255_2_778
10
14.5153756
20
3.4624343
40
1.1946217
50
224.3364218
51
265.5906188
0
ARC
8
DEFAULT_255_2_778
10
14.5807052
20
3.8926683
40
1.6289205
50
264.4629045
51
270.071012
0
ARC
8
DEFAULT_255_2_778
10
14.596283
20
3.891385
40
1.6276925
50
269.5227103
51
285.1618602
0
ARC
8
DEFAULT_255_2_778
10
14.6568173
20
3.6287873
40
1.3584419
50
285.5943725
51
289.0509226
0
ARC
8
DEFAULT_255_2_778
10
14.2657901
20
4.6254805
40
2.4285833
50
290.0956747
51
302.2362408
0
ARC
8
DEFAULT_255_2_778
10
13.9300116
20
5.2005955
40
3.5889467
50
292.440394
51
301.3202935
0
ARC
8
DEFAULT_255_2_778
10
13.6620703
20
5.8091061
40
4.2536859
50
291.5053951
51
292.6474244
0
ARC
8
DEFAULT_255_2_778
10
14.5808678
20
3.5515916
40
1.8167162
50
275.9523516
51
290.6458244
0
ARC
8
DEFAULT_255_2_778
10
14.5066565
20
4.1443346
40
2.4139906
50
269.8853025
51
276.2453105
0
ARC
8
DEFAULT_255_2_778
10
13.1652548
20
4.1259202
40
2.2020063
50
359.6676912
51
8.693857
0
ARC
8
DEFAULT_255_2_778
10
13.9860679
20
4.2559757
40
1.3709732
50
8.5061565
51
22.559769
0
ARC
8
DEFAULT_255_2_778
10
14.3901976
20
4.421423
40
0.9342969
50
22.6981143
51
39.750006
0
ARC
8
DEFAULT_255_2_778
10
14.4662106
20
4.5091838
40
0.8199544
50
38.4314195
51
84.7968621
0
ARC
8
DEFAULT_255_2_778
10
14.3967331
20
4.1118852
40
1.2223664
50
83.2423074
51
90.1222926
0
ARC
8
DEFAULT_255_2_778
10
14.3919636
20
4.2955296
40
1.0387215
50
89.8808279
51
112.7771888
0
ARC
8
DEFAULT_255_2_778
10
14.4125136
20
4.3022471
40
1.0407069
50
113.9635962
51
137.1021859
0
ARC
8
DEFAULT_255_2_778
10
14.5675316
20
4.1098307
40
1.2857333
50
135.5227452
51
154.0438149
0
ARC
8
DEFAULT_255_2_778
10
14.8713957
20
3.9428792
40
1.632108
50
153.4429918
51
155.0731468
0
ARC
8
DEFAULT_255_2_778
10
15.0172306
20
3.9472267
40
1.7637389
50
157.1983828
51
169.9615793
0
ARC
8
DEFAULT_255_2_778
10
15.554661
20
3.8372633
40
2.3121553
50
169.5997535
51
173.1471599
0
ARC
8
DEFAULT_255_2_778
10
17.6113733
20
2.6648018
40
0.9292404
50
254.9344348
51
270.7862219
0
ARC
8
DEFAULT_255_2_778
10
17.4966881
20
2.2647514
40
0.513175
50
216.1333936
51
255.6892751
0
ARC
8
DEFAULT_255_2_778
10
17.7332054
20
2.4027879
40
0.7860912
50
194.1565239
51
214.0934493
0
ARC
8
DEFAULT_255_2_778
10
18.3368078
20
2.5650936
40
1.411092
50
183.3722975
51
194.5525207
0
ARC
8
DEFAULT_255_2_778
10
19.0436782
20
2.6222337
40
2.1201561
50
179.9212179
51
183.7901084
0
ARC
8
DEFAULT_255_2_778
10
18.1204494
20
2.5644691
40
0.5340597
50
178.714656
51
194.9489043
0
ARC
8
DEFAULT_255_2_778
10
17.8088162
20
2.4819049
40
0.2116761
50
195.1162248
51
218.5292336
0
ARC
8
DEFAULT_255_2_778
10
17.7773103
20
2.4560884
40
0.1709488
50
218.3380111
51
269.4013051
0
LINE
8
DEFAULT_255_2_778
10
17.7755241
20
2.2851489
11
17.8321241
21
2.2851489
0
ARC
8
DEFAULT_255_2_778
10
17.8151559
20
2.636342
40
0.3516028
50
272.7661453
51
287.4860341
0
ARC
8
DEFAULT_255_2_778
10
17.9867739
20
2.0662579
40
0.2438234
50
105.6441293
51
105.6980701
0
ARC
8
DEFAULT_255_2_778
10
17.7624976
20
2.3167472
40
0.5732455
50
279.4304523
51
295.5706585
0
ARC
8
DEFAULT_255_2_778
10
17.6716701
20
2.8694199
40
1.1333316
50
271.2139345
51
279.382145
0
ARC
8
DEFAULT_255_2_778
10
17.6313961
20
3.8138792
40
2.0785308
50
269.9594239
51
271.7723117
0
ARC
8
DEFAULT_255_2_778
10
21.6487322
20
3.3608823
40
2.7359258
50
124.5369734
51
137.8568255
0
ARC
8
DEFAULT_255_2_778
10
21.4623893
20
3.6124483
40
2.4230752
50
122.0705972
51
124.2797142
0
ARC
8
DEFAULT_255_2_778
10
20.8353563
20
4.642945
40
1.2170089
50
89.8367387
51
122.8150388
0
ARC
8
DEFAULT_255_2_778
10
20.8512583
20
4.2768638
40
1.583134
50
79.1177637
51
90.4500157
0
ARC
8
DEFAULT_255_2_778
10
20.9743396
20
4.8890881
40
0.958697
50
59.6110888
51
79.4336524
0
ARC
8
DEFAULT_255_2_778
10
21.0709101
20
5.0715805
40
0.752479
50
51.1797047
51
58.9247212
0
ARC
8
DEFAULT_255_2_778
10
20.9004669
20
4.8170532
40
1.0579713
50
23.9101132
51
52.6292439
0
ARC
8
DEFAULT_255_2_778
10
20.5761862
20
4.6517156
40
1.4215716
50
18.7237867
51
24.7048134
0
ARC
8
DEFAULT_255_2_778
10
24.7639063
20
2.5568122
40
3.8186728
50
131.5787405
51
138.0797832
0
ARC
8
DEFAULT_255_2_778
10
24.0541159
20
3.3588329
40
2.7476745
50
123.5087175
51
131.6059578
0
ARC
8
DEFAULT_255_2_778
10
23.2161019
20
4.6598135
40
1.2004354
50
89.9893963
51
124.4388476
0
ARC
8
DEFAULT_255_2_778
10
23.2293548
20
4.3611753
40
1.4991302
50
77.077668
51
90.4980315
0
ARC
8
DEFAULT_255_2_778
10
23.3572918
20
4.8842602
40
0.9607134
50
47.9338721
51
77.5380476
0
ARC
8
DEFAULT_255_2_778
10
23.3765468
20
4.9202906
40
0.9211175
50
36.7990073
51
47.3214462
0
ARC
8
DEFAULT_255_2_778
10
23.1308836
20
4.7303042
40
1.2316441
50
18.8708091
51
37.0304624
0
ARC
8
DEFAULT_255_2_778
10
22.5039746
20
4.5072702
40
1.8970121
50
8.4977188
51
19.1209334
0
ARC
8
DEFAULT_255_2_778
10
21.530906
20
4.3563985
40
2.8816976
50
1.2059718
51
8.6055835
0
ARC
8
DEFAULT_255_2_778
10
20.7215238
20
4.3245484
40
3.6916005
50
359.9891439
51
1.4358054
0
ARC
8
DEFAULT_255_2_778
10
21.0643821
20
4.2469013
40
2.6856713
50
359.7322076
51
6.1982506
0
ARC
8
DEFAULT_255_2_778
10
22.2080524
20
4.3752473
40
1.5348348
50
6.0446439
51
15.7785884
0
ARC
8
DEFAULT_255_2_778
10
22.8981748
20
4.5759132
40
0.8161693
50
15.3962584
51
32.401987
0
ARC
8
DEFAULT_255_2_778
10
23.1022118
20
4.6942739
40
0.5805508
50
33.3298708
51
35.9433955
0
ARC
8
DEFAULT_255_2_778
10
23.096846
20
4.6949284
40
0.5845223
50
35.582728
51
83.7650582
0
ARC
8
DEFAULT_255_2_778
10
23.0257495
20
4.3336794
40
0.9518753
50
81.872122
51
90.2001671
0
ARC
8
DEFAULT_255_2_778
10
23.0343238
20
4.4959382
40
0.7897004
50
90.8634039
51
114.3282339
0
ARC
8
DEFAULT_255_2_778
10
23.2569184
20
3.9788289
40
1.3526299
50
113.8960927
51
126.3034966
0
ARC
8
DEFAULT_255_2_778
10
23.7938811
20
3.2361307
40
2.2690909
50
126.1270041
51
134.2618413
0
ARC
8
DEFAULT_255_2_778
10
24.5814211
20
2.4107049
40
3.4099018
50
134.0586354
51
138.2983375
0
ARC
8
DEFAULT_255_2_778
10
18.6868821
20
4.2469013
40
2.6856713
50
359.7322076
51
6.1982506
0
ARC
8
DEFAULT_255_2_778
10
19.8305524
20
4.3752473
40
1.5348348
50
6.0446439
51
15.7785884
0
ARC
8
DEFAULT_255_2_778
10
20.5206748
20
4.5759132
40
0.8161693
50
15.3962584
51
32.401987
0
ARC
8
DEFAULT_255_2_778
10
20.7247118
20
4.6942739
40
0.5805508
50
33.3298708
51
35.9433955
0
ARC
8
DEFAULT_255_2_778
10
20.7209508
20
4.69519
40
0.5830654
50
35.6535845
51
82.7255152
0
ARC
8
DEFAULT_255_2_778
10
20.6432765
20
4.3228811
40
0.9626774
50
80.9452928
51
90.2530933
0
ARC
8
DEFAULT_255_2_778
10
20.6509177
20
4.496019
40
0.7896195
50
90.8630477
51
114.3294786
0
ARC
8
DEFAULT_255_2_778
10
20.8734478
20
3.9791019
40
1.352347
50
113.8975933
51
126.3067125
0
ARC
8
DEFAULT_255_2_778
10
21.4103008
20
3.2366485
40
2.2685453
50
126.1303073
51
134.2664415
0
ARC
8
DEFAULT_255_2_778
10
22.1976781
20
2.4115235
40
3.4090263
50
134.063215
51
138.3036568
0
LINE
8
DEFAULT_255_2_778
10
7.1318241
20
7.0230489
11
2.9434241
21
7.0230489
0
LINE
8
DEFAULT_255_2_778
10
2.9434241
20
7.0230489
11
5.0376241
21
4.9289489
0
LINE
8
DEFAULT_255_2_778
10
5.0376241
20
4.9289489
11
7.1318241
21
7.0230489
0
LINE
8
DEFAULT_255_2_778
10
0.4590241
20
9.5080489
11
2.5683241
21
7.3987489
0
LINE
8
DEFAULT_255_2_778
10
2.5683241
20
7.3987489
11
7.1535241
21
7.3987489
0
LINE
8
DEFAULT_255_2_778
10
7.1535241
20
7.3987489
11
5.0442241
21
9.5080489
0
LINE
8
DEFAULT_255_2_778
10
5.0442241
20
9.5080489
11
0.4590241
21
9.5080489
0
LINE
8
DEFAULT_255_2_778
10
7.5964241
20
6.9556489
11
9.8784241
21
4.6735489
0
LINE
8
DEFAULT_255_2_778
10
9.8784241
20
4.6735489
11
7.5861241
21
2.3812489
0
LINE
8
DEFAULT_255_2_778
10
7.5861241
20
2.3812489
11
5.3035241
21
4.6629489
0
LINE
8
DEFAULT_255_2_778
10
5.3035241
20
4.6629489
11
7.5964241
21
6.9556489
0
LINE
8
DEFAULT_255_2_778
10
9.8835241
20
9.5080489
11
5.5760241
21
9.5080489
0
LINE
8
DEFAULT_255_2_778
10
5.5760241
20
9.5080489
11
9.8835241
21
5.2006489
0
LINE
8
DEFAULT_255_2_778
10
9.8835241
20
5.2006489
11
9.8835241
21
9.5080489
0
LINE
8
DEFAULT_255_2_778
10
0.1931241
20
9.2421489
11
0.1931241
21
0.0835489
0
LINE
8
DEFAULT_255_2_778
10
0.1931241
20
0.0835489
11
4.7722241
21
4.6629489
0
LINE
8
DEFAULT_255_2_778
10
4.7722241
20
4.6629489
11
0.1931241
21
9.2421489
0
LINE
8
DEFAULT_255_2_778
10
9.8835241
20
0.0835489
11
9.8835241
21
4.1465489
0
LINE
8
DEFAULT_255_2_778
10
9.8835241
20
4.1465489
11
7.8515241
21
2.1150489
0
LINE
8
DEFAULT_255_2_778
10
7.8515241
20
2.1150489
11
9.8835241
21
0.0835489
0
LINE
8
DEFAULT_255_2_778
10
0.4590241
20
-0.1820511
11
9.6176241
21
-0.1820511
0
LINE
8
DEFAULT_255_2_778
10
9.6176241
20
-0.1820511
11
5.0382241
21
4.3970489
0
LINE
8
DEFAULT_255_2_778
10
5.0382241
20
4.3970489
11
0.4590241
21
-0.1820511
0
LINE
8
DEFAULT_255_2_778
10
15.9250241
20
3.6329489
11
13.2728241
21
3.6329489
0
LINE
8
DEFAULT_255_2_778
10
15.5612241
20
2.5712489
11
15.7956241
21
2.1346489
0
LINE
8
DEFAULT_255_2_778
10
14.5018241
20
1.7303489
11
14.5018241
21
1.7356489
0
LINE
8
DEFAULT_255_2_778
10
13.2646241
20
4.1131489
11
15.3672241
21
4.1131489
0
LINE
8
DEFAULT_255_2_778
10
13.2590241
20
4.1131489
11
13.2646241
21
4.1131489
0
LINE
8
DEFAULT_255_2_778
10
16.9235241
20
2.6251489
11
16.9235241
21
7.5903489
0
LINE
8
DEFAULT_255_2_778
10
16.9235241
20
7.5903489
11
17.5865241
21
7.5903489
0
LINE
8
DEFAULT_255_2_778
10
17.5865241
20
7.5903489
11
17.5865241
21
2.5764489
0
LINE
8
DEFAULT_255_2_778
10
17.9210241
20
2.3010489
11
18.0099241
21
1.7996489
0
LINE
8
DEFAULT_255_2_778
10
17.6299241
20
1.7353489
11
17.6241241
21
1.7356489
0
LINE
8
DEFAULT_255_2_778
10
18.9894241
20
1.8327489
11
18.9894241
21
5.7628489
0
LINE
8
DEFAULT_255_2_778
10
18.9894241
20
5.7628489
11
19.5392241
21
5.7628489
0
LINE
8
DEFAULT_255_2_778
10
19.5392241
20
5.7628489
11
19.5958241
21
5.1966489
0
LINE
8
DEFAULT_255_2_778
10
19.5958241
20
5.1966489
11
19.6201241
21
5.1966489
0
LINE
8
DEFAULT_255_2_778
10
24.4131241
20
4.3238489
11
24.4131241
21
1.8330489
0
LINE
8
DEFAULT_255_2_778
10
24.4131241
20
1.8330489
11
23.7500241
21
1.8330489
0
LINE
8
DEFAULT_255_2_778
10
23.7500241
20
1.8330489
11
23.7500241
21
4.2343489
0
LINE
8
DEFAULT_255_2_778
10
22.0355241
20
4.6791489
11
22.0355241
21
1.8327489
0
LINE
8
DEFAULT_255_2_778
10
22.0355241
20
1.8327489
11
21.3725241
21
1.8327489
0
LINE
8
DEFAULT_255_2_778
10
21.3725241
20
1.8327489
11
21.3725241
21
4.2343489
0
LINE
8
DEFAULT_255_2_778
10
19.6522241
20
4.6791489
11
19.6522241
21
1.8327489
0
LINE
8
DEFAULT_255_2_778
10
19.6522241
20
1.8327489
11
18.9894241
21
1.8327489
0
ENDSEC
0
EOF