0
SECTION
2
HEADER
9
$MEASUREMENT
70
1
0
ENDSEC
0
SECTION
2
TABLES
0
TABLE
2
LTYPE
0
LTYPE
72
65
70
64
2
CONTINUOUS
3
______
73
0
40
0
0
ENDTAB
0
TABLE
2
LAYER
0
LAYER
2
DEFAULT_255_2_778
70
0
62
255
6
CONTINUOUS
0
ENDTAB
0
ENDSEC
0
SECTION
2
ENTITIES
0
ARC
8
DEFAULT_255_2_778
10
5.4654384
20
3.9966675
40
2.3575517
50
1.020378
51
47.5184897
0
ARC
8
DEFAULT_255_2_778
10
5.4624351
20
3.9966773
40
2.3605543
50
359.9999157
51
1.0188423
0
ARC
8
DEFAULT_255_2_778
10
5.4652786
20
3.9968049
40
2.357711
50
314.5237231
51
359.9968152
0
ARC
8
DEFAULT_255_2_778
10
3.9695638
20
1.4422928
40
1.5861455
50
296.4428119
51
314.6017998
0
ARC
8
DEFAULT_255_2_778
10
3.970688
20
1.4442205
40
1.5873722
50
270.0165093
51
296.3754938
0
LINE
8
DEFAULT_255_2_778
10
3.9711454
20
-0.1431516
11
3.9697373
21
-0.1431523
0
ARC
8
DEFAULT_255_2_778
10
3.9684568
20
1.4428512
40
1.586004
50
238.8185232
51
270.0462593
0
ARC
8
DEFAULT_255_2_778
10
3.9731204
20
1.4468608
40
1.5918502
50
224.9237935
51
238.7496381
0
ARC
8
DEFAULT_255_2_778
10
2.5287502
20
3.9865955
40
2.36455
50
211.344063
51
225.0018958
0
ARC
8
DEFAULT_255_2_778
10
2.5123754
20
3.9746896
40
2.3443724
50
190.7050208
51
211.3037241
0
ARC
8
DEFAULT_255_2_778
10
2.537441
20
3.9802437
40
2.3700334
50
180.2068175
51
190.724396
0
ARC
8
DEFAULT_255_2_778
10
2.5451047
20
3.9804114
40
2.3776978
50
180.0000003
51
180.2101918
0
ARC
8
DEFAULT_255_2_778
10
2.5264087
20
3.9820043
40
2.3590023
50
151.9278089
51
180.0386878
0
ARC
8
DEFAULT_255_2_778
10
2.5160043
20
3.9845735
40
2.3486145
50
136.3356102
51
151.8636683
0
ARC
8
DEFAULT_255_2_778
10
2.5529251
20
3.9510879
40
2.3984427
50
133.113612
51
136.3659006
0
LINE
8
DEFAULT_255_2_778
10
3.9699162
20
8.5663508
11
7.0576162
21
5.7353508
0
LINE
8
DEFAULT_255_2_778
10
7.1185162
20
2.3158508
11
5.0833162
21
0.3129508
0
LINE
8
DEFAULT_255_2_778
10
2.8460162
20
0.3227508
11
0.8568162
21
2.3145508
0
LINE
8
DEFAULT_255_2_778
10
0.9137162
20
5.7019508
11
3.9697162
21
8.5631508
0
ARC
8
DEFAULT_255_2_778
10
2.0563859
20
4.2635137
40
0.485101
50
136.0363856
51
154.9178256
0
ARC
8
DEFAULT_255_2_778
10
2.3916053
20
4.1019439
40
0.8572121
50
154.6351914
51
168.2447006
0
ARC
8
DEFAULT_255_2_778
10
2.7467218
20
4.0228783
40
1.2209992
50
168.0073236
51
180.1488302
0
ARC
8
DEFAULT_255_2_778
10
2.817917
20
4.0196945
40
1.2921904
50
179.9994624
51
182.1337947
0
ARC
8
DEFAULT_255_2_778
10
2.6397663
20
4.0027879
40
1.1135811
50
181.6057991
51
200.6919656
0
ARC
8
DEFAULT_255_2_778
10
2.2123223
20
3.8403818
40
0.6563255
50
200.6138071
51
222.1734347
0
ARC
8
DEFAULT_255_2_778
10
2.0900246
20
3.7413775
40
0.4992959
50
223.1757647
51
224.9757274
0
ARC
8
DEFAULT_255_2_778
10
2.7169954
20
4.0108479
40
0.4273754
50
207.0825272
51
225.7205269
0
ARC
8
DEFAULT_255_2_778
10
2.6025757
20
3.9514565
40
0.2984633
50
180.3038747
51
206.9314435
0
ARC
8
DEFAULT_255_2_778
10
2.58924
20
3.9498772
40
0.2851233
50
177.8743236
51
180.0007317
0
ARC
8
DEFAULT_255_2_778
10
2.6412404
20
3.9419892
40
0.337433
50
146.0302731
51
176.8633345
0
ARC
8
DEFAULT_255_2_778
10
2.8054946
20
3.8411334
40
0.5300707
50
134.5824483
51
146.9096022
0
ARC
8
DEFAULT_255_2_778
10
5.305371
20
3.9803178
40
1.0704146
50
314.9963034
51
333.3139985
0
ARC
8
DEFAULT_255_2_778
10
5.3206748
20
3.9693479
40
1.0518185
50
333.473516
51
0.1171766
0
ARC
8
DEFAULT_255_2_778
10
5.3616419
20
3.971584
40
1.0108492
50
359.9951837
51
0.1300424
0
ARC
8
DEFAULT_255_2_778
10
5.2476972
20
3.9673954
40
1.1248099
50
0.3302277
51
35.3020666
0
ARC
8
DEFAULT_255_2_778
10
5.21736
20
3.9493144
40
1.1600205
50
35.1649882
51
45.0348405
0
ARC
8
DEFAULT_255_2_778
10
4.9577632
20
3.8068953
40
0.7604793
50
33.9347969
51
45.5391437
0
ARC
8
DEFAULT_255_2_778
10
5.2455058
20
3.9964193
40
0.415959
50
12.3582658
51
34.4016114
0
ARC
8
DEFAULT_255_2_778
10
5.3461019
20
4.0235971
40
0.3119174
50
1.6609941
51
11.4364575
0
ARC
8
DEFAULT_255_2_778
10
5.3564722
20
4.0241819
40
0.3015345
50
359.9987635
51
1.6070468
0
ARC
8
DEFAULT_255_2_778
10
5.3238279
20
4.0282306
40
0.3342035
50
329.825721
51
359.3047657
0
ARC
8
DEFAULT_255_2_778
10
5.1268215
20
4.137185
40
0.5593006
50
316.4748639
51
330.3205747
0
ARC
8
DEFAULT_255_2_778
10
4.9659306
20
4.2792136
40
0.7738089
50
314.9815111
51
317.0539108
0
LINE
8
DEFAULT_255_2_778
10
6.0392195
20
4.7698715
11
3.9897195
21
6.7679715
0
LINE
8
DEFAULT_255_2_778
10
3.9897195
20
6.7679715
11
1.7072195
21
4.6002715
0
LINE
8
DEFAULT_255_2_778
10
1.7368195
20
3.3884715
11
3.9799195
21
1.2146715
0
LINE
8
DEFAULT_255_2_778
10
3.9799195
20
1.2146715
11
3.9897195
21
2.2028715
0
LINE
8
DEFAULT_255_2_778
10
3.9897195
20
2.2028715
11
2.4186195
21
3.7048715
0
LINE
8
DEFAULT_255_2_778
10
2.4334195
20
4.2186715
11
2.9229195
21
4.6967715
0
LINE
8
DEFAULT_255_2_778
10
2.9229195
20
4.6967715
11
5.2684195
21
2.4327715
0
LINE
8
DEFAULT_255_2_778
10
5.2684195
20
2.4327715
11
6.0622195
21
3.2233715
0
LINE
8
DEFAULT_255_2_778
10
6.0371195
20
4.7700715
11
6.0392195
21
4.7698715
0
LINE
8
DEFAULT_255_2_778
10
5.5100195
20
3.7318715
11
5.2065195
21
3.4283715
0
LINE
8
DEFAULT_255_2_778
10
5.2065195
20
3.4283715
11
3.4359195
21
5.1476715
0
LINE
8
DEFAULT_255_2_778
10
3.4359195
20
5.1476715
11
4.0180195
21
5.7527715
0
LINE
8
DEFAULT_255_2_778
10
4.0180195
20
5.7527715
11
5.4904195
21
4.3496715
0
LINE
8
DEFAULT_255_2_778
10
5.5129195
20
3.7318715
11
5.5100195
21
3.7318715
0
ARC
8
DEFAULT_255_2_778
10
14.6102976
20
4.4523493
40
1.0011408
50
89.5985361
51
113.258953
0
ARC
8
DEFAULT_255_2_778
10
14.5712131
20
4.5515496
40
0.8945746
50
113.468062
51
134.8770316
0
ARC
8
DEFAULT_255_2_778
10
14.6129353
20
4.5161205
40
0.94913
50
135.1527226
51
147.8415177
0
ARC
8
DEFAULT_255_2_778
10
15.4605698
20
3.9808329
40
1.9516345
50
147.7828364
51
150.8501373
0
ARC
8
DEFAULT_255_2_778
10
14.2973176
20
5.2540863
40
0.6300692
50
210.3167546
51
210.7998243
0
ARC
8
DEFAULT_255_2_778
10
14.5891407
20
5.4248094
40
0.9681625
50
209.9951037
51
210.3208884
0
ARC
8
DEFAULT_255_2_778
10
15.0155351
20
5.6711093
40
1.4605809
50
209.8130171
51
210.000867
0
ARC
8
DEFAULT_255_2_778
10
-6.6563832
20
-6.6226537
40
23.4554656
50
29.5493535
51
29.7018484
0
ARC
8
DEFAULT_255_2_778
10
11.9337528
20
3.9794732
40
2.0545731
50
29.7574246
51
31.9401907
0
ARC
8
DEFAULT_255_2_778
10
12.9403882
20
4.6146399
40
0.8643411
50
31.5120352
51
38.850455
0
ARC
8
DEFAULT_255_2_778
10
13.3257043
20
4.9197591
40
0.3728864
50
39.477739
51
44.4239496
0
ARC
8
DEFAULT_255_2_778
10
13.0094572
20
4.6644741
40
0.7784134
50
41.5490721
51
72.121094
0
ARC
8
DEFAULT_255_2_778
10
12.9509822
20
4.4910414
40
0.9614258
50
71.9776962
51
85.6463295
0
ARC
8
DEFAULT_255_2_778
10
12.9344263
20
4.3293896
40
1.1238759
50
85.4303388
51
90.0312935
0
ARC
8
DEFAULT_255_2_778
10
12.9280012
20
4.612208
40
0.8410776
50
89.6041213
51
107.1205523
0
ARC
8
DEFAULT_255_2_778
10
12.9026451
20
4.7068046
40
0.7432171
50
107.3992537
51
130.7005121
0
ARC
8
DEFAULT_255_2_778
10
12.9611241
20
4.6401205
40
0.831907
50
130.759022
51
145.8731259
0
ARC
8
DEFAULT_255_2_778
10
13.0122304
20
4.6026245
40
0.8952521
50
145.7216384
51
150.0136786
0
ARC
8
DEFAULT_255_2_778
10
13.3793347
20
4.2371874
40
1.1140389
50
163.3894566
51
180.8291872
0
ARC
8
DEFAULT_255_2_778
10
12.9851122
20
4.3487816
40
0.7043899
50
145.961328
51
162.9211784
0
ARC
8
DEFAULT_255_2_778
10
12.8341513
20
4.4787007
40
0.5071012
50
111.8324729
51
148.5787996
0
ARC
8
DEFAULT_255_2_778
10
12.8659541
20
4.4009757
40
0.5910791
50
89.5719996
51
111.8922103
0
ARC
8
DEFAULT_255_2_778
10
12.8703499
20
4.317134
40
0.6749042
50
88.7041779
51
89.9983382
0
ARC
8
DEFAULT_255_2_778
10
12.8824795
20
4.3187272
40
0.6731456
50
70.1363151
51
89.7333364
0
ARC
8
DEFAULT_255_2_778
10
12.9300764
20
4.4689989
40
0.5156803
50
31.4901529
51
69.4369051
0
ARC
8
DEFAULT_255_2_778
10
12.7105996
20
4.3611785
40
0.7594943
50
1.7871913
51
29.7772346
0
ARC
8
DEFAULT_255_2_778
10
11.6138569
20
4.2639119
40
1.8598049
50
359.8094303
51
3.7288858
0
ARC
8
DEFAULT_255_2_778
10
10.7130547
20
4.2580701
40
2.7605967
50
359.4249862
51
359.9928609
0
ARC
8
DEFAULT_255_2_778
10
15.8660858
20
4.2538758
40
1.8990189
50
174.5742121
51
180.7093542
0
ARC
8
DEFAULT_255_2_778
10
14.6709859
20
4.3692557
40
0.6983662
50
156.0739295
51
174.7266959
0
ARC
8
DEFAULT_255_2_778
10
14.6818772
20
4.3565748
40
0.7135007
50
147.3477678
51
155.4978174
0
ARC
8
DEFAULT_255_2_778
10
14.782081
20
4.2953487
40
0.830906
50
147.0268821
51
147.521111
0
ARC
8
DEFAULT_255_2_778
10
14.5192909
20
4.4689054
40
0.5159935
50
99.7554838
51
147.3132421
0
ARC
8
DEFAULT_255_2_778
10
14.5769778
20
4.2650458
40
0.7270223
50
89.8475329
51
101.5139803
0
ARC
8
DEFAULT_255_2_778
10
14.5897589
20
4.2795626
40
0.7125854
50
74.0992514
51
90.8721453
0
ARC
8
DEFAULT_255_2_778
10
14.6609224
20
4.5347829
40
0.4476362
50
33.2877732
51
73.9094953
0
ARC
8
DEFAULT_255_2_778
10
14.438046
20
4.3620876
40
0.7290599
50
4.3666518
51
35.0197944
0
ARC
8
DEFAULT_255_2_778
10
13.4421099
20
4.2212701
40
1.7340298
50
359.6793409
51
6.5009807
0
ARC
8
DEFAULT_255_2_778
10
13.3579541
20
4.2411535
40
2.3070827
50
359.7370482
51
5.8170946
0
ARC
8
DEFAULT_255_2_778
10
14.29138
20
4.3393116
40
1.3685182
50
5.6895267
51
15.535484
0
ARC
8
DEFAULT_255_2_778
10
14.6911188
20
4.4493116
40
0.9539228
50
15.6005298
51
35.1156536
0
ARC
8
DEFAULT_255_2_778
10
14.3266619
20
4.1844246
40
1.4044341
50
35.4024339
51
43.6063066
0
ARC
8
DEFAULT_255_2_778
10
13.4756794
20
3.4017283
40
2.5605315
50
43.1548616
51
44.4478496
0
ARC
8
DEFAULT_255_2_778
10
14.6973454
20
4.5863993
40
0.8588767
50
45.0990202
51
81.5122495
0
ARC
8
DEFAULT_255_2_778
10
14.6340618
20
4.3507373
40
1.1016491
50
80.0658673
51
80.2826106
0
ARC
8
DEFAULT_255_2_778
10
14.619009
20
4.2487811
40
1.2046854
50
80.3954332
51
90.0806901
0
ARC
8
DEFAULT_255_2_778
10
17.4060728
20
4.1101149
40
1.3431589
50
89.7978183
51
117.3757746
0
ARC
8
DEFAULT_255_2_778
10
17.3997505
20
4.1277882
40
1.3245602
50
117.4844509
51
131.5495689
0
ARC
8
DEFAULT_255_2_778
10
17.391529
20
4.0522504
40
1.306995
50
227.1228678
51
269.993774
0
ARC
8
DEFAULT_255_2_778
10
17.3913351
20
4.0590763
40
1.3138208
50
270.0022615
51
270.225783
0
ARC
8
DEFAULT_255_2_778
10
17.4040214
20
4.2058613
40
1.4606151
50
269.7054442
51
285.4186484
0
ARC
8
DEFAULT_255_2_778
10
17.4555614
20
4.0126956
40
1.2606996
50
285.4946326
51
309.373757
0
ARC
8
DEFAULT_255_2_778
10
17.3487143
20
4.1071222
40
1.4016586
50
310.3014364
51
356.3232818
0
ARC
8
DEFAULT_255_2_778
10
17.3213391
20
4.1202403
40
1.4298637
50
355.8690518
51
359.3558579
0
ARC
8
DEFAULT_255_2_778
10
17.3753136
20
4.109645
40
1.3758097
50
359.7718056
51
26.1596923
0
ARC
8
DEFAULT_255_2_778
10
17.4263009
20
4.1319305
40
1.3202224
50
26.2671565
51
82.1799208
0
ARC
8
DEFAULT_255_2_778
10
17.4115211
20
4.0561344
40
1.3973314
50
82.0024012
51
90.0290571
0
ARC
8
DEFAULT_255_2_778
10
17.3337577
20
4.1088982
40
0.9613051
50
356.9148238
51
359.4139431
0
ARC
8
DEFAULT_255_2_778
10
17.3909642
20
4.0908171
40
0.9033324
50
300.7266781
51
357.8647506
0
ARC
8
DEFAULT_255_2_778
10
17.4224429
20
4.0835264
40
0.8812904
50
275.9176205
51
299.2094484
0
ARC
8
DEFAULT_255_2_778
10
17.397616
20
4.254717
40
1.0541519
50
269.9400194
51
276.3005464
0
ARC
8
DEFAULT_255_2_778
10
17.3891162
20
4.0744576
40
0.8739233
50
243.6574476
51
270.4849147
0
ARC
8
DEFAULT_255_2_778
10
17.4098515
20
4.0719924
40
0.8811349
50
184.3044462
51
242.3779135
0
ARC
8
DEFAULT_255_2_778
10
17.5420657
20
4.1033398
40
1.0155531
50
179.9872653
51
185.5082478
0
ARC
8
DEFAULT_255_2_778
10
17.4008165
20
4.1234843
40
0.874531
50
108.6034074
51
181.305113
0
ARC
8
DEFAULT_255_2_778
10
17.4060942
20
4.0677499
40
0.9291248
50
89.7460449
51
107.8153965
0
ARC
8
DEFAULT_255_2_778
10
17.416332
20
4.1112089
40
0.8856778
50
57.0548617
51
90.395885
0
ARC
8
DEFAULT_255_2_778
10
17.4127434
20
4.1196658
40
0.8805653
50
5.6311593
51
56.5596487
0
ARC
8
DEFAULT_255_2_778
10
17.3342238
20
4.1038745
40
0.9602888
50
359.9815667
51
6.1091122
0
ARC
8
DEFAULT_255_2_778
10
23.4143459
20
4.1147639
40
1.3385106
50
48.6174799
51
90.0010065
0
ARC
8
DEFAULT_255_2_778
10
23.4142694
20
4.1428598
40
1.3104147
50
89.9976837
51
90.212362
0
ARC
8
DEFAULT_255_2_778
10
23.4041154
20
4.1030845
40
1.3501914
50
89.7752163
51
117.1906551
0
ARC
8
DEFAULT_255_2_778
10
23.3979584
20
4.1270125
40
1.3261055
50
117.426447
51
169.429136
0
ARC
8
DEFAULT_255_2_778
10
23.4852239
20
4.1051457
40
1.4159122
50
169.2071126
51
180.051802
0
ARC
8
DEFAULT_255_2_778
10
23.4896085
20
4.1191996
40
1.4203788
50
180.618565
51
184.1286267
0
ARC
8
DEFAULT_255_2_778
10
23.4660155
20
4.1058779
40
1.3959361
50
183.6529748
51
231.88246
0
ARC
8
DEFAULT_255_2_778
10
23.3693856
20
4.0186186
40
1.2678314
50
232.8839646
51
255.9369137
0
ARC
8
DEFAULT_255_2_778
10
23.4171875
20
4.2114873
40
1.4665352
50
255.9562922
51
270.2432023
0
ARC
8
DEFAULT_255_2_778
10
23.4276596
20
4.0547443
40
1.3097856
50
269.8142106
51
298.9639923
0
ARC
8
DEFAULT_255_2_778
10
23.4238954
20
4.0577101
40
1.3142047
50
299.0449578
51
312.8530221
0
ARC
8
DEFAULT_255_2_778
10
23.4183588
20
4.1608552
40
0.9603209
50
250.8246581
51
270.4626107
0
ARC
8
DEFAULT_255_2_778
10
23.3803752
20
4.0376765
40
0.8315131
50
214.4565989
51
250.5088553
0
ARC
8
DEFAULT_255_2_778
10
23.4840414
20
4.1068684
40
0.9561405
50
182.8849232
51
214.3607268
0
ARC
8
DEFAULT_255_2_778
10
23.4931654
20
4.1100194
40
0.9654151
50
180.6501075
51
183.0444383
0
ARC
8
DEFAULT_255_2_778
10
23.4349187
20
4.1100011
40
0.907127
50
144.8876965
51
180.3875357
0
ARC
8
DEFAULT_255_2_778
10
23.3985818
20
4.1305579
40
0.8655882
50
95.8392061
51
144.617342
0
ARC
8
DEFAULT_255_2_778
10
23.4111431
20
4.0586949
40
0.9383706
50
89.9774498
51
96.1558017
0
ARC
8
DEFAULT_255_2_778
10
23.418879
20
4.0912806
40
0.9058149
50
64.3027938
51
90.4659631
0
ARC
8
DEFAULT_255_2_778
10
23.4157541
20
4.1212871
40
0.8802733
50
359.3965742
51
63.2725761
0
ARC
8
DEFAULT_255_2_778
10
23.3198352
20
4.103893
40
0.9761773
50
359.9983872
51
0.4768019
0
ARC
8
DEFAULT_255_2_778
10
23.3556852
20
4.0945817
40
0.9403731
50
323.0539059
51
0.5656585
0
ARC
8
DEFAULT_255_2_778
10
23.4475675
20
4.0335213
40
0.8302644
50
280.1940419
51
322.6103467
0
ARC
8
DEFAULT_255_2_778
10
23.424604
20
4.1398781
40
0.939014
50
269.8967849
51
280.4245439
0
ARC
8
DEFAULT_255_2_778
10
25.4656672
20
3.1664551
40
0.3299352
50
89.2974908
51
89.9997828
0
ARC
8
DEFAULT_255_2_778
10
25.4658446
20
3.165849
40
0.3305414
50
90.0305413
51
135.3206038
0
ARC
8
DEFAULT_255_2_778
10
25.4659489
20
3.1657016
40
0.3307191
50
135.3151521
51
180.006434
0
ARC
8
DEFAULT_255_2_778
10
25.4662256
20
3.1656596
40
0.3309957
50
179.9991648
51
181.2800381
0
ARC
8
DEFAULT_255_2_778
10
25.5008579
20
3.1606158
40
0.3655668
50
180.6191417
51
183.0901361
0
ARC
8
DEFAULT_255_2_778
10
25.4689956
20
3.1496436
40
0.3332873
50
181.5017093
51
254.8621383
0
ARC
8
DEFAULT_255_2_778
10
25.473242
20
3.1922979
40
0.3756365
50
255.9359715
51
270.2700387
0
ARC
8
DEFAULT_255_2_778
10
25.4747863
20
3.1465919
40
0.3299265
50
270.0392771
51
2.4447993
0
ARC
8
DEFAULT_255_2_778
10
25.4770111
20
3.1712674
40
0.327573
50
358.145303
51
91.2242258
0
ARC
8
DEFAULT_255_2_778
10
10.0566147
20
4.0992689
40
1.3542073
50
89.7716226
51
114.2306943
0
ARC
8
DEFAULT_255_2_778
10
10.0678757
20
4.1025299
40
1.3559049
50
114.7211819
51
179.0193678
0
ARC
8
DEFAULT_255_2_778
10
10.1161421
20
4.0940722
40
1.4043297
50
178.7080491
51
180.0002735
0
ARC
8
DEFAULT_255_2_778
10
9.9495848
20
4.0825884
40
1.2378256
50
179.468746
51
242.8686739
0
ARC
8
DEFAULT_255_2_778
10
10.0330267
20
4.2456396
40
1.4209874
50
242.8725538
51
261.4654438
0
ARC
8
DEFAULT_255_2_778
10
10.0748408
20
4.4766452
40
1.6556554
50
261.2208297
51
268.0330042
0
ARC
8
DEFAULT_255_2_778
10
10.0895478
20
4.5095567
40
1.2716049
50
261.9254395
51
266.7750693
0
ARC
8
DEFAULT_255_2_778
10
9.9789618
20
4.065754
40
0.818029
50
213.7168259
51
265.2298839
0
ARC
8
DEFAULT_255_2_778
10
9.8908884
20
3.9530292
40
0.6836725
50
186.8040051
51
209.9533343
0
ARC
8
DEFAULT_255_2_778
10
10.0634232
20
3.9819714
40
0.8584613
50
182.5507964
51
187.3578173
0
ARC
8
DEFAULT_255_2_778
10
9.7942452
20
4.1028726
40
1.6067643
50
354.3170701
51
359.9671175
0
ARC
8
DEFAULT_255_2_778
10
10.0380077
20
4.118877
40
1.3631067
50
359.2885065
51
44.6755461
0
ARC
8
DEFAULT_255_2_778
10
10.0816743
20
4.123296
40
1.3292343
50
45.8635534
51
86.8036412
0
ARC
8
DEFAULT_255_2_778
10
10.062204
20
3.9938081
40
1.4596575
50
86.323966
51
90.0075192
0
ARC
8
DEFAULT_255_2_778
10
9.8481363
20
4.2764593
40
0.6346649
50
172.0543263
51
175.6348317
0
ARC
8
DEFAULT_255_2_778
10
9.9606592
20
4.2498994
40
0.749856
50
135.582383
51
171.2328628
0
ARC
8
DEFAULT_255_2_778
10
10.0275388
20
4.1927233
40
0.8376633
50
107.1673233
51
135.9906982
0
ARC
8
DEFAULT_255_2_778
10
10.0579098
20
4.0944905
40
0.9404839
50
89.7500606
51
107.1687356
0
ARC
8
DEFAULT_255_2_778
10
10.0792117
20
4.1309747
40
0.9041544
50
90.0007062
51
91.0899726
0
ARC
8
DEFAULT_255_2_778
10
10.0822781
20
4.1867818
40
0.8483528
50
64.4430955
51
90.2078482
0
ARC
8
DEFAULT_255_2_778
10
10.0789217
20
4.1839791
40
0.8523313
50
32.7803924
51
64.3208267
0
ARC
8
DEFAULT_255_2_778
10
10.1697228
20
4.2398564
40
0.7457402
50
14.3251165
51
32.9480853
0
ARC
8
DEFAULT_255_2_778
10
10.299599
20
4.2760205
40
0.6109611
50
4.5761583
51
14.0526633
0
ARC
8
DEFAULT_255_2_778
10
20.3938745
20
4.0996693
40
1.3538068
50
89.7740875
51
113.8813332
0
ARC
8
DEFAULT_255_2_778
10
20.4055066
20
4.1031074
40
1.3554256
50
114.3897864
51
179.0363662
0
ARC
8
DEFAULT_255_2_778
10
20.4564632
20
4.0940727
40
1.4065507
50
178.7032965
51
180.0002923
0
ARC
8
DEFAULT_255_2_778
10
20.2878426
20
4.0825956
40
1.2379833
50
179.469149
51
242.8551687
0
ARC
8
DEFAULT_255_2_778
10
20.3707365
20
4.2446507
40
1.4200086
50
242.8621321
51
261.4597343
0
ARC
8
DEFAULT_255_2_778
10
20.4124165
20
4.4748094
40
1.6538198
50
261.2158949
51
268.0316627
0
ARC
8
DEFAULT_255_2_778
10
20.4270776
20
4.5069592
40
1.2690076
50
261.8994743
51
266.7716354
0
ARC
8
DEFAULT_255_2_778
10
20.3164208
20
4.0643145
40
0.8165509
50
213.503025
51
265.2118138
0
ARC
8
DEFAULT_255_2_778
10
20.2305739
20
3.9537313
40
0.6853945
50
186.8047631
51
209.753219
0
ARC
8
DEFAULT_255_2_778
10
20.4026439
20
3.9825533
40
0.8597068
50
182.5859183
51
187.3533292
0
ARC
8
DEFAULT_255_2_778
10
20.1283151
20
4.103264
40
1.6105148
50
354.316356
51
359.9666111
0
ARC
8
DEFAULT_255_2_778
10
20.3780311
20
4.119753
40
1.3609102
50
359.2662608
51
44.7151348
0
ARC
8
DEFAULT_255_2_778
10
20.4200822
20
4.124374
40
1.3280374
50
45.8499913
51
86.4714689
0
ARC
8
DEFAULT_255_2_778
10
20.3997366
20
3.9929841
40
1.4604816
50
85.9920427
51
90.0087942
0
ARC
8
DEFAULT_255_2_778
10
20.1849867
20
4.2766735
40
0.6342003
50
172.0680057
51
175.6510333
0
ARC
8
DEFAULT_255_2_778
10
20.2976701
20
4.2500905
40
0.7495516
50
135.5800293
51
171.2440566
0
ARC
8
DEFAULT_255_2_778
10
20.3648109
20
4.1926996
40
0.8376956
50
107.1689692
51
135.9905812
0
ARC
8
DEFAULT_255_2_778
10
20.3951191
20
4.0946903
40
0.940284
50
89.7505729
51
107.1705648
0
ARC
8
DEFAULT_255_2_778
10
20.4164328
20
4.1287518
40
0.9063773
50
90.0007159
51
91.088633
0
ARC
8
DEFAULT_255_2_778
10
20.4195782
20
4.1859377
40
0.8491972
50
64.6059049
51
90.2129897
0
ARC
8
DEFAULT_255_2_778
10
20.4168032
20
4.1845914
40
0.8516057
50
33.0874033
51
64.4760875
0
ARC
8
DEFAULT_255_2_778
10
20.5054863
20
4.239508
40
0.7473273
50
14.321606
51
33.2715858
0
ARC
8
DEFAULT_255_2_778
10
20.6360792
20
4.2759623
40
0.6117828
50
4.575464
51
14.0390177
0
ARC
8
DEFAULT_255_2_778
10
26.7332129
20
3.4065661
40
0.5827009
50
180.0688835
51
269.9409583
0
ARC
8
DEFAULT_255_2_778
10
26.847928
20
3.5148624
40
0.2064706
50
191.0174494
51
266.5525848
0
ARC
8
DEFAULT_255_2_778
10
26.9314701
20
3.5507499
40
0.2959586
50
179.8614708
51
194.7488064
0
LINE
8
DEFAULT_255_2_778
10
12.2368124
20
5.0500655
11
12.2368124
21
5.3780655
0
LINE
8
DEFAULT_255_2_778
10
12.2368124
20
5.3780655
11
11.7759124
21
5.3780655
0
LINE
8
DEFAULT_255_2_778
10
11.7759124
20
5.3780655
11
11.7759124
21
2.8195655
0
LINE
8
DEFAULT_255_2_778
10
11.7759124
20
2.8195655
11
12.2654124
21
2.8195655
0
LINE
8
DEFAULT_255_2_778
10
12.2654124
20
2.8195655
11
12.2654124
21
4.2210655
0
LINE
8
DEFAULT_255_2_778
10
13.4735124
20
4.2303655
11
13.4735124
21
2.8195655
0
LINE
8
DEFAULT_255_2_778
10
13.4735124
20
2.8195655
11
13.9672124
21
2.8195655
0
LINE
8
DEFAULT_255_2_778
10
13.9672124
20
2.8195655
11
13.9672124
21
4.2303655
0
LINE
8
DEFAULT_255_2_778
10
15.1761124
20
4.2115655
11
15.1761124
21
2.8198655
0
LINE
8
DEFAULT_255_2_778
10
15.1761124
20
2.8198655
11
15.6650124
21
2.8198655
0
LINE
8
DEFAULT_255_2_778
10
15.6650124
20
2.8198655
11
15.6650124
21
4.2305655
0
LINE
8
DEFAULT_255_2_778
10
14.6173124
20
5.4534655
11
14.6173124
21
5.4534655
0
LINE
8
DEFAULT_255_2_778
10
16.5212124
20
5.1190655
11
16.5212124
21
6.3001655
0
LINE
8
DEFAULT_255_2_778
10
16.5212124
20
6.3001655
11
16.0318124
21
6.3001655
0
LINE
8
DEFAULT_255_2_778
10
16.0318124
20
6.3001655
11
16.0318124
21
2.8198655
0
LINE
8
DEFAULT_255_2_778
10
16.0318124
20
2.8198655
11
16.5022124
21
2.8198655
0
LINE
8
DEFAULT_255_2_778
10
16.5022124
20
2.8198655
11
16.5022124
21
3.0944655
0
LINE
8
DEFAULT_255_2_778
10
17.4108124
20
5.4534655
11
17.4108124
21
5.4532655
0
LINE
8
DEFAULT_255_2_778
10
18.2945124
20
4.1035655
11
18.2945124
21
4.0988655
0
LINE
8
DEFAULT_255_2_778
10
18.2945124
20
4.0988655
11
18.2950124
21
4.0990655
0
LINE
8
DEFAULT_255_2_778
10
24.2992124
20
5.3736655
11
24.2992124
21
5.1190655
0
LINE
8
DEFAULT_255_2_778
10
24.3177124
20
3.0942655
11
24.3177124
21
2.8195655
0
LINE
8
DEFAULT_255_2_778
10
24.3177124
20
2.8195655
11
24.7881124
21
2.8195655
0
LINE
8
DEFAULT_255_2_778
10
24.7881124
20
2.8195655
11
24.7881124
21
6.2999655
0
LINE
8
DEFAULT_255_2_778
10
24.7881124
20
6.2999655
11
24.2987124
21
6.2999655
0
LINE
8
DEFAULT_255_2_778
10
24.2987124
20
6.2999655
11
24.2987124
21
5.3733655
0
LINE
8
DEFAULT_255_2_778
10
24.2987124
20
5.3733655
11
24.2992124
21
5.3736655
0
LINE
8
DEFAULT_255_2_778
10
22.5278124
20
4.0990655
11
22.5278124
21
4.1038655
0
LINE
8
DEFAULT_255_2_778
10
23.4229124
20
3.2008655
11
23.4261124
21
3.2005655
0
LINE
8
DEFAULT_255_2_778
10
25.1353124
20
3.1582655
11
25.1353124
21
3.1566655
0
LINE
8
DEFAULT_255_2_778
10
25.4700124
20
3.4987655
11
25.4697124
21
3.4963655
0
LINE
8
DEFAULT_255_2_778
10
10.0180124
20
2.8219655
11
11.3455124
21
2.8193655
0
LINE
8
DEFAULT_255_2_778
10
11.3455124
20
2.8193655
11
11.3455124
21
3.2378655
0
LINE
8
DEFAULT_255_2_778
10
11.3455124
20
3.2378655
11
10.0180124
21
3.2399655
0
LINE
8
DEFAULT_255_2_778
10
9.2058124
20
3.9437655
11
11.3931124
21
3.9437655
0
LINE
8
DEFAULT_255_2_778
10
10.0620124
20
5.4534655
11
10.0620124
21
5.4534655
0
LINE
8
DEFAULT_255_2_778
10
10.9086124
20
4.3247655
11
9.2153124
21
4.3247655
0
LINE
8
DEFAULT_255_2_778
10
9.2153124
20
4.3247655
11
9.2153124
21
4.3247655
0
LINE
8
DEFAULT_255_2_778
10
20.3556124
20
2.8219655
11
21.6833124
21
2.8193655
0
LINE
8
DEFAULT_255_2_778
10
21.6833124
20
2.8193655
11
21.6833124
21
3.2378655
0
LINE
8
DEFAULT_255_2_778
10
21.6833124
20
3.2378655
11
20.3556124
21
3.2399655
0
LINE
8
DEFAULT_255_2_778
10
19.5438124
20
3.9437655
11
21.7309124
21
3.9437655
0
LINE
8
DEFAULT_255_2_778
10
20.3995124
20
5.4534655
11
20.3992124
21
5.4534655
0
LINE
8
DEFAULT_255_2_778
10
21.2459124
20
4.3247655
11
19.5526124
21
4.3247655
0
LINE
8
DEFAULT_255_2_778
10
19.5526124
20
4.3247655
11
19.5526124
21
4.3247655
0
LINE
8
DEFAULT_255_2_778
10
26.6355124
20
3.5514655
11
26.6355124
21
6.3025655
0
LINE
8
DEFAULT_255_2_778
10
26.6355124
20
6.3025655
11
26.1505124
21
6.3025655
0
LINE
8
DEFAULT_255_2_778
10
26.1505124
20
6.3025655
11
26.1505124
21
3.4058655
0
LINE
8
DEFAULT_255_2_778
10
26.7326124
20
2.8238655
11
27.0358124
21
2.8238655
0
LINE
8
DEFAULT_255_2_778
10
27.0358124
20
2.8238655
11
27.0358124
21
3.3087655
0
LINE
8
DEFAULT_255_2_778
10
27.0358124
20
3.3087655
11
26.8355124
21
3.3087655
0
LINE
8
DEFAULT_255_2_778
10
26.6355124
20
3.5514655
11
26.6355124
21
3.5514655
0
LINE
8
DEFAULT_255_2_778
10
28.9413124
20
5.3780655
11
28.2264124
21
3.5067655
0
LINE
8
DEFAULT_255_2_778
10
28.2264124
20
3.5067655
11
27.5210124
21
5.3780655
0
LINE
8
DEFAULT_255_2_778
10
27.5210124
20
5.3780655
11
26.9919124
21
5.3780655
0
LINE
8
DEFAULT_255_2_778
10
26.9919124
20
5.3780655
11
27.9703124
21
2.8949655
0
LINE
8
DEFAULT_255_2_778
10
27.9703124
20
2.8949655
11
27.6335124
21
2.0946655
0
LINE
8
DEFAULT_255_2_778
10
27.6335124
20
2.0946655
11
28.1515124
21
2.0946655
0
LINE
8
DEFAULT_255_2_778
10
28.1515124
20
2.0946655
11
29.4660124
21
5.3754655
0
LINE
8
DEFAULT_255_2_778
10
29.4660124
20
5.3754655
11
28.9413124
21
5.3780655
0
ENDSEC
0
EOF