0
SECTION
2
HEADER
9
$MEASUREMENT
70
1
0
ENDSEC
0
SECTION
2
TABLES
0
TABLE
2
LTYPE
0
LTYPE
72
65
70
64
2
CONTINUOUS
3
______
73
0
40
0
0
ENDTAB
0
TABLE
2
LAYER
0
LAYER
2
DEFAULT_255_2_778
70
0
62
255
6
CONTINUOUS
0
ENDTAB
0
ENDSEC
0
SECTION
2
ENTITIES
0
ARC
8
DEFAULT_255_2_778
10
8.2032471
20
9.2220793
40
0.3237562
50
359.8858086
51
89.8308949
0
ARC
8
DEFAULT_255_2_778
10
8.2027968
20
0.714637
40
0.3242059
50
270.2484528
51
0.0348171
0
ARC
8
DEFAULT_255_2_778
10
1.1005728
20
0.7141036
40
0.323671
50
179.8707023
51
269.8282543
0
ARC
8
DEFAULT_255_2_778
10
1.1011524
20
9.2215879
40
0.3242498
50
90.2738509
51
180.02718
0
ARC
8
DEFAULT_255_2_778
10
1.0999192
20
9.2288818
40
0.8836537
50
90.1048193
51
135.1817609
0
ARC
8
DEFAULT_255_2_778
10
1.100105
20
9.2287046
40
0.8839104
50
135.1821
51
180.0063721
0
ARC
8
DEFAULT_255_2_778
10
1.1057922
20
9.2286067
40
0.8895976
50
180.0000262
51
180.2429839
0
ARC
8
DEFAULT_255_2_778
10
0.9015821
20
0.7099786
40
0.6853797
50
179.9535683
51
180.0154762
0
ARC
8
DEFAULT_255_2_778
10
1.0978321
20
0.7088436
40
0.8816302
50
179.9382706
51
228.2685395
0
ARC
8
DEFAULT_255_2_778
10
1.0986792
20
0.7064284
40
0.8803945
50
228.12277
51
269.9754948
0
ARC
8
DEFAULT_255_2_778
10
8.2078479
20
0.7075307
40
0.8814969
50
270.0425572
51
318.21097
0
ARC
8
DEFAULT_255_2_778
10
8.2100745
20
0.708566
40
0.8805295
50
318.0641905
51
0.0798732
0
ARC
8
DEFAULT_255_2_778
10
8.4052231
20
0.7099786
40
0.6853798
50
359.9845238
51
0.0464317
0
ARC
8
DEFAULT_255_2_778
10
8.404582
20
9.2253897
40
0.6860208
50
359.9535934
51
0.0154679
0
ARC
8
DEFAULT_255_2_778
10
8.2090162
20
9.2265975
40
0.8815874
50
359.933537
51
48.0882633
0
ARC
8
DEFAULT_255_2_778
10
8.2081893
20
9.22892
40
0.8804141
50
47.9472564
51
89.9665935
0
LINE
8
DEFAULT_255_2_778
10
8.5270026
20
9.221434
11
8.5270026
21
0.714834
0
LINE
8
DEFAULT_255_2_778
10
8.2042026
20
0.390434
11
1.0996026
21
0.390434
0
LINE
8
DEFAULT_255_2_778
10
0.7769026
20
0.714834
11
0.7769026
21
9.221434
0
LINE
8
DEFAULT_255_2_778
10
1.0996026
20
9.545834
11
8.2042026
21
9.545834
0
LINE
8
DEFAULT_255_2_778
10
0.2162026
20
9.224834
11
0.2162026
21
0.710534
0
LINE
8
DEFAULT_255_2_778
10
1.0983026
20
-0.173966
11
8.2085026
21
-0.173966
0
LINE
8
DEFAULT_255_2_778
10
9.0906026
20
0.710534
11
9.0906026
21
9.224834
0
LINE
8
DEFAULT_255_2_778
10
8.2087026
20
10.109334
11
1.0983026
21
10.112534
0
ARC
8
DEFAULT_255_2_778
10
5.92086
20
7.6794252
40
0.2818433
50
270.0088101
51
359.9911899
0
ARC
8
DEFAULT_255_2_778
10
5.92086
20
7.6793386
40
0.2818433
50
0.0088101
51
89.9911899
0
ARC
8
DEFAULT_255_2_778
10
3.3857467
20
7.6793386
40
0.2818433
50
90.0088101
51
179.9911899
0
ARC
8
DEFAULT_255_2_778
10
3.3857467
20
7.6794252
40
0.2818433
50
180.0088101
51
269.9911899
0
LINE
8
DEFAULT_255_2_778
10
3.3857033
20
7.3975819
11
5.9209033
21
7.3975819
0
LINE
8
DEFAULT_255_2_778
10
5.9209033
20
7.9611819
11
3.3857033
21
7.9611819
0
LINE
8
DEFAULT_255_2_778
10
3.3857033
20
7.3975819
11
3.3857033
21
7.3975819
0
ARC
8
DEFAULT_255_2_778
10
5.92086
20
5.9186252
40
0.2818433
50
270.0088101
51
359.9911899
0
ARC
8
DEFAULT_255_2_778
10
5.92086
20
5.9185386
40
0.2818433
50
0.0088101
51
89.9911899
0
ARC
8
DEFAULT_255_2_778
10
3.3857467
20
5.9185386
40
0.2818433
50
90.0088101
51
179.9911899
0
ARC
8
DEFAULT_255_2_778
10
3.3857467
20
5.9186252
40
0.2818433
50
180.0088101
51
269.9911899
0
LINE
8
DEFAULT_255_2_778
10
3.3857033
20
5.6367819
11
5.9209033
21
5.6367819
0
LINE
8
DEFAULT_255_2_778
10
5.9209033
20
6.2003819
11
3.3857033
21
6.2003819
0
LINE
8
DEFAULT_255_2_778
10
3.3857033
20
5.6367819
11
3.3857033
21
5.6367819
0
ARC
8
DEFAULT_255_2_778
10
5.1108528
20
4.0874679
40
0.2818861
50
269.9768396
51
359.9825107
0
ARC
8
DEFAULT_255_2_778
10
5.1108528
20
4.0872958
40
0.2818861
50
0.0174893
51
90.0231604
0
ARC
8
DEFAULT_255_2_778
10
3.420925
20
4.0872958
40
0.2818861
50
89.9768396
51
179.9825107
0
ARC
8
DEFAULT_255_2_778
10
3.420925
20
4.0874679
40
0.2818861
50
180.0174893
51
270.0231604
0
LINE
8
DEFAULT_255_2_778
10
3.4210389
20
3.8055819
11
5.1107389
21
3.8055819
0
LINE
8
DEFAULT_255_2_778
10
5.1107389
20
4.3691819
11
3.4210389
21
4.3691819
0
LINE
8
DEFAULT_255_2_778
10
3.4210389
20
3.8055819
11
3.4210389
21
3.8055819
0
ARC
8
DEFAULT_255_2_778
10
5.92086
20
2.2563252
40
0.2818433
50
270.0088101
51
359.9911899
0
ARC
8
DEFAULT_255_2_778
10
5.92086
20
2.2562386
40
0.2818433
50
0.0088101
51
89.9911899
0
ARC
8
DEFAULT_255_2_778
10
3.3857467
20
2.2562386
40
0.2818433
50
90.0088101
51
179.9911899
0
ARC
8
DEFAULT_255_2_778
10
3.3857467
20
2.2563252
40
0.2818433
50
180.0088101
51
269.9911899
0
LINE
8
DEFAULT_255_2_778
10
3.3857033
20
1.9744819
11
5.9209033
21
1.9744819
0
LINE
8
DEFAULT_255_2_778
10
5.9209033
20
2.5380819
11
3.3857033
21
2.5380819
0
LINE
8
DEFAULT_255_2_778
10
3.3857033
20
1.9744819
11
3.3857033
21
1.9744819
0
ARC
8
DEFAULT_255_2_778
10
3.3859579
20
2.2562333
40
0.2820358
50
180.0478602
51
269.9521152
0
ARC
8
DEFAULT_255_2_778
10
3.3856788
20
2.256041
40
0.2818433
50
270.0088101
51
359.9911899
0
ARC
8
DEFAULT_255_2_778
10
3.3854867
20
5.9183622
40
0.2820355
50
0.0478429
51
89.9521715
0
ARC
8
DEFAULT_255_2_778
10
3.3857655
20
5.9185544
40
0.2818433
50
90.0088101
51
179.9911899
0
LINE
8
DEFAULT_255_2_778
10
3.6675221
20
2.2559977
11
3.6675221
21
5.9185977
0
LINE
8
DEFAULT_255_2_778
10
3.1039221
20
5.9185977
11
3.1039221
21
2.2559977
0
ARC
8
DEFAULT_255_2_778
10
14.253876
20
6.3619127
40
1.1623212
50
85.2609576
51
90.5792858
0
ARC
8
DEFAULT_255_2_778
10
14.3208005
20
7.19761
40
0.3239602
50
79.0523125
51
84.8457483
0
ARC
8
DEFAULT_255_2_778
10
14.3394151
20
7.290976
40
0.2287589
50
57.5304316
51
79.1886796
0
ARC
8
DEFAULT_255_2_778
10
14.3487647
20
7.3068631
40
0.2103369
50
357.059892
51
57.3558397
0
ARC
8
DEFAULT_255_2_778
10
14.3480317
20
7.2857572
40
0.2110453
50
302.7573474
51
2.8021045
0
ARC
8
DEFAULT_255_2_778
10
14.339834
20
7.299513
40
0.2270499
50
280.7860562
51
302.6188073
0
ARC
8
DEFAULT_255_2_778
10
14.2606234
20
7.9297079
40
0.8618692
50
270.6374917
51
278.1176479
0
ARC
8
DEFAULT_255_2_778
10
14.2615153
20
7.9009367
40
0.8330901
50
270.0013281
51
270.598169
0
ARC
8
DEFAULT_255_2_778
10
14.2615166
20
7.8940775
40
0.8262307
50
268.6551189
51
270.0012475
0
ARC
8
DEFAULT_255_2_778
10
13.4157516
20
4.2260493
40
1.1608805
50
85.2340437
51
90.5590568
0
ARC
8
DEFAULT_255_2_778
10
13.4821115
20
5.0500957
40
0.3341779
50
79.2184259
51
84.8335199
0
ARC
8
DEFAULT_255_2_778
10
13.5017132
20
5.1536712
40
0.228764
50
57.5306811
51
79.1884439
0
ARC
8
DEFAULT_255_2_778
10
13.5112824
20
5.1696751
40
0.2101252
50
357.0263499
51
57.3893363
0
ARC
8
DEFAULT_255_2_778
10
13.5103317
20
5.1484572
40
0.2110453
50
302.7573474
51
2.8021045
0
ARC
8
DEFAULT_255_2_778
10
13.502134
20
5.162213
40
0.2270499
50
280.7860562
51
302.6188073
0
ARC
8
DEFAULT_255_2_778
10
13.4232782
20
5.7881834
40
0.8576369
50
270.03956
51
278.1340336
0
ARC
8
DEFAULT_255_2_778
10
13.4238553
20
5.7600803
40
0.8295335
50
268.6578038
51
270.0010407
0
ARC
8
DEFAULT_255_2_778
10
14.2534516
20
2.0485493
40
1.1608805
50
85.2340437
51
90.5590568
0
ARC
8
DEFAULT_255_2_778
10
14.3198115
20
2.8725957
40
0.3341779
50
79.2184259
51
84.8335199
0
ARC
8
DEFAULT_255_2_778
10
14.3394126
20
2.9761711
40
0.2287641
50
57.5305591
51
79.1883018
0
ARC
8
DEFAULT_255_2_778
10
14.3487647
20
2.9920631
40
0.2103369
50
357.059892
51
57.3558397
0
ARC
8
DEFAULT_255_2_778
10
14.3477466
20
2.9710092
40
0.2113275
50
302.8000494
51
2.7842323
0
ARC
8
DEFAULT_255_2_778
10
14.339413
20
2.9863782
40
0.2287644
50
280.8115919
51
302.4693068
0
ARC
8
DEFAULT_255_2_778
10
14.2608386
20
3.6060539
40
0.8530742
50
270.62961
51
278.1873097
0
ARC
8
DEFAULT_255_2_778
10
14.2605881
20
3.6139076
40
0.8609302
50
269.998831
51
270.6405393
0
ARC
8
DEFAULT_255_2_778
10
14.2605882
20
3.6174334
40
0.864456
50
268.7761477
51
269.9988237
0
ARC
8
DEFAULT_255_2_778
10
11.8959519
20
3.6622614
40
0.9090872
50
262.1586487
51
269.9541621
0
ARC
8
DEFAULT_255_2_778
10
11.8035618
20
2.9615591
40
0.2023728
50
222.9871029
51
261.0059966
0
ARC
8
DEFAULT_255_2_778
10
11.7958646
20
2.9722977
40
0.2044845
50
188.8680515
51
226.6611924
0
ARC
8
DEFAULT_255_2_778
10
12.5360395
20
3.0630661
40
0.9501179
50
180.0428629
51
187.395172
0
ARC
8
DEFAULT_255_2_778
10
12.4653501
20
3.0624345
40
0.8794282
50
179.860581
51
180.0051628
0
ARC
8
DEFAULT_255_2_778
10
12.5909923
20
7.2086897
40
1.0050697
50
172.8105672
51
179.8868566
0
ARC
8
DEFAULT_255_2_778
10
11.7946179
20
7.3036074
40
0.2031519
50
133.2100919
51
171.260597
0
ARC
8
DEFAULT_255_2_778
10
11.8017014
20
7.3171882
40
0.1986308
50
98.6217249
51
137.3851824
0
ARC
8
DEFAULT_255_2_778
10
11.8994797
20
6.5618239
40
0.96026
50
90.2538842
51
97.6333787
0
ARC
8
DEFAULT_255_2_778
10
16.891085
20
3.0720854
40
1.034008
50
354.5296909
51
0.658801
0
ARC
8
DEFAULT_255_2_778
10
17.5971297
20
3.0085245
40
0.3251448
50
349.3033256
51
353.8185219
0
ARC
8
DEFAULT_255_2_778
10
17.6571343
20
3.0002575
40
0.2646656
50
327.8130567
51
348.650812
0
ARC
8
DEFAULT_255_2_778
10
17.7129046
20
2.9590114
40
0.1955644
50
296.4213333
51
329.3364739
0
ARC
8
DEFAULT_255_2_778
10
17.6806589
20
3.0190648
40
0.2637022
50
270.0120416
51
296.8897029
0
ARC
8
DEFAULT_255_2_778
10
17.6807362
20
3.0226276
40
0.2672649
50
269.4615688
51
269.9953073
0
ARC
8
DEFAULT_255_2_778
10
17.6757131
20
3.0226276
40
0.2672649
50
270.0046927
51
270.5384312
0
ARC
8
DEFAULT_255_2_778
10
17.6757904
20
3.0190648
40
0.2637022
50
243.1102971
51
269.9879584
0
ARC
8
DEFAULT_255_2_778
10
17.6435447
20
2.9590114
40
0.1955644
50
210.6635261
51
243.5786667
0
ARC
8
DEFAULT_255_2_778
10
17.6674429
20
2.9867354
40
0.2305553
50
196.045666
51
213.5623071
0
ARC
8
DEFAULT_255_2_778
10
17.6883324
20
2.9945624
40
0.2528002
50
190.5734907
51
196.4418749
0
ARC
8
DEFAULT_255_2_778
10
18.2528469
20
3.0671836
40
0.8216863
50
179.9823022
51
188.3277417
0
ARC
8
DEFAULT_255_2_778
10
18.2651226
20
3.0674362
40
0.833962
50
178.8636992
51
179.9999179
0
ARC
8
DEFAULT_255_2_778
10
16.0552436
20
4.8197951
40
1.3761389
50
359.474531
51
11.5872354
0
ARC
8
DEFAULT_255_2_778
10
16.6263752
20
4.9428452
40
0.7919525
50
11.1658051
51
33.6560845
0
ARC
8
DEFAULT_255_2_778
10
16.7765425
20
5.032124
40
0.6175418
50
34.4827768
51
44.8404669
0
ARC
8
DEFAULT_255_2_778
10
16.7016053
20
4.9467727
40
0.7309023
50
45.4424693
51
81.3023053
0
ARC
8
DEFAULT_255_2_778
10
16.6208954
20
4.5568343
40
1.1287534
50
80.2456808
51
90.2776975
0
ARC
8
DEFAULT_255_2_778
10
16.6016091
20
4.6767909
40
1.0088781
50
89.2153674
51
90.0007236
0
ARC
8
DEFAULT_255_2_778
10
16.6015526
20
4.6760489
40
1.0096202
50
89.9975187
51
109.0677026
0
ARC
8
DEFAULT_255_2_778
10
16.4969285
20
4.9841976
40
0.6842018
50
109.2170883
51
135.4279416
0
ARC
8
DEFAULT_255_2_778
10
16.5502748
20
4.9466735
40
0.7486154
50
136.2474994
51
161.0990818
0
ARC
8
DEFAULT_255_2_778
10
16.8388895
20
4.8442757
40
1.0548434
50
160.9152281
51
177.3378627
0
ARC
8
DEFAULT_255_2_778
10
17.2641092
20
4.8079295
40
1.4813849
50
176.6974681
51
180.0408072
0
ARC
8
DEFAULT_255_2_778
10
14.7499154
20
3.0718257
40
1.0328772
50
354.5269227
51
0.6572861
0
ARC
8
DEFAULT_255_2_778
10
15.4547789
20
3.0083339
40
0.3251964
50
349.3033538
51
353.8175602
0
ARC
8
DEFAULT_255_2_778
10
15.5128541
20
3.0008479
40
0.266763
50
327.8959243
51
348.5680471
0
ARC
8
DEFAULT_255_2_778
10
15.5710924
20
2.9582863
40
0.1948772
50
296.3616044
51
329.396136
0
ARC
8
DEFAULT_255_2_778
10
15.5380539
20
3.0192144
40
0.2641519
50
270.0718218
51
296.9144196
0
ARC
8
DEFAULT_255_2_778
10
15.5384064
20
3.0160175
40
0.2609547
50
269.4550866
51
269.9952904
0
ARC
8
DEFAULT_255_2_778
10
15.533437
20
3.0172719
40
0.2622093
50
270.0047381
51
270.5435826
0
ARC
8
DEFAULT_255_2_778
10
15.5337224
20
3.0189096
40
0.263847
50
243.0697652
51
269.9427414
0
ARC
8
DEFAULT_255_2_778
10
15.5007953
20
2.9585502
40
0.1951307
50
210.6498725
51
243.66271
0
ARC
8
DEFAULT_255_2_778
10
15.522874
20
2.9854872
40
0.2281686
50
195.6588081
51
213.6440666
0
ARC
8
DEFAULT_255_2_778
10
15.541966
20
2.9926374
40
0.2484881
50
190.3545474
51
196.05812
0
ARC
8
DEFAULT_255_2_778
10
16.1015887
20
3.0665275
40
0.8127569
50
180.0261781
51
188.3873937
0
ARC
8
DEFAULT_255_2_778
10
16.0849547
20
3.0661546
40
0.7961228
50
178.7390202
51
179.9998852
0
ARC
8
DEFAULT_255_2_778
10
16.2160423
20
5.7921286
40
0.927096
50
173.7989976
51
180.744985
0
ARC
8
DEFAULT_255_2_778
10
15.6160784
20
5.852099
40
0.3242061
50
169.285403
51
172.8823468
0
ARC
8
DEFAULT_255_2_778
10
15.5878747
20
5.8534634
40
0.2962662
50
149.3776842
51
168.5305657
0
ARC
8
DEFAULT_255_2_778
10
15.5012506
20
5.9044078
40
0.1957727
50
116.392959
51
149.2944451
0
ARC
8
DEFAULT_255_2_778
10
15.5337224
20
5.8445393
40
0.2638471
50
90.0572586
51
116.9302348
0
ARC
8
DEFAULT_255_2_778
10
15.533437
20
5.846177
40
0.2622091
50
89.4564174
51
89.9952619
0
ARC
8
DEFAULT_255_2_778
10
15.5384064
20
5.8474314
40
0.2609549
50
90.0047096
51
90.5449134
0
ARC
8
DEFAULT_255_2_778
10
15.5380539
20
5.8442345
40
0.2641518
50
63.0855804
51
89.9281782
0
ARC
8
DEFAULT_255_2_778
10
15.570638
20
5.9046733
40
0.1955175
50
30.6594867
51
63.5827536
0
ARC
8
DEFAULT_255_2_778
10
15.4894005
20
5.8552798
40
0.2905884
50
11.331161
51
30.8690997
0
ARC
8
DEFAULT_255_2_778
10
14.9965756
20
5.7964129
40
0.7863464
50
0.4202132
51
8.4802669
0
ARC
8
DEFAULT_255_2_778
10
15.0154547
20
5.7971322
40
0.7674629
50
0.0022859
51
0.3768533
0
ARC
8
DEFAULT_255_2_778
10
15.0271638
20
5.7971532
40
0.7557538
50
358.7051026
51
0.0007284
0
ARC
8
DEFAULT_255_2_778
10
16.6726711
20
4.9244308
40
1.1934895
50
113.2042269
51
138.2164726
0
ARC
8
DEFAULT_255_2_778
10
16.7048454
20
4.8165073
40
1.3054239
50
89.4654383
51
112.6357776
0
ARC
8
DEFAULT_255_2_778
10
16.7299806
20
4.5925368
40
1.5293925
50
76.1546704
51
90.4853767
0
ARC
8
DEFAULT_255_2_778
10
16.802197
20
4.92379
40
1.1905175
50
70.0795312
51
75.7142441
0
ARC
8
DEFAULT_255_2_778
10
16.8618093
20
5.0659983
40
1.0365348
50
46.1398612
51
70.4992437
0
ARC
8
DEFAULT_255_2_778
10
16.8796171
20
5.0706812
40
1.0208643
50
19.483434
51
46.6783997
0
ARC
8
DEFAULT_255_2_778
10
16.4451451
20
4.9271136
40
1.4783732
50
2.9038061
51
19.1127416
0
ARC
8
DEFAULT_255_2_778
10
16.0521216
20
4.8924939
40
1.8727033
50
359.9718697
51
3.3524894
0
ARC
8
DEFAULT_255_2_778
10
19.2897347
20
3.3819142
40
1.0311994
50
333.1294921
51
341.3220637
0
ARC
8
DEFAULT_255_2_778
10
19.7120672
20
3.1769557
40
0.5618874
50
331.4916775
51
332.308113
0
ARC
8
DEFAULT_255_2_778
10
19.9484837
20
3.0465833
40
0.2919172
50
307.880264
51
331.8304699
0
ARC
8
DEFAULT_255_2_778
10
19.950745
20
3.0430921
40
0.2877732
50
270.0083034
51
307.9517127
0
ARC
8
DEFAULT_255_2_778
10
19.9507994
20
3.0439072
40
0.2885884
50
268.8732666
51
269.9974634
0
ARC
8
DEFAULT_255_2_778
10
19.9362844
20
3.0336152
40
0.2783811
50
269.9985303
51
271.8197852
0
ARC
8
DEFAULT_255_2_778
10
19.9364719
20
3.0356121
40
0.2803782
50
231.602351
51
269.9602281
0
ARC
8
DEFAULT_255_2_778
10
19.9238531
20
3.0310861
40
0.2690864
50
207.1073435
51
233.1097128
0
ARC
8
DEFAULT_255_2_778
10
20.5294548
20
3.3524406
40
0.954647
50
198.3641204
51
207.7139671
0
ARC
8
DEFAULT_255_2_778
10
19.2192773
20
5.9366902
40
0.5674938
50
186.6701
51
200.5296732
0
ARC
8
DEFAULT_255_2_778
10
18.9129188
20
5.8959286
40
0.2585208
50
181.7621514
51
185.5837237
0
ARC
8
DEFAULT_255_2_778
10
18.912173
20
5.8959022
40
0.2577745
50
179.9988857
51
181.7613826
0
ARC
8
DEFAULT_255_2_778
10
18.9098134
20
5.8960476
40
0.2554151
50
161.5514393
51
180.0314928
0
ARC
8
DEFAULT_255_2_778
10
18.8601949
20
5.903488
40
0.2061732
50
120.4772299
51
159.148588
0
ARC
8
DEFAULT_255_2_778
10
18.8922974
20
5.8702122
40
0.2513653
50
90.2901159
51
122.9373498
0
ARC
8
DEFAULT_255_2_778
10
18.9058679
20
5.936952
40
0.1852181
50
38.7460554
51
94.5965814
0
ARC
8
DEFAULT_255_2_778
10
18.5439781
20
5.6907328
40
0.6225218
50
18.2975282
51
35.572546
0
ARC
8
DEFAULT_255_2_778
10
21.3479181
20
5.6893876
40
0.6254575
50
144.4682768
51
161.6615969
0
ARC
8
DEFAULT_255_2_778
10
20.9832533
20
5.9372492
40
0.1849323
50
85.3564882
51
141.3009238
0
ARC
8
DEFAULT_255_2_778
10
20.9969531
20
5.869878
40
0.2516997
50
57.0851476
51
89.7105586
0
ARC
8
DEFAULT_255_2_778
10
21.0272618
20
5.9018894
40
0.2085125
50
21.0767961
51
59.2973639
0
ARC
8
DEFAULT_255_2_778
10
20.9766922
20
5.8956266
40
0.2582463
50
0.0140043
51
18.3374988
0
ARC
8
DEFAULT_255_2_778
10
20.9785061
20
5.8956912
40
0.2564323
50
358.276565
51
359.9996813
0
ARC
8
DEFAULT_255_2_778
10
20.9790959
20
5.8956594
40
0.255842
50
354.4181974
51
358.279708
0
ARC
8
DEFAULT_255_2_778
10
20.6632727
20
5.9388505
40
0.5744996
50
339.6312166
51
353.1946723
0
ARC
8
DEFAULT_255_2_778
10
20.4995468
20
5.9839847
40
0.7438422
50
340.6624771
51
340.7616291
0
ARC
8
DEFAULT_255_2_778
10
23.2782359
20
3.9884021
40
0.8127649
50
268.3493947
51
315.19745
0
ARC
8
DEFAULT_255_2_778
10
23.3727657
20
3.8962004
40
0.680722
50
315.0971906
51
336.05975
0
ARC
8
DEFAULT_255_2_778
10
22.8629337
20
4.1245799
40
1.2393669
50
335.974212
51
348.1357709
0
ARC
8
DEFAULT_255_2_778
10
22.1575688
20
4.2776612
40
1.9611418
50
347.9957449
51
356.2112948
0
ARC
8
DEFAULT_255_2_778
10
22.1201006
20
4.5887791
40
1.9989069
50
3.9643333
51
10.0665592
0
ARC
8
DEFAULT_255_2_778
10
21.8770457
20
4.5471389
40
2.245499
50
10.0286709
51
11.7332754
0
ARC
8
DEFAULT_255_2_778
10
22.9096083
20
4.763519
40
1.1905111
50
11.6427427
51
24.3022702
0
ARC
8
DEFAULT_255_2_778
10
23.3735133
20
4.9779662
40
0.6794734
50
23.9207862
51
44.9223042
0
ARC
8
DEFAULT_255_2_778
10
23.2640734
20
4.8789993
40
0.8268805
50
44.4230052
51
67.0403985
0
ARC
8
DEFAULT_255_2_778
10
23.2692674
20
4.8441117
40
0.8571756
50
68.2698277
51
90.9304387
0
LINE
8
DEFAULT_255_2_778
10
23.2553481
20
5.7011742
11
23.2546246
21
5.7011745
0
ARC
8
DEFAULT_255_2_778
10
23.2413923
20
4.8350846
40
0.8661909
50
89.1246892
51
111.2733324
0
ARC
8
DEFAULT_255_2_778
10
23.1940969
20
4.9823331
40
0.7118778
50
112.0260224
51
112.4258339
0
ARC
8
DEFAULT_255_2_778
10
23.2406093
20
4.8855545
40
0.8191038
50
112.8507836
51
135.6857851
0
ARC
8
DEFAULT_255_2_778
10
23.135636
20
4.9779662
40
0.6794734
50
135.0776958
51
156.0792138
0
ARC
8
DEFAULT_255_2_778
10
23.6436753
20
4.7496875
40
1.2364395
50
155.9552653
51
168.141293
0
ARC
8
DEFAULT_255_2_778
10
24.3957609
20
4.5883386
40
2.0056334
50
168.0455223
51
176.036371
0
ARC
8
DEFAULT_255_2_778
10
24.3845813
20
4.2823217
40
1.993861
50
183.8520213
51
191.935382
0
ARC
8
DEFAULT_255_2_778
10
23.6520783
20
4.127175
40
1.245108
50
191.9213519
51
204.0236491
0
ARC
8
DEFAULT_255_2_778
10
23.1354547
20
3.8954531
40
0.6788998
50
203.9118271
51
224.9312898
0
ARC
8
DEFAULT_255_2_778
10
23.2318019
20
3.9894345
40
0.8134858
50
224.8248275
51
271.621761
0
ARC
8
DEFAULT_255_2_778
10
23.2898489
20
4.8350884
40
1.2868396
50
45.1231096
51
66.9822236
0
ARC
8
DEFAULT_255_2_778
10
23.3202861
20
4.8842958
40
1.2305642
50
28.2356454
51
44.5107584
0
ARC
8
DEFAULT_255_2_778
10
23.1274428
20
4.7856917
40
1.447117
50
14.6167297
51
28.0629064
0
ARC
8
DEFAULT_255_2_778
10
22.5772539
20
4.6439586
40
2.0152666
50
4.6368983
51
14.5685326
0
ARC
8
DEFAULT_255_2_778
10
22.5803334
20
4.2320672
40
2.0124702
50
345.4232205
51
355.3658723
0
ARC
8
DEFAULT_255_2_778
10
23.1056221
20
4.0991807
40
1.4706497
50
332.049494
51
345.2831955
0
ARC
8
DEFAULT_255_2_778
10
23.3187525
20
3.9937117
40
1.2329645
50
315.4973255
51
331.7367617
0
ARC
8
DEFAULT_255_2_778
10
23.2867608
20
4.0461428
40
1.2926194
50
293.0672953
51
314.8337401
0
ARC
8
DEFAULT_255_2_778
10
23.3025637
20
4.0151841
40
1.2579465
50
273.7342845
51
292.9575574
0
ARC
8
DEFAULT_255_2_778
10
23.2567248
20
4.445759
40
1.6906854
50
269.9457722
51
274.3340805
0
ARC
8
DEFAULT_255_2_778
10
23.2419271
20
4.2116425
40
1.4566278
50
255.2253628
51
270.5191268
0
ARC
8
DEFAULT_255_2_778
10
23.1700348
20
3.906081
40
1.1428664
50
246.642425
51
254.8038213
0
ARC
8
DEFAULT_255_2_778
10
23.2210713
20
4.0423675
40
1.2882381
50
225.1241119
51
246.9617335
0
ARC
8
DEFAULT_255_2_778
10
23.1890846
20
3.9919344
40
1.2299983
50
208.2435263
51
224.5223892
0
ARC
8
DEFAULT_255_2_778
10
23.3851257
20
4.0915643
40
1.4498551
50
194.6214736
51
208.0458465
0
ARC
8
DEFAULT_255_2_778
10
23.9298901
20
4.2320629
40
2.0124441
50
184.6340643
51
194.5768452
0
ARC
8
DEFAULT_255_2_778
10
23.9516888
20
4.641445
40
2.0350645
50
165.4799321
51
175.3147089
0
ARC
8
DEFAULT_255_2_778
10
23.4100361
20
4.775502
40
1.4771138
50
152.0742402
51
165.2461346
0
ARC
8
DEFAULT_255_2_778
10
23.1916987
20
4.8828412
40
1.2339531
50
135.4971224
51
151.7300192
0
ARC
8
DEFAULT_255_2_778
10
23.2224786
20
4.8316132
40
1.2919002
50
113.0611208
51
134.8335618
0
ARC
8
DEFAULT_255_2_778
10
23.2069132
20
4.8639312
40
1.2560688
50
93.729813
51
112.9853005
0
ARC
8
DEFAULT_255_2_778
10
23.253008
20
4.4308308
40
1.6913443
50
89.9452341
51
94.3336052
0
ARC
8
DEFAULT_255_2_778
10
23.2678367
20
4.6670824
40
1.455152
50
75.2127716
51
90.5202241
0
ARC
8
DEFAULT_255_2_778
10
23.3404584
20
4.975128
40
1.1388047
50
66.6004172
51
74.789842
0
ARC
8
DEFAULT_255_2_778
10
27.9621777
20
5.691654
40
0.6193297
50
144.4120135
51
161.7725174
0
ARC
8
DEFAULT_255_2_778
10
27.6033173
20
5.9354372
40
0.1859278
50
85.4321016
51
141.1469186
0
ARC
8
DEFAULT_255_2_778
10
27.6171096
20
5.8692626
40
0.2515139
50
57.0730861
51
89.7687611
0
ARC
8
DEFAULT_255_2_778
10
27.6485141
20
5.9022041
40
0.2069662
50
20.8519171
51
59.4140886
0
ARC
8
DEFAULT_255_2_778
10
27.5981902
20
5.8946826
40
0.2569019
50
0.032194
51
18.423732
0
ARC
8
DEFAULT_255_2_778
10
27.6009491
20
5.8948256
40
0.2541431
50
357.5974743
51
0.0003192
0
ARC
8
DEFAULT_255_2_778
10
27.6013614
20
5.894797
40
0.25373
50
354.27229
51
357.6000282
0
ARC
8
DEFAULT_255_2_778
10
27.294287
20
5.9347909
40
0.5633371
50
339.3770743
51
353.3418348
0
ARC
8
DEFAULT_255_2_778
10
25.3104577
20
2.3866544
40
1.2695575
50
330.1717552
51
341.1358587
0
ARC
8
DEFAULT_255_2_778
10
25.7345516
20
2.1387875
40
0.7783687
50
313.9256204
51
330.4724244
0
ARC
8
DEFAULT_255_2_778
10
25.755884
20
2.1015159
40
0.7368002
50
288.4959478
51
314.7415172
0
ARC
8
DEFAULT_255_2_778
10
25.666321
20
2.4121047
40
1.0598456
50
269.9900777
51
287.7610458
0
ARC
8
DEFAULT_255_2_778
10
25.6661012
20
2.3984412
40
1.0461821
50
269.6891145
51
270.0019851
0
ARC
8
DEFAULT_255_2_778
10
25.6489208
20
2.0135278
40
0.6613534
50
258.3986724
51
270.9966724
0
ARC
8
DEFAULT_255_2_778
10
25.5569768
20
1.5812533
40
0.2194424
50
234.5573096
51
259.2172546
0
ARC
8
DEFAULT_255_2_778
10
25.5557828
20
1.5625357
40
0.2037407
50
206.6108792
51
231.7773801
0
ARC
8
DEFAULT_255_2_778
10
25.5846908
20
1.5626797
40
0.2300083
50
179.998836
51
203.4157292
0
ARC
8
DEFAULT_255_2_778
10
25.5847257
20
1.5626815
40
0.2300434
50
177.9839112
51
179.9992759
0
ARC
8
DEFAULT_255_2_778
10
25.5531278
20
1.5844624
40
0.198775
50
127.2086773
51
183.9485971
0
ARC
8
DEFAULT_255_2_778
10
25.5607753
20
1.5750908
40
0.210864
50
105.6127514
51
127.3237725
0
ARC
8
DEFAULT_255_2_778
10
25.6005163
20
1.3999204
40
0.3903675
50
88.6189618
51
104.310791
0
ARC
8
DEFAULT_255_2_778
10
25.6237898
20
2.3409674
40
0.5509674
50
268.5579952
51
295.7400054
0
ARC
8
DEFAULT_255_2_778
10
25.6695117
20
2.2251427
40
0.4268765
50
296.9636827
51
305.1421339
0
ARC
8
DEFAULT_255_2_778
10
25.6520266
20
2.2264038
40
0.4381824
50
306.9170796
51
331.8454805
0
ARC
8
DEFAULT_255_2_778
10
25.1846607
20
2.4947338
40
0.9769925
50
330.9039718
51
342.3233118
0
ARC
8
DEFAULT_255_2_778
10
25.8359773
20
5.9345902
40
0.5674938
50
186.6701
51
200.5296732
0
ARC
8
DEFAULT_255_2_778
10
25.5247879
20
5.893997
40
0.25373
50
182.3999718
51
185.72771
0
ARC
8
DEFAULT_255_2_778
10
25.5252002
20
5.8940256
40
0.2541432
50
179.9996808
51
182.4025257
0
ARC
8
DEFAULT_255_2_778
10
25.5279591
20
5.8938826
40
0.256902
50
161.576268
51
179.967806
0
ARC
8
DEFAULT_255_2_778
10
25.4790191
20
5.9002375
40
0.2086755
50
120.7500477
51
158.9840122
0
ARC
8
DEFAULT_255_2_778
10
25.5091488
20
5.8687184
40
0.2513586
50
90.2562494
51
122.9794781
0
ARC
8
DEFAULT_255_2_778
10
25.5226755
20
5.9345438
40
0.1861082
50
38.8452436
51
94.5151319
0
ARC
8
DEFAULT_255_2_778
10
25.1659312
20
5.6918486
40
0.6171574
50
18.1966827
51
35.6187677
0
LINE
8
DEFAULT_255_2_778
10
14.2421246
20
7.0680745
11
12.0989246
21
7.0680745
0
LINE
8
DEFAULT_255_2_778
10
12.0989246
20
7.0680745
11
12.0989246
21
5.3868745
0
LINE
8
DEFAULT_255_2_778
10
12.0989246
20
5.3868745
11
13.4044246
21
5.3868745
0
LINE
8
DEFAULT_255_2_778
10
13.4044246
20
4.9307745
11
12.0989246
21
4.9307745
0
LINE
8
DEFAULT_255_2_778
10
12.0989246
20
4.9307745
11
12.0989246
21
3.2093745
0
LINE
8
DEFAULT_255_2_778
10
12.0989246
20
3.2093745
11
14.2421246
21
3.2093745
0
LINE
8
DEFAULT_255_2_778
10
14.2421246
20
2.7531745
11
11.8952246
21
2.7531745
0
LINE
8
DEFAULT_255_2_778
10
11.5859246
20
3.0645745
11
11.5859246
21
7.2106745
0
LINE
8
DEFAULT_255_2_778
10
11.8952246
20
7.5220745
11
14.2421246
21
7.5241745
0
LINE
8
DEFAULT_255_2_778
10
17.4313246
20
3.0839745
11
17.4313246
21
4.8071745
0
LINE
8
DEFAULT_255_2_778
10
15.7827246
20
4.8068745
11
15.7827246
21
3.0836745
0
LINE
8
DEFAULT_255_2_778
10
15.2890246
20
3.0836745
11
15.2890246
21
5.7800745
0
LINE
8
DEFAULT_255_2_778
10
15.7827246
20
5.7800745
11
15.7827246
21
5.7196745
0
LINE
8
DEFAULT_255_2_778
10
17.9248246
20
4.8915745
11
17.9250246
21
3.0839745
0
LINE
8
DEFAULT_255_2_778
10
19.6234246
20
3.0516745
11
18.6878246
21
5.7376745
0
LINE
8
DEFAULT_255_2_778
10
19.1350246
20
5.8861745
11
19.9446246
21
3.4757745
0
LINE
8
DEFAULT_255_2_778
10
19.9446246
20
3.4757745
11
20.7542246
21
5.8861745
0
LINE
8
DEFAULT_255_2_778
10
21.2014246
20
5.7376745
11
20.2666246
21
3.0516745
0
LINE
8
DEFAULT_255_2_778
10
24.1144246
20
4.1480745
11
24.1242246
21
4.4385745
0
LINE
8
DEFAULT_255_2_778
10
24.1242246
20
4.4385745
11
24.1142246
21
4.7269745
0
LINE
8
DEFAULT_255_2_778
10
22.3949246
20
4.7269745
11
22.3851246
21
4.4385745
0
LINE
8
DEFAULT_255_2_778
10
22.3851246
20
4.4385745
11
22.3952246
21
4.1483745
0
LINE
8
DEFAULT_255_2_778
10
23.2548246
20
3.1762745
11
23.2548246
21
3.1759745
0
LINE
8
DEFAULT_255_2_778
10
24.5859246
20
4.8068745
11
24.6013246
21
4.4385745
0
LINE
8
DEFAULT_255_2_778
10
24.6013246
20
4.4385745
11
24.5862246
21
4.0694745
0
LINE
8
DEFAULT_255_2_778
10
21.9240246
20
4.0694745
11
21.9083246
21
4.4385745
0
LINE
8
DEFAULT_255_2_778
10
21.9083246
20
4.4385745
11
21.9234246
21
4.8076745
0
LINE
8
DEFAULT_255_2_778
10
23.7927246
20
6.0202745
11
23.7930246
21
6.0194745
0
LINE
8
DEFAULT_255_2_778
10
27.8215246
20
5.7363745
11
26.5118246
21
1.9761745
0
LINE
8
DEFAULT_255_2_778
10
26.1155246
20
2.1980745
11
26.3258246
21
2.8251745
0
LINE
8
DEFAULT_255_2_778
10
26.3258246
20
2.8251745
11
25.3045246
21
5.7355745
0
LINE
8
DEFAULT_255_2_778
10
25.7522246
20
5.8845745
11
26.5597246
21
3.4326745
0
LINE
8
DEFAULT_255_2_778
10
26.5597246
20
3.4326745
11
27.3739246
21
5.8853745
0
ENDSEC
0
EOF