0
SECTION
2
HEADER
9
$MEASUREMENT
70
1
0
ENDSEC
0
SECTION
2
TABLES
0
TABLE
2
LTYPE
0
LTYPE
72
65
70
64
2
CONTINUOUS
3
______
73
0
40
0
0
ENDTAB
0
TABLE
2
LAYER
0
LAYER
2
DEFAULT_255_2_778
70
0
62
255
6
CONTINUOUS
0
ENDTAB
0
ENDSEC
0
SECTION
2
ENTITIES
0
ARC
8
DEFAULT_255_2_778
10
1.7031717
20
6.4795794
40
0.0794251
50
270.2342861
51
359.8381028
0
ARC
8
DEFAULT_255_2_778
10
2.6427753
20
7.3313263
40
0.8694654
50
179.9992383
51
180.8086738
0
ARC
8
DEFAULT_255_2_778
10
2.6420737
20
7.3315047
40
0.8687638
50
154.2778211
51
180.0110064
0
ARC
8
DEFAULT_255_2_778
10
1.888922
20
7.74169
40
0.0163663
50
101.0093386
51
122.7711345
0
ARC
8
DEFAULT_255_2_778
10
1.8896338
20
7.740569
40
0.0176941
50
122.7446344
51
135.1174791
0
ARC
8
DEFAULT_255_2_778
10
0.4266233
20
6.2456694
40
0.0490112
50
134.9513516
51
136.417887
0
ARC
8
DEFAULT_255_2_778
10
0.4008634
20
6.2687783
40
0.014456
50
132.3761406
51
168.5216061
0
ARC
8
DEFAULT_255_2_778
10
0.8831641
20
5.3444707
40
1.0523083
50
95.9936653
51
113.396771
0
ARC
8
DEFAULT_255_2_778
10
0.9374791
20
4.9197577
40
1.4804028
50
89.8445138
51
96.367931
0
ARC
8
DEFAULT_255_2_778
10
6.0368726
20
6.4086611
40
0.8601418
50
10.1712998
51
25.7246641
0
ARC
8
DEFAULT_255_2_778
10
6.2095637
20
6.4913324
40
0.668683
50
25.7656447
51
46.9383762
0
ARC
8
DEFAULT_255_2_778
10
6.2422224
20
6.5229128
40
0.6233152
50
47.1496563
51
63.5372029
0
ARC
8
DEFAULT_255_2_778
10
6.2461775
20
6.5307155
40
0.6145676
50
63.5431381
51
70.1463161
0
ARC
8
DEFAULT_255_2_778
10
6.0564601
20
5.9993139
40
1.1788177
50
70.2451331
51
72.7106516
0
ARC
8
DEFAULT_255_2_778
10
5.8899395
20
5.4665866
40
1.736964
50
72.6885068
51
74.5806443
0
ARC
8
DEFAULT_255_2_778
10
5.5405804
20
4.1626777
40
3.0868435
50
74.7644289
51
78.1827488
0
ARC
8
DEFAULT_255_2_778
10
4.957909
20
1.4125579
40
5.8980067
50
78.1135528
51
80.4877062
0
ARC
8
DEFAULT_255_2_778
10
4.3997568
20
-1.8679131
40
9.2256154
50
80.435851
51
82.0062411
0
ARC
8
DEFAULT_255_2_778
10
3.9556664
20
-5.0077515
40
12.3967027
50
81.9917614
51
83.2907037
0
ARC
8
DEFAULT_255_2_778
10
4.8060594
20
2.0941221
40
5.2441329
50
83.4528849
51
87.0429236
0
ARC
8
DEFAULT_255_2_778
10
4.6529304
20
-0.7116983
40
8.0541209
50
86.9847393
51
89.4302171
0
ARC
8
DEFAULT_255_2_778
10
4.6252408
20
-2.4791266
40
9.8217422
50
89.3712273
51
90.0036757
0
ARC
8
DEFAULT_255_2_778
10
4.6258273
20
-3.29362
40
10.6362358
50
90.0065536
51
90.9176948
0
ARC
8
DEFAULT_255_2_778
10
4.6321697
20
-3.7411547
40
11.0838145
50
90.913424
51
91.5733521
0
ARC
8
DEFAULT_255_2_778
10
4.6300253
20
-3.6630039
40
11.0056344
50
91.5733634
51
91.7741314
0
ARC
8
DEFAULT_255_2_778
10
3.6098099
20
7.2325321
40
0.6875245
50
8.7697619
51
53.2875939
0
ARC
8
DEFAULT_255_2_778
10
3.7376574
20
7.3920784
40
0.4832502
50
54.1308422
51
67.9730919
0
ARC
8
DEFAULT_255_2_778
10
3.3426523
20
6.3807829
40
1.5689272
50
68.4516944
51
77.1831905
0
ARC
8
DEFAULT_255_2_778
10
3.1500464
20
5.5483484
40
2.4233497
50
77.1088509
51
83.8320745
0
ARC
8
DEFAULT_255_2_778
10
3.0537899
20
4.7143782
40
3.26284
50
83.7250423
51
88.4558684
0
ARC
8
DEFAULT_255_2_778
10
3.041241
20
4.3975728
40
3.5798708
50
88.3917308
51
90.0017908
0
ARC
8
DEFAULT_255_2_778
10
3.0399778
20
4.482751
40
3.4946929
50
89.9811235
51
93.0068952
0
ARC
8
DEFAULT_255_2_778
10
3.0047908
20
5.1219888
40
2.8544898
50
92.9746462
51
95.7913712
0
ARC
8
DEFAULT_255_2_778
10
2.9014472
20
6.1241244
40
1.8470421
50
95.7388185
51
98.9288371
0
ARC
8
DEFAULT_255_2_778
10
2.7481804
20
7.0847231
40
0.8742988
50
98.7769763
51
103.4721445
0
ARC
8
DEFAULT_255_2_778
10
2.6497339
20
7.5087187
40
0.4390453
50
103.8691065
51
105.568756
0
ARC
8
DEFAULT_255_2_778
10
2.7895645
20
7.0112674
40
0.9557751
50
105.6399068
51
110.686889
0
ARC
8
DEFAULT_255_2_778
10
2.6767684
20
7.2467744
40
0.6959643
50
108.8483905
51
142.1667332
0
ARC
8
DEFAULT_255_2_778
10
2.5709929
20
7.3643113
40
0.5410523
50
145.1280209
51
170.548315
0
ARC
8
DEFAULT_255_2_778
10
2.8029567
20
7.3199873
40
0.7771659
50
170.1332415
51
180.2235558
0
ARC
8
DEFAULT_255_2_778
10
1.7335647
20
6.4793874
40
0.3017325
50
270.0630164
51
359.8799256
0
ARC
8
DEFAULT_255_2_778
10
0.9579375
20
5.0306302
40
1.1470583
50
89.5624804
51
100.459042
0
ARC
8
DEFAULT_255_2_778
10
0.8827397
20
5.43803
40
0.7327766
50
100.4596676
51
114.0767208
0
ARC
8
DEFAULT_255_2_778
10
0.7980303
20
5.6182336
40
0.5337064
50
113.6662007
51
143.4117073
0
ARC
8
DEFAULT_255_2_778
10
1.0020165
20
5.5264817
40
0.7537092
50
147.0567404
51
184.2412878
0
ARC
8
DEFAULT_255_2_778
10
2.5095621
20
5.470826
40
2.2591907
50
180.0021867
51
180.2706299
0
ARC
8
DEFAULT_255_2_778
10
1.3257039
20
5.4788793
40
1.0754704
50
180.9975859
51
182.3992879
0
ARC
8
DEFAULT_255_2_778
10
3.029867
20
5.5459424
40
2.7809506
50
182.3099247
51
183.7941244
0
ARC
8
DEFAULT_255_2_778
10
4.7693481
20
5.6602286
40
4.5241818
50
183.7805923
51
185.4154512
0
ARC
8
DEFAULT_255_2_778
10
6.5228797
20
5.8251809
40
6.2854545
50
185.4038135
51
187.0591882
0
ARC
8
DEFAULT_255_2_778
10
7.6190872
20
5.9561273
40
7.3894464
50
187.0222482
51
187.0744174
0
ARC
8
DEFAULT_255_2_778
10
5.0363189
20
5.6900128
40
4.7938705
50
187.7198445
51
188.3419806
0
ARC
8
DEFAULT_255_2_778
10
11.7834947
20
6.6724637
40
11.6121968
50
188.3082711
51
188.6960601
0
ARC
8
DEFAULT_255_2_778
10
17.4744351
20
7.5397863
40
17.3688491
50
188.6859085
51
188.9744481
0
ARC
8
DEFAULT_255_2_778
10
21.3971018
20
8.1591246
40
21.3401077
50
188.9740293
51
189.3433369
0
ARC
8
DEFAULT_255_2_778
10
23.2726356
20
8.4666459
40
23.2406854
50
189.3407437
51
189.7671927
0
ARC
8
DEFAULT_255_2_778
10
22.4145982
20
8.3166552
40
22.36964
50
189.7614178
51
190.4629489
0
ARC
8
DEFAULT_255_2_778
10
18.5007009
20
7.5892716
40
18.3887288
50
190.4488447
51
191.490082
0
ARC
8
DEFAULT_255_2_778
10
12.4393362
20
6.3460885
40
12.2012035
50
191.439107
51
193.3388595
0
ARC
8
DEFAULT_255_2_778
10
7.5350595
20
5.1870584
40
7.1618329
50
193.3684747
51
195.2266527
0
ARC
8
DEFAULT_255_2_778
10
4.7796707
20
4.4361602
40
4.3059591
50
195.2151091
51
197.5346556
0
ARC
8
DEFAULT_255_2_778
10
3.012507
20
3.8761939
40
2.4521993
50
197.4988669
51
200.6770375
0
ARC
8
DEFAULT_255_2_778
10
2.3060544
20
3.6149106
40
1.6990007
50
200.8454991
51
201.4831804
0
ARC
8
DEFAULT_255_2_778
10
2.0678903
20
3.5206674
40
1.4428684
50
201.4643882
51
202.8746144
0
ARC
8
DEFAULT_255_2_778
10
1.7883829
20
3.4025598
40
1.139432
50
202.8660467
51
204.608339
0
ARC
8
DEFAULT_255_2_778
10
1.594098
20
3.3139748
40
0.9259051
50
204.6308277
51
205.8437945
0
ARC
8
DEFAULT_255_2_778
10
2.5233873
20
3.7604668
40
1.9568894
50
205.7483889
51
207.8117908
0
ARC
8
DEFAULT_255_2_778
10
1.7837511
20
3.3721161
40
1.1215012
50
207.8935694
51
209.8426634
0
ARC
8
DEFAULT_255_2_778
10
1.2331557
20
3.0359015
40
0.4769367
50
207.722592
51
243.9766094
0
ARC
8
DEFAULT_255_2_778
10
1.4458569
20
3.4097697
40
0.9066258
50
242.263327
51
243.9719294
0
ARC
8
DEFAULT_255_2_778
10
1.5250639
20
3.5713765
40
1.0865993
50
243.9582824
51
245.0784807
0
ARC
8
DEFAULT_255_2_778
10
1.732062
20
4.1428486
40
1.6929158
50
246.875278
51
248.8441383
0
ARC
8
DEFAULT_255_2_778
10
1.9785386
20
4.7796314
40
2.3757356
50
248.8430372
51
250.6027342
0
ARC
8
DEFAULT_255_2_778
10
2.1885529
20
5.3699413
40
3.0022885
50
250.5637614
51
251.2356265
0
ARC
8
DEFAULT_255_2_778
10
2.5379208
20
6.4172732
40
4.1063422
50
251.3207923
51
253.4873367
0
ARC
8
DEFAULT_255_2_778
10
3.2174385
20
8.7101445
40
6.4977859
50
253.489137
51
255.4753636
0
ARC
8
DEFAULT_255_2_778
10
3.9863133
20
11.6710292
40
9.5568715
50
255.4650362
51
257.3128402
0
ARC
8
DEFAULT_255_2_778
10
4.3888875
20
13.4289751
40
11.3603134
50
257.2792934
51
258.9779132
0
ARC
8
DEFAULT_255_2_778
10
4.0993527
20
11.9245207
40
9.8282562
50
258.9578662
51
260.268404
0
ARC
8
DEFAULT_255_2_778
10
3.5910154
20
8.9530895
40
6.813657
50
260.2579169
51
261.5863071
0
ARC
8
DEFAULT_255_2_778
10
3.2335478
20
6.547836
40
4.3819861
50
261.608338
51
262.680807
0
ARC
8
DEFAULT_255_2_778
10
2.200244
20
-1.4952139
40
3.7271672
50
81.6173291
51
82.6773498
0
ARC
8
DEFAULT_255_2_778
10
1.8826829
20
-3.6471868
40
5.9024447
50
80.9718943
51
81.6130032
0
ARC
8
DEFAULT_255_2_778
10
1.4224948
20
-6.5773605
40
8.8685317
50
80.9869631
51
81.0062178
0
ARC
8
DEFAULT_255_2_778
10
-3.5895721
20
-38.1568645
40
40.8433014
50
80.9786687
51
80.9828082
0
ARC
8
DEFAULT_255_2_778
10
5.5237299
20
18.8248704
40
16.8626848
50
260.7553965
51
261.2084913
0
ARC
8
DEFAULT_255_2_778
10
3.2162174
20
3.8644162
40
1.7253326
50
261.0044276
51
265.4869704
0
ARC
8
DEFAULT_255_2_778
10
3.1382755
20
2.9420922
40
0.7997519
50
265.8542418
51
269.8578578
0
ARC
8
DEFAULT_255_2_778
10
3.159577
20
2.4610641
40
0.3195709
50
265.8214356
51
316.6011762
0
ARC
8
DEFAULT_255_2_778
10
3.0614304
20
2.535171
40
0.442009
50
318.3628767
51
334.031213
0
ARC
8
DEFAULT_255_2_778
10
2.8927317
20
2.6268788
40
0.6338898
50
333.2558196
51
334.5473332
0
ARC
8
DEFAULT_255_2_778
10
0.8737444
20
3.4196737
40
2.8015354
50
341.7719818
51
349.8556436
0
ARC
8
DEFAULT_255_2_778
10
0.623046
20
3.4631105
40
3.0559655
50
349.8818437
51
356.0234133
0
ARC
8
DEFAULT_255_2_778
10
-0.15062
20
3.5141946
40
3.8313123
50
356.0636677
51
0.0533077
0
ARC
8
DEFAULT_255_2_778
10
-1.2734191
20
3.5253408
40
4.9541157
50
359.9123164
51
0.0013209
0
ARC
8
DEFAULT_255_2_778
10
3.6991601
20
3.5264286
40
0.0184893
50
89.732309
51
183.0183069
0
ARC
8
DEFAULT_255_2_778
10
3.699556
20
3.5231938
40
0.021726
50
90.0388915
51
90.8162651
0
ARC
8
DEFAULT_255_2_778
10
3.6998493
20
3.5269156
40
0.0180067
50
355.3473609
51
90.9800381
0
ARC
8
DEFAULT_255_2_778
10
1.4005627
20
3.5272774
40
2.3172345
50
359.5152991
51
359.9549393
0
ARC
8
DEFAULT_255_2_778
10
-11.0996631
20
3.6297894
40
14.8178807
50
359.4495655
51
359.5278181
0
ARC
8
DEFAULT_255_2_778
10
11.3449515
20
3.4150265
40
7.6277614
50
179.4560758
51
179.625299
0
ARC
8
DEFAULT_255_2_778
10
7.6415756
20
3.4394988
40
3.9243047
50
179.6289888
51
179.9889342
0
ARC
8
DEFAULT_255_2_778
10
6.1872876
20
3.4366218
40
2.4700192
50
179.915684
51
182.1249158
0
ARC
8
DEFAULT_255_2_778
10
5.4833598
20
3.4093622
40
1.7655652
50
182.0879046
51
186.6837592
0
ARC
8
DEFAULT_255_2_778
10
5.0256718
20
3.3544389
40
1.304596
50
186.6275432
51
193.710826
0
ARC
8
DEFAULT_255_2_778
10
4.4609146
20
3.1906472
40
0.7175547
50
191.6930628
51
227.5945648
0
ARC
8
DEFAULT_255_2_778
10
4.3390468
20
3.0901749
40
0.5616227
50
229.8630579
51
250.453434
0
ARC
8
DEFAULT_255_2_778
10
4.3619905
20
3.1453131
40
0.6212677
50
250.1607427
51
250.4793982
0
ARC
8
DEFAULT_255_2_778
10
4.6247759
20
3.9330446
40
1.4516132
50
251.0926324
51
257.1910696
0
ARC
8
DEFAULT_255_2_778
10
5.182497
20
6.3148177
40
3.8977946
50
256.9587901
51
260.2382073
0
ARC
8
DEFAULT_255_2_778
10
6.0450544
20
11.3018699
40
8.9588899
50
260.2094137
51
262.5479318
0
ARC
8
DEFAULT_255_2_778
10
6.9300789
20
17.837802
40
15.5544313
50
262.4379395
51
263.3076573
0
ARC
8
DEFAULT_255_2_778
10
5.1069772
20
1.8191188
40
0.5703314
50
40.7587489
51
88.9532085
0
ARC
8
DEFAULT_255_2_778
10
5.0194727
20
1.7978275
40
0.6518044
50
19.3876727
51
37.1521468
0
ARC
8
DEFAULT_255_2_778
10
4.4847568
20
1.6015814
40
1.221368
50
9.8228878
51
19.7448821
0
ARC
8
DEFAULT_255_2_778
10
3.5244338
20
1.4271339
40
2.1973886
50
4.0543846
51
10.0329416
0
ARC
8
DEFAULT_255_2_778
10
2.0018758
20
1.3143627
40
3.7241126
50
359.9455207
51
4.128835
0
ARC
8
DEFAULT_255_2_778
10
0.8738215
20
1.3011696
40
4.8521749
50
359.9998281
51
0.113974
0
ARC
8
DEFAULT_255_2_778
10
3.4760148
20
1.2839558
40
2.2500474
50
355.1638926
51
0.437969
0
ARC
8
DEFAULT_255_2_778
10
4.9587097
20
1.1507283
40
0.7614385
50
342.3871076
51
355.7473201
0
ARC
8
DEFAULT_255_2_778
10
5.3868565
20
1.0133529
40
0.3117975
50
278.5325882
51
342.6416392
0
ARC
8
DEFAULT_255_2_778
10
5.1880826
20
1.7908942
40
1.1131915
50
273.1138014
51
282.7160925
0
ARC
8
DEFAULT_255_2_778
10
5.0388197
20
4.0551789
40
3.3823413
50
269.9756622
51
273.5550515
0
ARC
8
DEFAULT_255_2_778
10
5.0036365
20
7.5314586
40
6.8587037
50
269.9954892
51
270.2819106
0
ARC
8
DEFAULT_255_2_778
10
5.0091462
20
-51.3419148
40
52.0146702
50
90.0066639
51
90.053825
0
ARC
8
DEFAULT_255_2_778
10
6.1067276
20
-1294.4285728
40
1295.1018127
50
90.0507192
51
90.0507791
0
ARC
8
DEFAULT_255_2_778
10
4.9078054
20
54.2168792
40
53.5441722
50
270.0099356
51
270.0547043
0
LINE
8
DEFAULT_255_2_778
10
4.9170904
20
0.6727078
11
4.9164393
21
0.6727078
0
ARC
8
DEFAULT_255_2_778
10
4.8845886
20
5.4044294
40
4.7318288
50
267.8951578
51
270.3856703
0
ARC
8
DEFAULT_255_2_778
10
4.7369665
20
1.6397104
40
0.9642723
50
258.4095378
51
268.4448645
0
ARC
8
DEFAULT_255_2_778
10
4.5738151
20
0.9307295
40
0.2376056
50
192.1723286
51
262.6042043
0
ARC
8
DEFAULT_255_2_778
10
4.9542969
20
1.0284979
40
0.6303348
50
180.2222467
51
193.5672595
0
ARC
8
DEFAULT_255_2_778
10
5.4596181
20
1.0508387
40
1.1359216
50
179.9840445
51
181.2502929
0
ARC
8
DEFAULT_255_2_778
10
4.6454442
20
1.0592549
40
0.3218496
50
157.9593015
51
181.442101
0
ARC
8
DEFAULT_255_2_778
10
4.584914
20
1.0585142
40
0.2670483
50
92.2110062
51
152.9320099
0
ARC
8
DEFAULT_255_2_778
10
4.7169491
20
0.2904931
40
1.0446133
50
89.9125855
51
97.8314177
0
ARC
8
DEFAULT_255_2_778
10
4.7423369
20
-1.0299615
40
2.3651865
50
89.9843039
51
90.5764132
0
ARC
8
DEFAULT_255_2_778
10
4.7329809
20
-4.1151497
40
5.4503838
50
89.2284383
51
89.8948353
0
ARC
8
DEFAULT_255_2_778
10
4.8792229
20
6.6684547
40
5.3342123
50
269.2175038
51
269.8761929
0
ARC
8
DEFAULT_255_2_778
10
4.8723762
20
1.424422
40
0.0902884
50
267.028973
51
290.9795619
0
ARC
8
DEFAULT_255_2_778
10
4.8897036
20
1.3706716
40
0.0340356
50
296.14764
51
8.4335239
0
ARC
8
DEFAULT_255_2_778
10
4.6964626
20
1.3686929
40
0.2270156
50
1.7595084
51
11.2786804
0
ARC
8
DEFAULT_255_2_778
10
-27.5520999
20
-4.6215957
40
33.0271994
50
10.5281595
51
10.6171303
0
ARC
8
DEFAULT_255_2_778
10
5.7968761
20
1.6263938
40
0.902021
50
186.0038846
51
190.4034745
0
ARC
8
DEFAULT_255_2_778
10
5.6194614
20
1.60616
40
0.7234648
50
180.016231
51
185.8798654
0
ARC
8
DEFAULT_255_2_778
10
5.3983022
20
1.6039062
40
0.5023099
50
167.5277433
51
179.7663058
0
ARC
8
DEFAULT_255_2_778
10
5.6451695
20
1.550389
40
0.75491
50
162.8219458
51
167.6082627
0
ARC
8
DEFAULT_255_2_778
10
-14.4343228
20
7.9085065
40
20.3071992
50
342.4151689
51
342.5954423
0
ARC
8
DEFAULT_255_2_778
10
4.7754601
20
1.8906827
40
0.176913
50
341.4100667
51
355.594427
0
ARC
8
DEFAULT_255_2_778
10
4.8872931
20
1.8788165
40
0.0645803
50
358.4706948
51
359.9845299
0
ARC
8
DEFAULT_255_2_778
10
4.9198171
20
1.8811305
40
0.0321409
50
355.8401936
51
90.6158141
0
ARC
8
DEFAULT_255_2_778
10
4.9004216
20
1.7934624
40
0.1213122
50
80.9652407
51
88.9727219
0
ARC
8
DEFAULT_255_2_778
10
4.4734371
20
-13.4125044
40
15.3332664
50
88.3961517
51
88.8641724
0
ARC
8
DEFAULT_255_2_778
10
4.6307559
20
-5.4456811
40
7.3648899
50
88.8592279
51
89.7811287
0
ARC
8
DEFAULT_255_2_778
10
4.6422678
20
-3.5623649
40
5.4815452
50
89.8262575
51
89.9982923
0
ARC
8
DEFAULT_255_2_778
10
4.6171862
20
-0.9477016
40
2.866993
50
89.4954821
51
95.5595786
0
ARC
8
DEFAULT_255_2_778
10
4.4385066
20
0.806859
40
1.1034031
50
95.1516452
51
109.6946662
0
ARC
8
DEFAULT_255_2_778
10
4.2570902
20
1.3085003
40
0.5699708
50
109.5190592
51
155.1753684
0
ARC
8
DEFAULT_255_2_778
10
4.5886457
20
1.1474328
40
0.9385386
50
154.7490423
51
168.241907
0
ARC
8
DEFAULT_255_2_778
10
5.2838447
20
0.996188
40
1.6499831
50
168.0195449
51
176.2124813
0
ARC
8
DEFAULT_255_2_778
10
6.2697483
20
0.9204295
40
2.6387584
50
175.9851944
51
180.1275534
0
ARC
8
DEFAULT_255_2_778
10
6.1536162
20
0.8994764
40
2.5226647
50
179.6575254
51
186.0553371
0
ARC
8
DEFAULT_255_2_778
10
4.9052342
20
0.7611138
40
1.2666662
50
185.7884564
51
197.6212126
0
ARC
8
DEFAULT_255_2_778
10
4.3091581
20
0.5580511
40
0.6372216
50
196.4442371
51
248.3112897
0
ARC
8
DEFAULT_255_2_778
10
4.5497171
20
1.1081373
40
1.2374321
50
247.3742393
51
259.3970053
0
ARC
8
DEFAULT_255_2_778
10
4.7949259
20
2.3546919
40
2.5078489
50
259.1307819
51
265.5557491
0
ARC
8
DEFAULT_255_2_778
10
5.0049763
20
4.8916078
40
5.0534297
50
265.410219
51
268.8708433
0
ARC
8
DEFAULT_255_2_778
10
5.1050715
20
8.8685563
40
9.0316044
50
268.7331475
51
270.0483723
0
ARC
8
DEFAULT_255_2_778
10
5.1519761
20
10.7670745
40
10.93019
50
269.7940971
51
271.2824719
0
ARC
8
DEFAULT_255_2_778
10
5.3431925
20
2.7563936
40
2.9172602
50
271.0491933
51
276.6339734
0
ARC
8
DEFAULT_255_2_778
10
5.5613477
20
0.9755875
40
1.1232286
50
276.074649
51
292.1841741
0
ARC
8
DEFAULT_255_2_778
10
5.6748961
20
0.6575132
40
0.7859679
50
293.2745855
51
320.2595217
0
ARC
8
DEFAULT_255_2_778
10
5.2926842
20
0.9839322
40
1.2885695
50
319.9639666
51
330.9158314
0
ARC
8
DEFAULT_255_2_778
10
4.419072
20
1.4793449
40
2.2928572
50
330.7087532
51
336.8903453
0
ARC
8
DEFAULT_255_2_778
10
3.1712826
20
2.0255798
40
3.6549331
50
336.6919615
51
339.3851346
0
ARC
8
DEFAULT_255_2_778
10
2.2187063
20
2.3899291
40
4.6747993
50
339.3161074
51
340.1371567
0
ARC
8
DEFAULT_255_2_778
10
1.5584494
20
2.6283037
40
5.3767692
50
340.1386683
51
340.9761177
0
ARC
8
DEFAULT_255_2_778
10
0.8095391
20
2.8869553
40
6.1690868
50
340.9723263
51
341.6055594
0
ARC
8
DEFAULT_255_2_778
10
0.032197
20
3.1455096
40
6.9883003
50
341.6051644
51
342.1848098
0
ARC
8
DEFAULT_255_2_778
10
4.0466946
20
1.8531079
40
2.7708982
50
342.2303513
51
344.0490949
0
ARC
8
DEFAULT_255_2_778
10
2.4148117
20
2.3230115
40
4.4690867
50
344.0061771
51
345.3522507
0
ARC
8
DEFAULT_255_2_778
10
0.7896904
20
2.7484208
40
6.1489652
50
345.3463878
51
346.659576
0
ARC
8
DEFAULT_255_2_778
10
-0.6603428
20
3.0944783
40
7.6397195
50
346.6434944
51
347.5746994
0
ARC
8
DEFAULT_255_2_778
10
-2.1222297
20
3.4152713
40
9.1363893
50
347.5826642
51
348.8449005
0
ARC
8
DEFAULT_255_2_778
10
-3.784385
20
3.7436507
40
10.8306716
50
348.8416966
51
350.0599044
0
ARC
8
DEFAULT_255_2_778
10
-4.6849182
20
3.9045704
40
11.7454647
50
350.0449995
51
350.2176158
0
ARC
8
DEFAULT_255_2_778
10
-5.4996766
20
4.0431591
40
12.571924
50
350.2260889
51
351.2257695
0
ARC
8
DEFAULT_255_2_778
10
-6.76404
20
4.2388747
40
13.8513453
50
351.2234635
51
352.1077985
0
ARC
8
DEFAULT_255_2_778
10
-8.0186089
20
4.4124934
40
15.1178708
50
352.1088989
51
353.097067
0
ARC
8
DEFAULT_255_2_778
10
-9.2313927
20
4.5600452
40
16.3395972
50
353.0945403
51
353.9138116
0
ARC
8
DEFAULT_255_2_778
10
-10.3291664
20
4.677181
40
17.4436025
50
353.913533
51
354.7298523
0
ARC
8
DEFAULT_255_2_778
10
4.228244
20
3.3334865
40
2.8243101
50
354.7479121
51
355.8611463
0
ARC
8
DEFAULT_255_2_778
10
3.1498623
20
3.4109265
40
3.9054687
50
355.869844
51
357.03073
0
ARC
8
DEFAULT_255_2_778
10
1.5997237
20
3.4916989
40
5.4577105
50
357.0268853
51
358.0163483
0
ARC
8
DEFAULT_255_2_778
10
-0.4466784
20
3.5627498
40
7.5053456
50
358.0150241
51
358.8989335
0
ARC
8
DEFAULT_255_2_778
10
-2.7564118
20
3.6089032
40
9.8155397
50
358.8886545
51
359.4938537
0
ARC
8
DEFAULT_255_2_778
10
-5.0880128
20
3.6299934
40
12.1472359
50
359.4915306
51
0.0084346
0
ARC
8
DEFAULT_255_2_778
10
-8.4594744
20
3.6269887
40
15.5186981
50
0.0176958
51
0.7317878
0
ARC
8
DEFAULT_255_2_778
10
-13.1090952
20
3.5684569
40
20.1686873
50
0.7293536
51
1.3626333
0
ARC
8
DEFAULT_255_2_778
10
-18.5652382
20
3.4377434
40
25.6263957
50
1.3647091
51
2.0534116
0
ARC
8
DEFAULT_255_2_778
10
-24.2033457
20
3.2361491
40
31.2681061
50
2.0523949
51
2.803787
0
ARC
8
DEFAULT_255_2_778
10
-26.7465509
20
3.1160325
40
33.8141426
50
2.7962805
51
3.5291025
0
ARC
8
DEFAULT_255_2_778
10
-24.3138244
20
3.2681133
40
31.376668
50
3.5253688
51
4.0963846
0
ARC
8
DEFAULT_255_2_778
10
-19.7600914
20
3.5940717
40
26.8112839
50
4.0967437
51
4.571936
0
ARC
8
DEFAULT_255_2_778
10
-14.2539587
20
4.0368744
40
21.2873754
50
4.5652175
51
5.1919991
0
ARC
8
DEFAULT_255_2_778
10
-8.5453148
20
4.555796
40
15.5551949
50
5.1912725
51
5.8418476
0
ARC
8
DEFAULT_255_2_778
10
-3.648434
20
5.0586064
40
10.632568
50
5.832254
51
6.6820944
0
ARC
8
DEFAULT_255_2_778
10
-0.4177604
20
5.4345173
40
7.3800995
50
6.7020072
51
7.2818091
0
ARC
8
DEFAULT_255_2_778
10
1.3271575
20
5.6572938
40
5.6210181
50
7.2837256
51
7.856509
0
ARC
8
DEFAULT_255_2_778
10
2.7623364
20
5.8559376
40
4.1721573
50
7.8482591
51
8.6414567
0
ARC
8
DEFAULT_255_2_778
10
3.9244359
20
6.032425
40
2.9967328
50
8.6437963
51
9.475425
0
ARC
8
DEFAULT_255_2_778
10
4.7926628
20
6.177609
40
2.1164509
50
9.4680694
51
10.5262528
0
ARC
8
DEFAULT_255_2_778
10
5.2705397
20
2.5090485
40
1.6174144
50
87.8791294
51
88.6788573
0
ARC
8
DEFAULT_255_2_778
10
5.2705216
20
2.5083811
40
1.6180823
50
88.6787609
51
89.9995638
0
ARC
8
DEFAULT_255_2_778
10
5.2705824
20
2.5076606
40
1.6188026
50
90.0017157
51
99.0626929
0
ARC
8
DEFAULT_255_2_778
10
6.1286149
20
3.9715114
40
1.1211448
50
167.7288191
51
173.0972804
0
ARC
8
DEFAULT_255_2_778
10
5.49461
20
4.1514125
40
0.4652033
50
117.7339627
51
172.7900164
0
ARC
8
DEFAULT_255_2_778
10
5.4376984
20
4.1770651
40
0.4177845
50
89.0488478
51
112.4553754
0
ARC
8
DEFAULT_255_2_778
10
5.4445198
20
4.031821
40
0.562971
50
88.0173795
51
89.9884104
0
ARC
8
DEFAULT_255_2_778
10
5.4554913
20
4.1498432
40
0.4446931
50
67.8265031
51
88.9040925
0
ARC
8
DEFAULT_255_2_778
10
5.4383309
20
4.1820806
40
0.4222497
50
7.5135568
51
64.0164459
0
ARC
8
DEFAULT_255_2_778
10
5.0205037
20
4.0571878
40
0.8556221
50
9.2640567
51
12.1515209
0
ARC
8
DEFAULT_255_2_778
10
4.7189457
20
4.0141253
40
1.1601949
50
1.2639293
51
8.9655084
0
ARC
8
DEFAULT_255_2_778
10
4.3139705
20
3.9978119
40
1.5654489
50
0.3090215
51
1.5339116
0
ARC
8
DEFAULT_255_2_778
10
5.3262671
20
2.7349348
40
1.3864369
50
66.4869758
51
81.2615221
0
ARC
8
DEFAULT_255_2_778
10
5.270252
20
2.4340804
40
1.6923367
50
80.9345516
51
87.9700946
0
LINE
8
DEFAULT_255_2_778
10
0.9361965
20
6.400155
11
1.7034965
21
6.400155
0
LINE
8
DEFAULT_255_2_778
10
1.7825965
20
6.479355
11
1.7733965
21
7.319055
0
LINE
8
DEFAULT_255_2_778
10
1.8593965
20
7.708555
11
1.8857965
21
7.757755
0
LINE
8
DEFAULT_255_2_778
10
1.8770965
20
7.753055
11
0.3919965
21
6.280355
0
LINE
8
DEFAULT_255_2_778
10
0.3866965
20
6.271655
11
0.4652965
21
6.310255
0
LINE
8
DEFAULT_255_2_778
10
0.9414965
20
6.400155
11
0.9361965
21
6.400155
0
LINE
8
DEFAULT_255_2_778
10
2.0257965
20
7.316955
11
2.0304965
21
6.833355
0
LINE
8
DEFAULT_255_2_778
10
2.0304965
20
6.833355
11
2.0352965
21
6.478755
0
LINE
8
DEFAULT_255_2_778
10
1.7338965
20
6.177655
11
0.9666965
21
6.177655
0
LINE
8
DEFAULT_255_2_778
10
3.4650965
20
2.354455
11
3.5346965
21
2.543355
0
LINE
8
DEFAULT_255_2_778
10
6.8734965
20
6.564255
11
6.8834965
21
6.560555
0
LINE
8
DEFAULT_255_2_778
10
5.3301965
20
4.125355
11
5.3303965
21
4.125355
0
ARC
8
DEFAULT_255_2_778
10
17.439913
20
3.9495504
40
1.2912454
50
79.0660012
51
90.4122592
0
ARC
8
DEFAULT_255_2_778
10
17.5296858
20
4.4002784
40
0.831676
50
62.0182337
51
79.2485507
0
ARC
8
DEFAULT_255_2_778
10
17.6370946
20
4.6026727
40
0.6025471
50
31.327293
51
62.0078639
0
ARC
8
DEFAULT_255_2_778
10
17.5347681
20
4.5564762
40
0.7141064
50
0.8011975
51
30.2247507
0
ARC
8
DEFAULT_255_2_778
10
17.3604981
20
4.5392267
40
0.888724
50
359.9958579
51
1.7561027
0
ARC
8
DEFAULT_255_2_778
10
17.6116996
20
4.512226
40
0.6380914
50
310.9002237
51
2.4194064
0
ARC
8
DEFAULT_255_2_778
10
17.4868372
20
4.6766223
40
0.8442074
50
293.0111921
51
310.0002365
0
ARC
8
DEFAULT_255_2_778
10
17.296657
20
5.1036229
40
1.3115996
50
284.3000642
51
293.3662618
0
ARC
8
DEFAULT_255_2_778
10
17.0648393
20
1.7956233
40
2.1020451
50
74.3922885
51
74.6686339
0
ARC
8
DEFAULT_255_2_778
10
17.3783919
20
2.8750533
40
0.9781248
50
67.776533
51
75.0700858
0
ARC
8
DEFAULT_255_2_778
10
17.5740955
20
3.3563526
40
0.4585604
50
44.4620458
51
67.667683
0
ARC
8
DEFAULT_255_2_778
10
17.3329579
20
3.1200332
40
0.7961907
50
36.1620354
51
44.4449889
0
ARC
8
DEFAULT_255_2_778
10
16.5643051
20
2.5496972
40
1.7533157
50
32.4959283
51
36.3875837
0
ARC
8
DEFAULT_255_2_778
10
14.7446962
20
1.3805573
40
3.9161452
50
30.8427284
51
32.6205984
0
ARC
8
DEFAULT_255_2_778
10
10.1024751
20
-1.3978172
40
9.326281
50
29.9797082
51
30.876281
0
ARC
8
DEFAULT_255_2_778
10
21.2113461
20
5.0550813
40
3.5209305
50
210.6060388
51
212.8990057
0
ARC
8
DEFAULT_255_2_778
10
19.3628053
20
3.853526
40
1.3162135
50
212.6897165
51
217.7256796
0
ARC
8
DEFAULT_255_2_778
10
18.6615748
20
3.304617
40
0.4257389
50
217.0407622
51
229.8086365
0
ARC
8
DEFAULT_255_2_778
10
18.4991745
20
3.1145352
40
0.1757384
50
230.2613901
51
248.4033568
0
ARC
8
DEFAULT_255_2_778
10
18.4934606
20
3.1127172
40
0.1720075
50
249.950325
51
271.4196876
0
ARC
8
DEFAULT_255_2_778
10
18.4976422
20
3.1843791
40
0.2436167
50
270.0188128
51
271.9412254
0
ARC
8
DEFAULT_255_2_778
10
18.4795855
20
3.4277156
40
0.4875239
50
273.0934562
51
281.1269081
0
ARC
8
DEFAULT_255_2_778
10
18.7741267
20
1.860068
40
1.1075793
50
98.5415226
51
100.4272563
0
ARC
8
DEFAULT_255_2_778
10
18.3223035
20
4.4405908
40
1.8699823
50
266.4844921
51
270.4356632
0
ARC
8
DEFAULT_255_2_778
10
18.233977
20
3.1089937
40
0.5355146
50
253.0275875
51
267.1808617
0
ARC
8
DEFAULT_255_2_778
10
18.1824486
20
2.9113444
40
0.3315388
50
220.5160385
51
251.5737135
0
ARC
8
DEFAULT_255_2_778
10
18.3153755
20
3.0446649
40
0.5194228
50
221.4381049
51
222.1704215
0
ARC
8
DEFAULT_255_2_778
10
18.5017006
20
3.2001929
40
0.762065
50
213.1359806
51
220.9330785
0
ARC
8
DEFAULT_255_2_778
10
19.2493622
20
3.6955371
40
1.6589186
50
209.5216389
51
213.34654
0
ARC
8
DEFAULT_255_2_778
10
20.8904052
20
4.6334039
40
3.5490484
50
207.873686
51
209.6423257
0
ARC
8
DEFAULT_255_2_778
10
24.2823512
20
6.4346928
40
7.3896107
50
207.1046722
51
207.9239943
0
ARC
8
DEFAULT_255_2_778
10
33.0231746
20
10.9125899
40
17.2106875
50
206.7169139
51
207.1167997
0
ARC
8
DEFAULT_255_2_778
10
9.2302834
20
-1.1137029
40
9.4489665
50
26.9926795
51
27.6913419
0
ARC
8
DEFAULT_255_2_778
10
13.1890438
20
0.968606
40
4.9759629
50
27.6436646
51
29.1256673
0
ARC
8
DEFAULT_255_2_778
10
15.5250503
20
2.2752961
40
2.2993378
50
29.0143362
51
32.1620183
0
ARC
8
DEFAULT_255_2_778
10
16.6505255
20
2.9871923
40
0.9676243
50
31.9520809
51
38.3540555
0
ARC
8
DEFAULT_255_2_778
10
17.1027559
20
3.3496908
40
0.388069
50
37.8150645
51
52.3905177
0
ARC
8
DEFAULT_255_2_778
10
17.1841653
20
3.4474976
40
0.2609497
50
53.4450298
51
54.0821085
0
ARC
8
DEFAULT_255_2_778
10
17.1849385
20
3.4362005
40
0.2697428
50
55.6229859
51
92.7466798
0
ARC
8
DEFAULT_255_2_778
10
17.1446188
20
2.5699204
40
1.1360432
50
88.6182815
51
90.0805202
0
ARC
8
DEFAULT_255_2_778
10
17.2631908
20
4.6831125
40
0.6068438
50
268.9926646
51
293.6476872
0
ARC
8
DEFAULT_255_2_778
10
17.3603455
20
4.4718553
40
0.3743803
50
292.9958948
51
1.3479866
0
ARC
8
DEFAULT_255_2_778
10
17.2413666
20
4.4936801
40
0.4934274
50
358.4882443
51
23.3531837
0
ARC
8
DEFAULT_255_2_778
10
17.4161372
20
4.5603458
40
0.3066545
50
24.8619762
51
85.2077104
0
ARC
8
DEFAULT_255_2_778
10
17.3711273
20
4.3417147
40
0.5289502
50
82.3265701
51
90.1738588
0
ARC
8
DEFAULT_255_2_778
10
23.3195957
20
3.5381048
40
1.7566859
50
78.6485572
51
90.3252938
0
ARC
8
DEFAULT_255_2_778
10
23.4162141
20
4.0074402
40
1.2775168
50
61.4293013
51
78.7539872
0
ARC
8
DEFAULT_255_2_778
10
23.4486813
20
4.1198688
40
1.1635257
50
9.7772401
51
60.1855848
0
ARC
8
DEFAULT_255_2_778
10
22.8261388
20
3.952595
40
1.8064001
50
359.7547384
51
11.652925
0
ARC
8
DEFAULT_255_2_778
10
22.7916384
20
3.9339743
40
1.8409161
50
345.8178163
51
0.338879
0
ARC
8
DEFAULT_255_2_778
10
23.2465238
20
3.8140185
40
1.3705136
50
323.5036088
51
346.0205831
0
ARC
8
DEFAULT_255_2_778
10
23.4077214
20
3.7073106
40
1.177504
50
284.6673969
51
323.0124441
0
ARC
8
DEFAULT_255_2_778
10
23.3186381
20
4.0203507
40
1.5029153
50
269.6562871
51
284.931065
0
ARC
8
DEFAULT_255_2_778
10
23.299556
20
4.2721319
40
1.7546983
50
258.6016968
51
270.3286936
0
ARC
8
DEFAULT_255_2_778
10
23.2023576
20
3.8017639
40
1.2744002
50
241.3143193
51
258.706149
0
ARC
8
DEFAULT_255_2_778
10
23.1696129
20
3.6903087
40
1.1611711
50
190.36603
51
240.0918452
0
ARC
8
DEFAULT_255_2_778
10
23.800334
20
3.8634008
40
1.8136323
50
179.7263631
51
192.1600234
0
ARC
8
DEFAULT_255_2_778
10
23.8126166
20
3.8826884
40
1.8259253
50
165.7619542
51
180.3334323
0
ARC
8
DEFAULT_255_2_778
10
23.3656954
20
4.0014933
40
1.3635223
50
142.9299379
51
165.9819222
0
ARC
8
DEFAULT_255_2_778
10
23.2117989
20
4.1044455
40
1.1787177
50
104.9413776
51
142.4136107
0
ARC
8
DEFAULT_255_2_778
10
23.3004136
20
3.7958832
40
1.4997075
50
89.648187
51
105.1729686
0
ARC
8
DEFAULT_255_2_778
10
23.319149
20
3.6751255
40
0.7291253
50
269.2513514
51
297.383464
0
ARC
8
DEFAULT_255_2_778
10
23.2792318
20
3.7020432
40
0.7717311
50
299.096048
51
339.3646561
0
ARC
8
DEFAULT_255_2_778
10
22.8572416
20
3.8838338
40
1.2309001
50
338.3680175
51
357.4607231
0
ARC
8
DEFAULT_255_2_778
10
22.5790125
20
3.9105845
40
1.5101099
50
356.9144449
51
0.0143413
0
ARC
8
DEFAULT_255_2_778
10
22.6964473
20
3.9208952
40
1.3927104
50
359.5913653
51
12.980953
0
ARC
8
DEFAULT_255_2_778
10
23.1263776
20
4.0234932
40
0.9507268
50
12.7759259
51
32.780231
0
ARC
8
DEFAULT_255_2_778
10
23.3274332
20
4.1510637
40
0.7126215
50
32.9088637
51
91.4321796
0
ARC
8
DEFAULT_255_2_778
10
23.2998718
20
4.1353144
40
0.7282133
50
89.2328165
51
117.4227879
0
ARC
8
DEFAULT_255_2_778
10
23.3379425
20
4.1113851
40
0.7673253
50
119.1234167
51
158.8544966
0
ARC
8
DEFAULT_255_2_778
10
23.7671056
20
3.923075
40
1.2356974
50
157.8893013
51
176.6474492
0
ARC
8
DEFAULT_255_2_778
10
24.0799405
20
3.8897442
40
1.5500185
50
176.0937354
51
180.0251995
0
ARC
8
DEFAULT_255_2_778
10
23.8855302
20
3.8794893
40
1.3556418
50
179.5953883
51
193.3019761
0
ARC
8
DEFAULT_255_2_778
10
23.4786253
20
3.7796921
40
0.9366987
50
193.0880314
51
213.7550386
0
ARC
8
DEFAULT_255_2_778
10
23.2930745
20
3.6586426
40
0.7151718
50
213.9518815
51
271.3258363
0
LINE
8
DEFAULT_255_2_778
10
8.1535222
20
2.9407625
11
8.4557222
21
2.9407625
0
LINE
8
DEFAULT_255_2_778
10
8.4557222
20
2.9407625
11
8.4702222
21
4.8703625
0
LINE
8
DEFAULT_255_2_778
10
8.4702222
20
4.8703625
11
8.1535222
21
4.8703625
0
LINE
8
DEFAULT_255_2_778
10
8.1535222
20
4.8703625
11
8.1535222
21
5.2407625
0
LINE
8
DEFAULT_255_2_778
10
8.1535222
20
5.2407625
11
10.1559222
21
5.2407625
0
LINE
8
DEFAULT_255_2_778
10
10.1559222
20
5.2407625
11
10.1802222
21
4.4904625
0
LINE
8
DEFAULT_255_2_778
10
10.1802222
20
4.4904625
11
9.7833222
21
4.4904625
0
LINE
8
DEFAULT_255_2_778
10
9.7833222
20
4.4904625
11
9.7489222
21
4.8706625
0
LINE
8
DEFAULT_255_2_778
10
9.7489222
20
4.8706625
11
8.9935222
21
4.8706625
0
LINE
8
DEFAULT_255_2_778
10
8.9935222
20
4.8706625
11
8.9888222
21
4.1155625
0
LINE
8
DEFAULT_255_2_778
10
8.9888222
20
4.1155625
11
9.7561222
21
4.1155625
0
LINE
8
DEFAULT_255_2_778
10
9.7561222
20
4.1155625
11
9.7561222
21
3.7450625
0
LINE
8
DEFAULT_255_2_778
10
9.7561222
20
3.7450625
11
8.9888222
21
3.7450625
0
LINE
8
DEFAULT_255_2_778
10
8.9888222
20
3.7450625
11
8.9840222
21
2.9407625
0
LINE
8
DEFAULT_255_2_778
10
8.9840222
20
2.9407625
11
9.7442222
21
2.9407625
0
LINE
8
DEFAULT_255_2_778
10
9.7442222
20
2.9407625
11
9.7929222
21
3.3693625
0
LINE
8
DEFAULT_255_2_778
10
9.7929222
20
3.3693625
11
10.2215222
21
3.3693625
0
LINE
8
DEFAULT_255_2_778
10
10.2215222
20
3.3693625
11
10.1728222
21
2.5703625
0
LINE
8
DEFAULT_255_2_778
10
10.1728222
20
2.5703625
11
8.1535222
21
2.5703625
0
LINE
8
DEFAULT_255_2_778
10
8.1535222
20
2.5703625
11
8.1535222
21
2.9407625
0
LINE
8
DEFAULT_255_2_778
10
8.1535222
20
2.9407625
11
8.1535222
21
2.9407625
0
LINE
8
DEFAULT_255_2_778
10
13.3669222
20
4.8703625
11
13.1136222
21
4.8703625
0
LINE
8
DEFAULT_255_2_778
10
13.1136222
20
4.8703625
11
12.1633222
21
2.5706625
0
LINE
8
DEFAULT_255_2_778
10
12.1633222
20
2.5706625
11
11.6177222
21
2.5706625
0
LINE
8
DEFAULT_255_2_778
10
11.6177222
20
2.5706625
11
10.6652222
21
4.8703625
0
LINE
8
DEFAULT_255_2_778
10
10.6652222
20
4.8703625
11
10.3972222
21
4.8703625
0
LINE
8
DEFAULT_255_2_778
10
10.3972222
20
4.8703625
11
10.3972222
21
5.2407625
0
LINE
8
DEFAULT_255_2_778
10
10.3972222
20
5.2407625
11
11.5349222
21
5.2407625
0
LINE
8
DEFAULT_255_2_778
10
11.5349222
20
5.2407625
11
11.5349222
21
4.8703625
0
LINE
8
DEFAULT_255_2_778
10
11.5349222
20
4.8703625
11
11.2669222
21
4.8703625
0
LINE
8
DEFAULT_255_2_778
10
11.2669222
20
4.8703625
11
11.9246222
21
3.0579625
0
LINE
8
DEFAULT_255_2_778
10
11.9246222
20
3.0579625
11
11.9344222
21
3.0579625
0
LINE
8
DEFAULT_255_2_778
10
11.9344222
20
3.0579625
11
12.5874222
21
4.8703625
0
LINE
8
DEFAULT_255_2_778
10
12.5874222
20
4.8703625
11
12.2659222
21
4.8703625
0
LINE
8
DEFAULT_255_2_778
10
12.2659222
20
4.8703625
11
12.2659222
21
5.2407625
0
LINE
8
DEFAULT_255_2_778
10
12.2659222
20
5.2407625
11
13.3671222
21
5.2407625
0
LINE
8
DEFAULT_255_2_778
10
13.3671222
20
5.2407625
11
13.3669222
21
4.8703625
0
LINE
8
DEFAULT_255_2_778
10
13.6298222
20
2.9407625
11
13.9320222
21
2.9407625
0
LINE
8
DEFAULT_255_2_778
10
13.9320222
20
2.9407625
11
13.9466222
21
4.8703625
0
LINE
8
DEFAULT_255_2_778
10
13.9466222
20
4.8703625
11
13.6304222
21
4.8703625
0
LINE
8
DEFAULT_255_2_778
10
13.6304222
20
4.8703625
11
13.6304222
21
5.2407625
0
LINE
8
DEFAULT_255_2_778
10
13.6304222
20
5.2407625
11
15.6327222
21
5.2407625
0
LINE
8
DEFAULT_255_2_778
10
15.6327222
20
5.2407625
11
15.6571222
21
4.4904625
0
LINE
8
DEFAULT_255_2_778
10
15.6571222
20
4.4904625
11
15.2602222
21
4.4904625
0
LINE
8
DEFAULT_255_2_778
10
15.2602222
20
4.4904625
11
15.2258222
21
4.8706625
0
LINE
8
DEFAULT_255_2_778
10
15.2258222
20
4.8706625
11
14.4704222
21
4.8706625
0
LINE
8
DEFAULT_255_2_778
10
14.4704222
20
4.8706625
11
14.4657222
21
4.1155625
0
LINE
8
DEFAULT_255_2_778
10
14.4657222
20
4.1155625
11
15.2330222
21
4.1155625
0
LINE
8
DEFAULT_255_2_778
10
15.2330222
20
4.1155625
11
15.2330222
21
3.7450625
0
LINE
8
DEFAULT_255_2_778
10
15.2330222
20
3.7450625
11
14.4657222
21
3.7450625
0
LINE
8
DEFAULT_255_2_778
10
14.4657222
20
3.7450625
11
14.4604222
21
2.9407625
0
LINE
8
DEFAULT_255_2_778
10
14.4604222
20
2.9407625
11
15.2205222
21
2.9407625
0
LINE
8
DEFAULT_255_2_778
10
15.2205222
20
2.9407625
11
15.2695222
21
3.3693625
0
LINE
8
DEFAULT_255_2_778
10
15.2695222
20
3.3693625
11
15.6981222
21
3.3693625
0
LINE
8
DEFAULT_255_2_778
10
15.6981222
20
3.3693625
11
15.6494222
21
2.5703625
0
LINE
8
DEFAULT_255_2_778
10
15.6494222
20
2.5703625
11
13.6306222
21
2.5703625
0
LINE
8
DEFAULT_255_2_778
10
13.6306222
20
2.5703625
11
13.6306222
21
2.9407625
0
LINE
8
DEFAULT_255_2_778
10
13.6306222
20
2.9407625
11
13.6298222
21
2.9407625
0
LINE
8
DEFAULT_255_2_778
10
16.1976222
20
2.9407625
11
16.4998222
21
2.9407625
0
LINE
8
DEFAULT_255_2_778
10
16.4998222
20
2.9407625
11
16.5143222
21
4.8703625
0
LINE
8
DEFAULT_255_2_778
10
16.5143222
20
4.8703625
11
16.1976222
21
4.8703625
0
LINE
8
DEFAULT_255_2_778
10
16.1976222
20
4.8703625
11
16.1976222
21
5.2407625
0
LINE
8
DEFAULT_255_2_778
10
16.1976222
20
5.2407625
11
17.4306222
21
5.2407625
0
LINE
8
DEFAULT_255_2_778
10
17.6206222
20
3.8326625
11
17.6206222
21
3.8228625
0
LINE
8
DEFAULT_255_2_778
10
18.6096222
20
2.9553625
11
18.6096222
21
2.5706625
0
LINE
8
DEFAULT_255_2_778
10
18.6096222
20
2.5706625
11
18.3365222
21
2.5706625
0
LINE
8
DEFAULT_255_2_778
10
17.1430222
20
3.7059625
11
17.0361222
21
3.7059625
0
LINE
8
DEFAULT_255_2_778
10
17.0361222
20
3.7059625
11
17.0308222
21
2.9386625
0
LINE
8
DEFAULT_255_2_778
10
17.0308222
20
2.9386625
11
17.3475222
21
2.9386625
0
LINE
8
DEFAULT_255_2_778
10
17.3475222
20
2.9386625
11
17.3475222
21
2.5682625
0
LINE
8
DEFAULT_255_2_778
10
17.3475222
20
2.5682625
11
16.1976222
21
2.5682625
0
LINE
8
DEFAULT_255_2_778
10
16.1976222
20
2.5682625
11
16.1976222
21
2.9386625
0
LINE
8
DEFAULT_255_2_778
10
16.1976222
20
2.9386625
11
16.1976222
21
2.9407625
0
LINE
8
DEFAULT_255_2_778
10
17.0409222
20
4.0763625
11
17.2525222
21
4.0763625
0
LINE
8
DEFAULT_255_2_778
10
17.3695222
20
4.8706625
11
17.0477222
21
4.8706625
0
LINE
8
DEFAULT_255_2_778
10
17.0477222
20
4.8706625
11
17.0432222
21
4.0768625
0
LINE
8
DEFAULT_255_2_778
10
17.0432222
20
4.0768625
11
17.0409222
21
4.0763625
0
LINE
8
DEFAULT_255_2_778
10
21.0607222
20
4.8706625
11
20.7440222
21
4.8706625
0
LINE
8
DEFAULT_255_2_778
10
20.7440222
20
4.8706625
11
20.7440222
21
5.2410625
0
LINE
8
DEFAULT_255_2_778
10
20.7440222
20
5.2410625
11
21.7917222
21
5.2410625
0
LINE
8
DEFAULT_255_2_778
10
21.7917222
20
5.2410625
11
21.7917222
21
4.8706625
0
LINE
8
DEFAULT_255_2_778
10
21.7917222
20
4.8706625
11
21.4896222
21
4.8706625
0
LINE
8
DEFAULT_255_2_778
10
21.4896222
20
4.8706625
11
21.4750222
21
2.5708625
0
LINE
8
DEFAULT_255_2_778
10
21.4750222
20
2.5708625
11
21.0781222
21
2.5708625
0
LINE
8
DEFAULT_255_2_778
10
21.0781222
20
2.5708625
11
19.6504222
21
4.4711625
0
LINE
8
DEFAULT_255_2_778
10
19.6504222
20
4.4711625
11
19.6407222
21
4.4711625
0
LINE
8
DEFAULT_255_2_778
10
19.6407222
20
4.4711625
11
19.6258222
21
2.9410625
0
LINE
8
DEFAULT_255_2_778
10
19.6258222
20
2.9410625
11
19.9428222
21
2.9410625
0
LINE
8
DEFAULT_255_2_778
10
19.9428222
20
2.9410625
11
19.9428222
21
2.5706625
0
LINE
8
DEFAULT_255_2_778
10
19.9428222
20
2.5706625
11
18.8951222
21
2.5706625
0
LINE
8
DEFAULT_255_2_778
10
18.8951222
20
2.5706625
11
18.8951222
21
2.9410625
0
LINE
8
DEFAULT_255_2_778
10
18.8951222
20
2.9410625
11
19.1972222
21
2.9410625
0
LINE
8
DEFAULT_255_2_778
10
19.1972222
20
2.9410625
11
19.2118222
21
4.8706625
0
LINE
8
DEFAULT_255_2_778
10
19.2118222
20
4.8706625
11
18.8951222
21
4.8706625
0
LINE
8
DEFAULT_255_2_778
10
18.8951222
20
4.8706625
11
18.8951222
21
5.2410625
0
LINE
8
DEFAULT_255_2_778
10
18.8951222
20
5.2410625
11
19.6840222
21
5.2410625
0
LINE
8
DEFAULT_255_2_778
10
19.6840222
20
5.2410625
11
21.0334222
21
3.4328625
0
LINE
8
DEFAULT_255_2_778
10
21.0334222
20
3.4328625
11
21.0432222
21
3.4328625
0
LINE
8
DEFAULT_255_2_778
10
21.0432222
20
3.4328625
11
21.0578222
21
4.8703625
0
LINE
8
DEFAULT_255_2_778
10
21.0578222
20
4.8703625
11
21.0607222
21
4.8706625
0
LINE
8
DEFAULT_255_2_778
10
23.3096222
20
5.2955625
11
23.3096222
21
5.2947625
0
LINE
8
DEFAULT_255_2_778
10
23.3096222
20
2.9436625
11
23.3096222
21
2.9460625
0
LINE
8
DEFAULT_255_2_778
10
25.4729222
20
2.9407625
11
25.7745222
21
2.9407625
0
LINE
8
DEFAULT_255_2_778
10
25.7745222
20
2.9407625
11
25.7890222
21
4.8703625
0
LINE
8
DEFAULT_255_2_778
10
25.7890222
20
4.8703625
11
25.2509222
21
4.8703625
0
LINE
8
DEFAULT_255_2_778
10
25.2509222
20
4.8703625
11
25.2310222
21
4.4901625
0
LINE
8
DEFAULT_255_2_778
10
25.2310222
20
4.4901625
11
24.8270222
21
4.4901625
0
LINE
8
DEFAULT_255_2_778
10
24.8270222
20
4.4901625
11
24.8535222
21
5.2405625
0
LINE
8
DEFAULT_255_2_778
10
24.8535222
20
5.2405625
11
27.2461222
21
5.2405625
0
LINE
8
DEFAULT_255_2_778
10
27.2461222
20
5.2405625
11
27.2726222
21
4.4901625
0
LINE
8
DEFAULT_255_2_778
10
27.2726222
20
4.4901625
11
26.8677222
21
4.4901625
0
LINE
8
DEFAULT_255_2_778
10
26.8677222
20
4.4901625
11
26.8482222
21
4.8703625
0
LINE
8
DEFAULT_255_2_778
10
26.8482222
20
4.8703625
11
26.3121222
21
4.8703625
0
LINE
8
DEFAULT_255_2_778
10
26.3121222
20
4.8703625
11
26.2976222
21
2.9407625
0
LINE
8
DEFAULT_255_2_778
10
26.2976222
20
2.9407625
11
26.6140222
21
2.9407625
0
LINE
8
DEFAULT_255_2_778
10
26.6140222
20
2.9407625
11
26.6140222
21
2.5703625
0
LINE
8
DEFAULT_255_2_778
10
26.6140222
20
2.5703625
11
25.4644222
21
2.5703625
0
LINE
8
DEFAULT_255_2_778
10
25.4644222
20
2.5703625
11
25.4644222
21
2.9407625
0
LINE
8
DEFAULT_255_2_778
10
25.4644222
20
2.9407625
11
25.4729222
21
2.9407625
0
LINE
8
DEFAULT_255_2_778
10
27.5774222
20
2.9407625
11
27.8795222
21
2.9407625
0
LINE
8
DEFAULT_255_2_778
10
27.8795222
20
2.9407625
11
27.8943222
21
4.8703625
0
LINE
8
DEFAULT_255_2_778
10
27.8943222
20
4.8703625
11
27.5774222
21
4.8703625
0
LINE
8
DEFAULT_255_2_778
10
27.5774222
20
4.8703625
11
27.5774222
21
5.2407625
0
LINE
8
DEFAULT_255_2_778
10
27.5774222
20
5.2407625
11
29.5803222
21
5.2407625
0
LINE
8
DEFAULT_255_2_778
10
29.5803222
20
5.2407625
11
29.6067222
21
4.4904625
0
LINE
8
DEFAULT_255_2_778
10
29.6067222
20
4.4904625
11
29.2098222
21
4.4904625
0
LINE
8
DEFAULT_255_2_778
10
29.2098222
20
4.4904625
11
29.1754222
21
4.8706625
0
LINE
8
DEFAULT_255_2_778
10
29.1754222
20
4.8706625
11
28.4203222
21
4.8706625
0
LINE
8
DEFAULT_255_2_778
10
28.4203222
20
4.8706625
11
28.4150222
21
4.1155625
0
LINE
8
DEFAULT_255_2_778
10
28.4150222
20
4.1155625
11
29.1823222
21
4.1155625
0
LINE
8
DEFAULT_255_2_778
10
29.1823222
20
4.1155625
11
29.1823222
21
3.7450625
0
LINE
8
DEFAULT_255_2_778
10
29.1823222
20
3.7450625
11
28.4150222
21
3.7450625
0
LINE
8
DEFAULT_255_2_778
10
28.4150222
20
3.7450625
11
28.4097222
21
2.9407625
0
LINE
8
DEFAULT_255_2_778
10
28.4097222
20
2.9407625
11
29.1699222
21
2.9407625
0
LINE
8
DEFAULT_255_2_778
10
29.1699222
20
2.9407625
11
29.2188222
21
3.3693625
0
LINE
8
DEFAULT_255_2_778
10
29.2188222
20
3.3693625
11
29.6475222
21
3.3693625
0
LINE
8
DEFAULT_255_2_778
10
29.6475222
20
3.3693625
11
29.5990222
21
2.5703625
0
LINE
8
DEFAULT_255_2_778
10
29.5990222
20
2.5703625
11
27.5816222
21
2.5703625
0
LINE
8
DEFAULT_255_2_778
10
27.5816222
20
2.5703625
11
27.5816222
21
2.9407625
0
LINE
8
DEFAULT_255_2_778
10
27.5816222
20
2.9407625
11
27.5774222
21
2.9407625
0
ENDSEC
0
EOF