0
SECTION
2
HEADER
9
$MEASUREMENT
70
1
0
ENDSEC
0
SECTION
2
TABLES
0
TABLE
2
LTYPE
0
LTYPE
72
65
70
64
2
CONTINUOUS
3
______
73
0
40
0
0
ENDTAB
0
TABLE
2
LAYER
0
LAYER
2
DEFAULT_255_2_778
70
0
62
255
6
CONTINUOUS
0
ENDTAB
0
ENDSEC
0
SECTION
2
ENTITIES
0
ARC
8
DEFAULT_255_2_778
10
17.0913635
20
-0.4714577
40
9.3251481
50
90.3663819
51
96.7284495
0
ARC
8
DEFAULT_255_2_778
10
17.17225
20
-1.1358
40
9.994392
50
96.7427383
51
103.0851085
0
ARC
8
DEFAULT_255_2_778
10
17.3980974
20
-2.1045513
40
10.9891211
50
103.0885484
51
108.8071908
0
ARC
8
DEFAULT_255_2_778
10
17.8018535
20
-3.2907597
40
12.242161
50
108.8061793
51
113.9060202
0
ARC
8
DEFAULT_255_2_778
10
18.3243138
20
-4.4803317
40
13.5414025
50
113.8873176
51
117.5622807
0
ARC
8
DEFAULT_255_2_778
10
18.8720797
20
-5.5332367
40
14.72827
50
117.5560824
51
120.6397399
0
ARC
8
DEFAULT_255_2_778
10
19.440082
20
-6.4944098
40
15.8447281
50
120.6355894
51
123.3068032
0
ARC
8
DEFAULT_255_2_778
10
19.9708752
20
-7.3050059
40
16.8136477
50
123.301658
51
125.4455331
0
ARC
8
DEFAULT_255_2_778
10
20.3160881
20
-7.7938018
40
17.4120527
50
125.4381845
51
126.351295
0
ARC
8
DEFAULT_255_2_778
10
20.5962645
20
-8.1729338
40
17.8834749
50
126.3542711
51
127.9815827
0
ARC
8
DEFAULT_255_2_778
10
20.9043366
20
-8.5680271
40
18.3844809
50
127.9805899
51
129.5109436
0
ARC
8
DEFAULT_255_2_778
10
21.0879494
20
-8.7916677
40
18.6738394
50
129.5090166
51
130.465085
0
ARC
8
DEFAULT_255_2_778
10
21.167941
20
-8.885619
40
18.7972309
50
130.4647339
51
131.3195207
0
ARC
8
DEFAULT_255_2_778
10
21.1733742
20
-8.8920336
40
18.8056358
50
131.3190492
51
132.4576721
0
ARC
8
DEFAULT_255_2_778
10
21.0599262
20
-8.7683247
40
18.6377838
50
132.4570875
51
133.4291682
0
ARC
8
DEFAULT_255_2_778
10
20.8176776
20
-8.5125426
40
18.2854928
50
133.4288934
51
134.2644961
0
ARC
8
DEFAULT_255_2_778
10
20.4389672
20
-8.124344
40
17.7431649
50
134.2636809
51
135.1031121
0
ARC
8
DEFAULT_255_2_778
10
19.8711856
20
-7.558945
40
16.9418835
50
135.1022914
51
135.9134145
0
ARC
8
DEFAULT_255_2_778
10
19.1483068
20
-6.8586273
40
15.9354051
50
135.9137436
51
136.5901268
0
ARC
8
DEFAULT_255_2_778
10
18.3535749
20
-6.1067109
40
14.8413407
50
136.590453
51
137.1581698
0
ARC
8
DEFAULT_255_2_778
10
17.5202726
20
-5.333808
40
13.7047794
50
137.158555
51
137.6377821
0
ARC
8
DEFAULT_255_2_778
10
16.4631824
20
-4.3708449
40
12.2748364
50
137.6342805
51
138.2395975
0
ARC
8
DEFAULT_255_2_778
10
15.0428391
20
-3.1031618
40
10.371052
50
138.2375979
51
138.8259489
0
ARC
8
DEFAULT_255_2_778
10
13.5144904
20
-1.7661217
40
8.3404053
50
138.8274697
51
139.2897506
0
ARC
8
DEFAULT_255_2_778
10
11.8541942
20
-0.3384201
40
6.1506759
50
139.2834294
51
139.7834311
0
ARC
8
DEFAULT_255_2_778
10
10.019605
20
1.2127168
40
3.7482306
50
139.7820213
51
140.183366
0
ARC
8
DEFAULT_255_2_778
10
8.2792135
20
2.6630154
40
1.4827664
50
140.1656427
51
140.5085663
0
ARC
8
DEFAULT_255_2_778
10
8.927296
20
0.9632532
40
2.1497399
50
144.8693002
51
145.2142571
0
ARC
8
DEFAULT_255_2_778
10
11.5903393
20
-0.9081058
40
5.4045491
50
144.510154
51
144.8900358
0
ARC
8
DEFAULT_255_2_778
10
14.1194348
20
-2.7108934
40
8.5104093
50
144.0705458
51
144.5130186
0
ARC
8
DEFAULT_255_2_778
10
16.4603122
20
-4.4064889
40
11.4008677
50
143.6052742
51
144.073605
0
ARC
8
DEFAULT_255_2_778
10
18.4880924
20
-5.9006855
40
13.9197
50
143.1158239
51
143.6070097
0
ARC
8
DEFAULT_255_2_778
10
20.1422226
20
-7.141306
40
15.9873764
50
142.6365381
51
143.1176051
0
ARC
8
DEFAULT_255_2_778
10
21.4440786
20
-8.1348599
40
17.6250512
50
142.1677223
51
142.6377661
0
ARC
8
DEFAULT_255_2_778
10
22.4685404
20
-8.9300896
40
18.9219368
50
141.710439
51
142.1685573
0
ARC
8
DEFAULT_255_2_778
10
23.2579796
20
-9.5530535
40
19.9275701
50
141.2651965
51
141.7110352
0
ARC
8
DEFAULT_255_2_778
10
23.9911756
20
-10.1416442
40
20.8677908
50
140.6089814
51
141.2642146
0
ARC
8
DEFAULT_255_2_778
10
24.6408725
20
-10.6749496
40
21.7083387
50
139.8783448
51
140.6093711
0
ARC
8
DEFAULT_255_2_778
10
25.0630137
20
-11.030414
40
22.2602067
50
139.090885
51
139.8789044
0
ARC
8
DEFAULT_255_2_778
10
25.2651397
20
-11.20519
40
22.5274172
50
138.3628889
51
139.091591
0
ARC
8
DEFAULT_255_2_778
10
25.290334
20
-11.2273478
40
22.5609684
50
137.34675
51
138.3633444
0
ARC
8
DEFAULT_255_2_778
10
25.1098566
20
-11.0605487
40
22.3152168
50
136.1810301
51
137.3477542
0
ARC
8
DEFAULT_255_2_778
10
24.7189821
20
-10.6847162
40
21.7729691
50
134.851474
51
136.1824519
0
ARC
8
DEFAULT_255_2_778
10
24.1729577
20
-10.135432
40
20.9984656
50
133.4727622
51
134.8522852
0
ARC
8
DEFAULT_255_2_778
10
23.5299311
20
-9.4565606
40
20.0633992
50
131.9755049
51
133.473975
0
ARC
8
DEFAULT_255_2_778
10
22.7239654
20
-8.5577401
40
18.8561481
50
129.9148615
51
131.9814696
0
ARC
8
DEFAULT_255_2_778
10
21.686081
20
-7.3121161
40
17.2347991
50
127.1066392
51
129.9254893
0
ARC
8
DEFAULT_255_2_778
10
20.4049938
20
-5.6056354
40
15.1009785
50
122.8020703
51
127.1363682
0
ARC
8
DEFAULT_255_2_778
10
18.6345731
20
-2.7722416
40
11.7603658
50
112.2863011
51
123.0302575
0
ARC
8
DEFAULT_255_2_778
10
17.3527245
20
0.4083154
40
8.3312974
50
95.5870429
51
112.4244178
0
ARC
8
DEFAULT_255_2_778
10
17.1804854
20
1.6178391
40
7.1109532
50
91.8958639
51
95.1546444
0
ARC
8
DEFAULT_255_2_778
10
10.5872622
20
10.3584087
40
0.5576725
50
86.6002269
51
86.7406799
0
ARC
8
DEFAULT_255_2_778
10
10.5555067
20
9.7997985
40
1.1171846
50
86.743538
51
86.9190877
0
ARC
8
DEFAULT_255_2_778
10
10.5134255
20
9.0170524
40
1.901061
50
86.9205719
51
87.149932
0
ARC
8
DEFAULT_255_2_778
10
10.472815
20
8.202858
40
2.7162677
50
87.1483192
51
87.3868135
0
ARC
8
DEFAULT_255_2_778
10
10.4408194
20
7.5047123
40
3.4151459
50
87.3846005
51
87.5838087
0
ARC
8
DEFAULT_255_2_778
10
10.4115664
20
6.8131756
40
4.1073011
50
87.5827885
51
87.8082162
0
ARC
8
DEFAULT_255_2_778
10
10.3889903
20
6.2277991
40
4.6931126
50
87.8061146
51
87.9978683
0
ARC
8
DEFAULT_255_2_778
10
10.3684547
20
5.6443607
40
5.2769123
50
87.9963518
51
88.1887482
0
ARC
8
DEFAULT_255_2_778
10
10.3502421
20
5.0690046
40
5.8525565
50
88.1885696
51
88.405953
0
ARC
8
DEFAULT_255_2_778
10
10.3360121
20
4.5617165
40
6.3600441
50
88.4049365
51
88.5982062
0
ARC
8
DEFAULT_255_2_778
10
10.3218
20
3.9793929
40
6.942541
50
88.5985185
51
88.854272
0
ARC
8
DEFAULT_255_2_778
10
10.308792
20
3.3292542
40
7.5928099
50
88.8542296
51
89.1345703
0
ARC
8
DEFAULT_255_2_778
10
10.3006414
20
2.8000836
40
8.1220434
50
89.1334622
51
89.3470073
0
ARC
8
DEFAULT_255_2_778
10
10.2946966
20
2.2707934
40
8.6513669
50
89.3475881
51
89.6311686
0
ARC
8
DEFAULT_255_2_778
10
10.2909761
20
1.6989901
40
9.2231824
50
89.630923
51
89.9077525
0
ARC
8
DEFAULT_255_2_778
10
10.2902302
20
1.2707203
40
9.6514529
50
89.9074177
51
89.9997875
0
ARC
8
DEFAULT_255_2_778
10
10.2920388
20
0.5601468
40
10.3620266
50
90.0098023
51
90.8603377
0
ARC
8
DEFAULT_255_2_778
10
10.3121749
20
-0.7770663
40
11.6993912
50
90.8606087
51
91.8503433
0
ARC
8
DEFAULT_255_2_778
10
10.350816
20
-1.9761585
40
12.8991057
50
91.849915
51
92.96984
0
ARC
8
DEFAULT_255_2_778
10
10.3999874
20
-2.9341389
40
13.8583469
50
92.9676574
51
94.0772374
0
ARC
8
DEFAULT_255_2_778
10
10.4494317
20
-3.6331569
40
14.5591113
50
94.0757349
51
95.1674136
0
ARC
8
DEFAULT_255_2_778
10
10.4989445
20
-4.1798228
40
15.1080149
50
95.1676997
51
96.5140261
0
ARC
8
DEFAULT_255_2_778
10
10.5458632
20
-4.5919077
40
15.5227622
50
96.5135323
51
98.0589313
0
ARC
8
DEFAULT_255_2_778
10
10.5783918
20
-4.8239571
40
15.7570801
50
98.0577531
51
99.57743
0
ARC
8
DEFAULT_255_2_778
10
10.5915834
20
-4.9034462
40
15.8376563
50
99.5766425
51
101.4678573
0
ARC
8
DEFAULT_255_2_778
10
10.5802312
20
-4.8486434
40
15.7816903
50
101.4670231
51
103.2943051
0
ARC
8
DEFAULT_255_2_778
10
10.5411851
20
-4.6848129
40
15.6132715
50
103.2931073
51
105.420463
0
ARC
8
DEFAULT_255_2_778
10
10.4706909
20
-4.4302057
40
15.3490855
50
105.4195065
51
107.7179987
0
ARC
8
DEFAULT_255_2_778
10
10.3663198
20
-4.1048967
40
15.0074439
50
107.7164015
51
110.378669
0
ARC
8
DEFAULT_255_2_778
10
10.2223666
20
-3.7189094
40
14.5954871
50
110.376574
51
113.5249688
0
ARC
8
DEFAULT_255_2_778
10
10.0464076
20
-3.3152326
40
14.1551277
50
113.5241295
51
116.9858694
0
ARC
8
DEFAULT_255_2_778
10
9.8890633
20
-3.0036899
40
13.8061079
50
116.990669
51
119.4995466
0
ARC
8
DEFAULT_255_2_778
10
9.7844142
20
-2.8176319
40
13.5926394
50
119.5018046
51
121.2659596
0
ARC
8
DEFAULT_255_2_778
10
9.698722
20
-2.6767914
40
13.4277783
50
121.2653237
51
123.4543132
0
ARC
8
DEFAULT_255_2_778
10
9.61958
20
-2.556747
40
13.2839933
50
123.4549468
51
125.492748
0
ARC
8
DEFAULT_255_2_778
10
9.5569501
20
-2.4688837
40
13.1760931
50
125.4928385
51
127.7614466
0
ARC
8
DEFAULT_255_2_778
10
9.513161
20
-2.4121359
40
13.1044148
50
127.7620271
51
129.9425398
0
ARC
8
DEFAULT_255_2_778
10
9.4945622
20
-2.3897747
40
13.0753298
50
129.942964
51
132.2411268
0
ARC
8
DEFAULT_255_2_778
10
9.5043797
20
-2.4004588
40
13.0898393
50
132.2415022
51
134.229922
0
ARC
8
DEFAULT_255_2_778
10
9.5252846
20
-2.4220326
40
13.1198799
50
134.2296192
51
134.8987711
0
ARC
8
DEFAULT_255_2_778
10
7.9395174
20
4.0634631
40
1.2240706
50
140.6615912
51
141.2462744
0
ARC
8
DEFAULT_255_2_778
10
9.4152135
20
2.8561752
40
3.1306965
50
140.0067649
51
140.6928473
0
ARC
8
DEFAULT_255_2_778
10
10.7829585
20
1.7099192
40
4.9152491
50
139.2960532
51
140.0169737
0
ARC
8
DEFAULT_255_2_778
10
11.9541122
20
0.7033804
40
6.4595032
50
138.6002655
51
139.3024589
0
ARC
8
DEFAULT_255_2_778
10
12.9093723
20
-0.1381901
40
7.7325951
50
137.9208871
51
138.6035824
0
ARC
8
DEFAULT_255_2_778
10
13.6958198
20
-0.8478539
40
8.7918978
50
137.2611084
51
137.922945
0
ARC
8
DEFAULT_255_2_778
10
14.338012
20
-1.4409471
40
9.6660661
50
136.6217699
51
137.2624681
0
ARC
8
DEFAULT_255_2_778
10
14.98763
20
-2.0555646
40
10.5603579
50
135.6840204
51
136.6187268
0
ARC
8
DEFAULT_255_2_778
10
15.6302906
20
-2.6829291
40
11.4584664
50
134.650447
51
135.6844917
0
ARC
8
DEFAULT_255_2_778
10
16.160983
20
-3.2198537
40
12.2133984
50
133.5480724
51
134.65138
0
ARC
8
DEFAULT_255_2_778
10
16.5509876
20
-3.6295495
40
12.7790434
50
132.540292
51
133.549905
0
ARC
8
DEFAULT_255_2_778
10
16.8117494
20
-3.9133663
40
13.1644635
50
131.6222893
51
132.5413316
0
ARC
8
DEFAULT_255_2_778
10
17.0196555
20
-4.1476072
40
13.4776626
50
130.3624821
51
131.6215723
0
ARC
8
DEFAULT_255_2_778
10
17.1822988
20
-4.3388421
40
13.7287077
50
128.927538
51
130.3628174
0
ARC
8
DEFAULT_255_2_778
10
17.2738422
20
-4.4519612
40
13.8742277
50
127.2929418
51
128.9281097
0
ARC
8
DEFAULT_255_2_778
10
17.2961757
20
-4.480988
40
13.9108515
50
125.7551679
51
127.2936845
0
ARC
8
DEFAULT_255_2_778
10
17.269399
20
-4.4435767
40
13.8648452
50
124.1368276
51
125.7557069
0
ARC
8
DEFAULT_255_2_778
10
17.2038887
20
-4.346542
40
13.7477671
50
122.1747555
51
124.1377869
0
ARC
8
DEFAULT_255_2_778
10
17.0995424
20
-4.1801383
40
13.5513538
50
119.8691779
51
122.1759773
0
ARC
8
DEFAULT_255_2_778
10
16.9790926
20
-3.970463
40
13.3095443
50
117.6508446
51
119.8690611
0
ARC
8
DEFAULT_255_2_778
10
16.8506793
20
-3.7244947
40
13.0320731
50
114.8967247
51
117.6526122
0
ARC
8
DEFAULT_255_2_778
10
16.721117
20
-3.4450455
40
12.7240502
50
111.903804
51
114.8972731
0
ARC
8
DEFAULT_255_2_778
10
16.6137164
20
-3.1782817
40
12.4364778
50
108.874156
51
111.9031987
0
ARC
8
DEFAULT_255_2_778
10
16.5340216
20
-2.945377
40
12.1903155
50
105.6404747
51
108.8738399
0
ARC
8
DEFAULT_255_2_778
10
16.4812616
20
-2.7573219
40
11.9949995
50
102.0754685
51
105.6399648
0
ARC
8
DEFAULT_255_2_778
10
16.4561547
20
-2.6416567
40
11.8766413
50
98.4337009
51
102.0737598
0
ARC
8
DEFAULT_255_2_778
10
16.4527362
20
-2.6213679
40
11.8560704
50
94.8033305
51
98.4317394
0
ARC
8
DEFAULT_255_2_778
10
16.4594319
20
-2.7059295
40
11.9408957
50
91.2092779
51
94.8013694
0
ARC
8
DEFAULT_255_2_778
10
16.4625578
20
-2.8212104
40
12.0562168
50
89.9993649
51
91.2125679
0
ARC
8
DEFAULT_255_2_778
10
16.4626211
20
-2.8881365
40
12.1231428
50
89.1415808
51
89.9996674
0
ARC
8
DEFAULT_255_2_778
10
16.4616253
20
-2.9540822
40
12.189096
50
88.1727991
51
89.1415446
0
ARC
8
DEFAULT_255_2_778
10
16.4593746
20
-3.0267639
40
12.2618125
50
87.3635185
51
88.1731165
0
ARC
8
DEFAULT_255_2_778
10
16.4559611
20
-3.1013609
40
12.3364875
50
86.5523554
51
87.3636184
0
ARC
8
DEFAULT_255_2_778
10
6.6385242
20
9.2334759
40
0.2156604
50
131.3083262
51
176.6442468
0
ARC
8
DEFAULT_255_2_778
10
6.941174
20
8.9327681
40
0.6419731
50
118.0231761
51
133.883183
0
ARC
8
DEFAULT_255_2_778
10
7.3377027
20
8.2155936
40
1.4614235
50
109.4109869
51
118.53637
0
ARC
8
DEFAULT_255_2_778
10
7.7532278
20
7.0629591
40
2.686652
50
103.2457952
51
109.5994526
0
ARC
8
DEFAULT_255_2_778
10
8.0907885
20
5.6549413
40
4.1345601
50
98.1538702
51
103.3284237
0
ARC
8
DEFAULT_255_2_778
10
8.2859216
20
4.3158618
40
5.4877796
50
92.9573828
51
98.1876568
0
ARC
8
DEFAULT_255_2_778
10
8.3272231
20
3.6575051
40
6.1473946
50
89.9905824
51
93.0252337
0
ARC
8
DEFAULT_255_2_778
10
8.3340712
20
3.6200191
40
6.1848833
50
84.9668612
51
90.0540785
0
ARC
8
DEFAULT_255_2_778
10
8.4395063
20
4.7888975
40
5.0112626
50
80.1646935
51
84.9952241
0
ARC
8
DEFAULT_255_2_778
10
8.6920935
20
6.22424
40
3.5538714
50
74.6355455
51
80.2242541
0
ARC
8
DEFAULT_255_2_778
10
9.0653243
20
7.5676825
40
2.1595566
50
67.5352162
51
74.7399659
0
ARC
8
DEFAULT_255_2_778
10
9.4761838
20
8.5480747
40
1.0965777
50
56.7901505
51
67.7995051
0
ARC
8
DEFAULT_255_2_778
10
9.8401887
20
9.0919406
40
0.4422237
50
36.0714172
51
57.6547356
0
ARC
8
DEFAULT_255_2_778
10
10.0446649
20
9.2419714
40
0.1886138
50
1.2541525
51
35.8061434
0
ARC
8
DEFAULT_255_2_778
10
10.0715411
20
9.2426032
40
0.1617303
50
359.9972045
51
1.2387763
0
ARC
8
DEFAULT_255_2_778
10
10.0128806
20
9.2549241
40
0.2207353
50
311.095822
51
356.798184
0
ARC
8
DEFAULT_255_2_778
10
9.7149733
20
9.5529373
40
0.6417803
50
297.8175122
51
313.6514157
0
ARC
8
DEFAULT_255_2_778
10
9.3287828
20
10.25824
40
1.4458489
50
289.1373223
51
298.3099831
0
ARC
8
DEFAULT_255_2_778
10
8.9208668
20
11.4074235
40
2.6652659
50
282.9550986
51
289.3228894
0
ARC
8
DEFAULT_255_2_778
10
8.5823677
20
12.8524129
40
4.1493662
50
277.9020086
51
283.0370447
0
ARC
8
DEFAULT_255_2_778
10
8.380754
20
14.2765719
40
5.5877215
50
273.0628405
51
277.9420705
0
ARC
8
DEFAULT_255_2_778
10
8.329967
20
15.0933564
40
6.4060569
50
269.9844962
51
273.1260982
0
ARC
8
DEFAULT_255_2_778
10
8.3224038
20
14.8715328
40
6.1842359
50
264.9665978
51
270.0540119
0
ARC
8
DEFAULT_255_2_778
10
8.2170282
20
13.703415
40
5.011378
50
260.1646555
51
264.9949821
0
ARC
8
DEFAULT_255_2_778
10
7.9644794
20
12.2682997
40
3.5542171
50
254.6359621
51
260.2242113
0
ARC
8
DEFAULT_255_2_778
10
7.5912457
20
10.9248109
40
2.159857
50
247.5363515
51
254.7403869
0
ARC
8
DEFAULT_255_2_778
10
7.180351
20
9.9442796
40
1.0967362
50
236.7922721
51
247.8006267
0
ARC
8
DEFAULT_255_2_778
10
6.8162951
20
9.4002954
40
0.4422556
50
216.0742786
51
237.6570689
0
ARC
8
DEFAULT_255_2_778
10
6.6117896
20
9.2502292
40
0.1886011
50
181.2546021
51
215.809381
0
ARC
8
DEFAULT_255_2_778
10
17.3419654
20
2.6351035
40
5.7854657
50
95.3887734
51
105.1280612
0
ARC
8
DEFAULT_255_2_778
10
17.7085044
20
1.2541824
40
7.2141921
50
105.0760205
51
111.9796103
0
ARC
8
DEFAULT_255_2_778
10
18.3504683
20
-0.3463009
40
8.9386205
50
111.9557692
51
117.4255051
0
ARC
8
DEFAULT_255_2_778
10
19.3946907
20
-2.3520426
40
11.1999017
50
117.4409969
51
122.7294046
0
ARC
8
DEFAULT_255_2_778
10
22.1958074
20
-6.5513548
40
16.2472163
50
123.0324801
51
132.0535378
0
ARC
8
DEFAULT_255_2_778
10
25.8846311
20
-10.8140646
40
21.8835345
50
131.7491801
51
134.0760043
0
ARC
8
DEFAULT_255_2_778
10
27.1923943
20
-12.177866
40
23.773011
50
134.0539362
51
134.7548864
0
ARC
8
DEFAULT_255_2_778
10
28.2932212
20
-13.2818577
40
25.332049
50
134.7649103
51
136.4129442
0
ARC
8
DEFAULT_255_2_778
10
29.4877262
20
-14.4240474
40
26.9847516
50
136.4049584
51
137.3087966
0
ARC
8
DEFAULT_255_2_778
10
30.2519397
20
-15.1296193
40
28.0248736
50
137.3079052
51
138.0993615
0
ARC
8
DEFAULT_255_2_778
10
30.8616681
20
-15.6771362
40
28.844351
50
138.0987307
51
138.7959652
0
ARC
8
DEFAULT_255_2_778
10
31.4093831
20
-16.1563213
40
29.5720941
50
138.7965064
51
139.7101337
0
ARC
8
DEFAULT_255_2_778
10
31.7693062
20
-16.4621039
40
30.044373
50
139.7091809
51
140.4764333
0
ARC
8
DEFAULT_255_2_778
10
31.816503
20
-16.5014659
40
30.1058288
50
140.4758118
51
141.1260846
0
ARC
8
DEFAULT_255_2_778
10
31.5866993
20
-16.3164175
40
29.8107818
50
141.1257746
51
141.6812922
0
ARC
8
DEFAULT_255_2_778
10
31.0711101
20
-15.9092851
40
29.1538274
50
141.6807852
51
142.2359798
0
ARC
8
DEFAULT_255_2_778
10
30.1927614
20
-15.2292575
40
28.0430016
50
142.2353233
51
142.7691963
0
ARC
8
DEFAULT_255_2_778
10
29.0062684
20
-14.3276699
40
26.5528251
50
142.7691698
51
143.2123666
0
ARC
8
DEFAULT_255_2_778
10
27.6577072
20
-13.3191201
40
24.8688446
50
143.2126452
51
143.5831991
0
ARC
8
DEFAULT_255_2_778
10
26.1992363
20
-12.243036
40
23.0563617
50
143.5834917
51
143.895476
0
ARC
8
DEFAULT_255_2_778
10
24.3284676
20
-10.8795722
40
20.7414516
50
143.8933548
51
144.2862451
0
ARC
8
DEFAULT_255_2_778
10
21.8587036
20
-9.1041418
40
17.6997601
50
144.2857868
51
144.6420767
0
ARC
8
DEFAULT_255_2_778
10
19.1812586
20
-7.2044203
40
14.4168265
50
144.6418112
51
144.9476484
0
ARC
8
DEFAULT_255_2_778
10
16.1242654
20
-5.0608065
40
10.6831573
50
144.9429017
51
145.2725931
0
ARC
8
DEFAULT_255_2_778
10
12.7309636
20
-2.7088612
40
6.5544596
50
145.2719435
51
145.5351612
0
ARC
8
DEFAULT_255_2_778
10
9.453867
20
-0.4602156
40
2.5800706
50
145.5226973
51
145.7489562
0
ARC
8
DEFAULT_255_2_778
10
41.5462941
20
-22.3862468
40
40.807622
50
145.3485374
51
146.9845587
0
ARC
8
DEFAULT_255_2_778
10
38.5753294
20
-20.3331864
40
37.1962941
50
143.7257323
51
145.3480157
0
ARC
8
DEFAULT_255_2_778
10
35.9549608
20
-18.4106992
40
33.9463266
50
142.1295478
51
143.7249789
0
ARC
8
DEFAULT_255_2_778
10
33.6556136
20
-16.6231095
40
31.0338579
50
140.5601196
51
142.1288196
0
ARC
8
DEFAULT_255_2_778
10
31.4043241
20
-14.7676597
40
28.1164979
50
138.6269942
51
140.5657759
0
ARC
8
DEFAULT_255_2_778
10
29.1037763
20
-12.7389961
40
25.0492529
50
136.4415139
51
138.6310851
0
ARC
8
DEFAULT_255_2_778
10
27.0118266
20
-10.7498555
40
22.1625708
50
134.2152783
51
136.4413119
0
ARC
8
DEFAULT_255_2_778
10
25.1322924
20
-8.8155004
40
19.4654659
50
131.6880041
51
134.2206532
0
ARC
8
DEFAULT_255_2_778
10
23.4137571
20
-6.8838758
40
16.8800191
50
128.8947889
51
131.6924503
0
ARC
8
DEFAULT_255_2_778
10
21.9279218
20
-5.0409681
40
14.512739
50
125.8900895
51
128.8976372
0
ARC
8
DEFAULT_255_2_778
10
20.6530189
20
-3.2757096
40
12.335238
50
122.4214467
51
125.8993689
0
ARC
8
DEFAULT_255_2_778
10
19.5710404
20
-1.568658
40
10.3141744
50
118.4235322
51
122.4319781
0
ARC
8
DEFAULT_255_2_778
10
18.70882
20
0.0281115
40
8.4994862
50
113.8164884
51
118.4353736
0
ARC
8
DEFAULT_255_2_778
10
18.0879701
20
1.4356395
40
6.9611139
50
108.7895295
51
113.8197098
0
ARC
8
DEFAULT_255_2_778
10
17.6631461
20
2.6944633
40
5.6325434
50
102.3947324
51
108.8228303
0
ARC
8
DEFAULT_255_2_778
10
17.4711845
20
3.532601
40
4.7727433
50
98.8205158
51
102.3036775
0
LINE
8
DEFAULT_255_2_778
10
16.9452336
20
8.7269997
11
17.0317336
21
8.8534997
0
LINE
8
DEFAULT_255_2_778
10
7.1349336
20
3.6059997
11
0.8431336
21
5.7213997
0
LINE
8
DEFAULT_255_2_778
10
0.8431336
20
5.7213997
11
1.5483336
21
4.1316997
0
LINE
8
DEFAULT_255_2_778
10
1.5483336
20
4.1316997
11
7.1617336
21
2.1896997
0
LINE
8
DEFAULT_255_2_778
10
16.9452336
20
8.7248997
11
16.9452336
21
8.7269997
0
LINE
8
DEFAULT_255_2_778
10
17.1978336
20
9.2127997
11
10.6203336
21
10.9150997
0
LINE
8
DEFAULT_255_2_778
10
0.2645336
20
6.8714997
11
6.9849336
21
4.8296997
0
LINE
8
DEFAULT_255_2_778
10
17.1978336
20
9.2127997
11
17.1978336
21
9.2127997
0
LINE
8
DEFAULT_255_2_778
10
6.4232336
20
9.2460997
11
6.4232336
21
9.2460997
0
LINE
8
DEFAULT_255_2_778
10
16.7388336
20
8.2486997
11
16.7986336
21
8.3949997
0
LINE
8
DEFAULT_255_2_778
10
7.3212336
20
0.9918997
11
2.1467336
21
2.9675997
0
LINE
8
DEFAULT_255_2_778
10
2.1467336
20
2.9675997
11
2.7587336
21
1.6374997
0
LINE
8
DEFAULT_255_2_778
10
2.7587336
20
1.6374997
11
7.3281336
21
-0.1516003
0
LINE
8
DEFAULT_255_2_778
10
16.7393336
20
8.2488997
11
16.7388336
21
8.2486997
0
ENDSEC
0
EOF