0
SECTION
2
HEADER
9
$MEASUREMENT
70
1
0
ENDSEC
0
SECTION
2
TABLES
0
TABLE
2
LTYPE
0
LTYPE
72
65
70
64
2
CONTINUOUS
3
______
73
0
40
0
0
ENDTAB
0
TABLE
2
LAYER
0
LAYER
2
DEFAULT_255_2_778
70
0
62
255
6
CONTINUOUS
0
ENDTAB
0
ENDSEC
0
SECTION
2
ENTITIES
0
LINE
8
DEFAULT_255_2_778
10
4.3305177
20
6.852659
11
0.2646177
21
-0.185241
0
LINE
8
DEFAULT_255_2_778
10
0.2646177
20
-0.185241
11
0.8287177
21
-0.185241
0
LINE
8
DEFAULT_255_2_778
10
0.8287177
20
-0.185241
11
4.3305177
21
5.845659
0
LINE
8
DEFAULT_255_2_778
10
4.3305177
20
5.845659
11
4.3305177
21
4.853459
0
LINE
8
DEFAULT_255_2_778
10
4.3305177
20
4.853459
11
1.4124177
21
-0.185241
0
LINE
8
DEFAULT_255_2_778
10
1.4124177
20
-0.185241
11
1.9960177
21
-0.185241
0
LINE
8
DEFAULT_255_2_778
10
1.9960177
20
-0.185241
11
4.3305177
21
3.841659
0
LINE
8
DEFAULT_255_2_778
10
4.3305177
20
3.841659
11
4.3305177
21
2.830159
0
LINE
8
DEFAULT_255_2_778
10
4.3305177
20
2.830159
11
2.5797177
21
-0.185241
0
LINE
8
DEFAULT_255_2_778
10
2.5797177
20
-0.185241
11
3.1634177
21
-0.185241
0
LINE
8
DEFAULT_255_2_778
10
3.1634177
20
-0.185241
11
4.3307177
21
1.818459
0
LINE
8
DEFAULT_255_2_778
10
4.3307177
20
1.818459
11
4.3307177
21
0.826259
0
LINE
8
DEFAULT_255_2_778
10
4.3307177
20
0.826259
11
3.7470177
21
-0.185241
0
LINE
8
DEFAULT_255_2_778
10
3.7470177
20
-0.185241
11
8.3966177
21
-0.185241
0
LINE
8
DEFAULT_255_2_778
10
8.3966177
20
-0.185241
11
4.3305177
21
6.852659
0
ARC
8
DEFAULT_255_2_778
10
14.8900226
20
2.2224971
40
1.3054922
50
150.6290865
51
180.3247585
0
ARC
8
DEFAULT_255_2_778
10
14.8271401
20
2.2513687
40
1.2365451
50
107.7558632
51
150.3658579
0
ARC
8
DEFAULT_255_2_778
10
14.8784777
20
2.0968614
40
1.3993496
50
89.7472192
51
107.8284672
0
ARC
8
DEFAULT_255_2_778
10
14.8917641
20
2.1338985
40
1.3623176
50
69.2031455
51
90.2991436
0
ARC
8
DEFAULT_255_2_778
10
14.9280971
20
2.2441587
40
1.2463518
50
2.8173874
51
68.964891
0
ARC
8
DEFAULT_255_2_778
10
14.822259
20
2.2247148
40
1.3530924
50
359.9950339
51
3.4194552
0
ARC
8
DEFAULT_255_2_778
10
14.8849692
20
2.218074
40
1.2903986
50
325.1606925
51
0.2896549
0
ARC
8
DEFAULT_255_2_778
10
14.9222599
20
2.1985728
40
1.2486628
50
287.2208202
51
324.9176096
0
ARC
8
DEFAULT_255_2_778
10
14.8805042
20
2.3310563
40
1.3875691
50
269.7789689
51
287.2481303
0
ARC
8
DEFAULT_255_2_778
10
14.8680325
20
2.3056862
40
1.3622072
50
249.2022871
51
270.2994279
0
ARC
8
DEFAULT_255_2_778
10
14.8317566
20
2.1954664
40
1.2462998
50
182.8142841
51
248.9621483
0
ARC
8
DEFAULT_255_2_778
10
14.9378693
20
2.2149769
40
1.3533178
50
179.9948947
51
183.4187446
0
ARC
8
DEFAULT_255_2_778
10
14.7930215
20
2.2224082
40
0.9235588
50
359.5464537
51
32.1750212
0
ARC
8
DEFAULT_255_2_778
10
14.8861213
20
2.2797404
40
0.8142277
50
32.2488302
51
85.3723126
0
ARC
8
DEFAULT_255_2_778
10
14.8754275
20
2.2045396
40
0.8900579
50
85.0767324
51
90.0177759
0
ARC
8
DEFAULT_255_2_778
10
14.8683334
20
2.2763629
40
0.8182631
50
89.5225868
51
121.2199023
0
ARC
8
DEFAULT_255_2_778
10
14.8982267
20
2.255355
40
0.8518496
50
122.2070239
51
172.1920843
0
ARC
8
DEFAULT_255_2_778
10
15.0142117
20
2.2251882
40
0.9709605
50
171.3582388
51
180.0348565
0
ARC
8
DEFAULT_255_2_778
10
14.9532692
20
2.2183816
40
0.910039
50
179.6086427
51
218.7910386
0
ARC
8
DEFAULT_255_2_778
10
14.8776635
20
2.1599043
40
0.8144763
50
218.9166973
51
266.1622852
0
ARC
8
DEFAULT_255_2_778
10
14.8844832
20
2.2181582
40
0.8730607
50
265.9716113
51
270.0110349
0
ARC
8
DEFAULT_255_2_778
10
14.8914582
20
2.1632434
40
0.8181742
50
269.5233253
51
301.2246031
0
ARC
8
DEFAULT_255_2_778
10
14.8608316
20
2.1849942
40
0.8527813
50
302.2267172
51
352.6431793
0
ARC
8
DEFAULT_255_2_778
10
14.7447595
20
2.2145648
40
0.9717921
50
351.7903455
51
0.0314072
0
ARC
8
DEFAULT_255_2_778
10
17.9701822
20
2.8024357
40
1.518646
50
228.7591374
51
245.6874053
0
ARC
8
DEFAULT_255_2_778
10
17.7481599
20
2.3516868
40
1.0166011
50
246.6315804
51
270.2756845
0
ARC
8
DEFAULT_255_2_778
10
17.7635515
20
1.9867902
40
0.6517773
50
269.0769249
51
289.0231013
0
ARC
8
DEFAULT_255_2_778
10
17.8761758
20
1.6841816
40
0.3290786
50
287.6582253
51
330.0981328
0
ARC
8
DEFAULT_255_2_778
10
17.917395
20
1.6476744
40
0.2753709
50
332.4080784
51
0.5873998
0
ARC
8
DEFAULT_255_2_778
10
17.9555369
20
1.6751671
40
0.2376991
50
356.3409909
51
56.2510005
0
ARC
8
DEFAULT_255_2_778
10
17.7447265
20
1.3893153
40
0.5927249
50
54.6579616
51
67.0216602
0
ARC
8
DEFAULT_255_2_778
10
17.4588819
20
0.7493351
40
1.2935815
50
66.4314051
51
71.4991691
0
ARC
8
DEFAULT_255_2_778
10
17.1798689
20
-0.0625042
40
2.1520116
50
71.3132844
51
73.4793884
0
ARC
8
DEFAULT_255_2_778
10
16.9269799
20
-0.9098657
40
3.036304
50
73.4512119
51
74.8807039
0
ARC
8
DEFAULT_255_2_778
10
16.6414
20
-1.9654064
40
4.1297946
50
74.875457
51
76.0334044
0
ARC
8
DEFAULT_255_2_778
10
18.2974993
20
4.9241099
40
2.9562784
50
251.2395964
51
257.1127557
0
ARC
8
DEFAULT_255_2_778
10
17.7292568
20
3.2763589
40
1.2133434
50
238.5288216
51
251.6229105
0
ARC
8
DEFAULT_255_2_778
10
17.3787663
20
2.7239289
40
0.559293
50
185.0030554
51
239.6073548
0
ARC
8
DEFAULT_255_2_778
10
17.7031841
20
2.7760562
40
0.8873358
50
179.8488206
51
186.5294643
0
ARC
8
DEFAULT_255_2_778
10
17.4898402
20
2.7925551
40
0.6740049
50
113.2425641
51
180.3959386
0
ARC
8
DEFAULT_255_2_778
10
17.6350064
20
2.5123253
40
0.9890408
50
93.044752
51
114.5634582
0
ARC
8
DEFAULT_255_2_778
10
17.6568937
20
2.3113129
40
1.1909845
50
89.9827934
51
93.5825793
0
ARC
8
DEFAULT_255_2_778
10
17.6705909
20
1.983014
40
1.5193421
50
75.2466751
51
90.503052
0
ARC
8
DEFAULT_255_2_778
10
17.720508
20
2.2181535
40
1.2792958
50
49.222174
51
74.7267451
0
ARC
8
DEFAULT_255_2_778
10
17.3834722
20
1.6003881
40
1.5747965
50
53.2073169
51
63.9373504
0
ARC
8
DEFAULT_255_2_778
10
17.5435446
20
1.913695
40
1.2230355
50
64.2251248
51
68.9126589
0
ARC
8
DEFAULT_255_2_778
10
17.6397366
20
2.1865324
40
0.9338981
50
68.3964403
51
86.4492634
0
ARC
8
DEFAULT_255_2_778
10
17.6571254
20
2.3472435
40
0.772454
50
86.9983203
51
89.9906534
0
ARC
8
DEFAULT_255_2_778
10
17.6479948
20
2.5546589
40
0.5651145
50
89.0614464
51
109.8418847
0
ARC
8
DEFAULT_255_2_778
10
17.5581974
20
2.7887709
40
0.3144612
50
108.9303401
51
149.109733
0
ARC
8
DEFAULT_255_2_778
10
17.5123834
20
2.8246368
40
0.2568349
50
150.7290268
51
180.2764674
0
ARC
8
DEFAULT_255_2_778
10
17.4975815
20
2.7972702
40
0.2425937
50
176.0935549
51
238.5046144
0
ARC
8
DEFAULT_255_2_778
10
17.7232536
20
3.1253483
40
0.6405831
50
236.6233935
51
248.4778505
0
ARC
8
DEFAULT_255_2_778
10
18.01963
20
3.8338329
40
1.4084867
50
247.8352495
51
252.1298411
0
ARC
8
DEFAULT_255_2_778
10
18.3214346
20
4.7522839
40
2.3752447
50
251.9994119
51
254.0934411
0
ARC
8
DEFAULT_255_2_778
10
18.6506053
20
5.9014764
40
3.5706502
50
254.0676337
51
255.4639178
0
ARC
8
DEFAULT_255_2_778
10
19.0728017
20
7.5268518
40
5.2499641
50
255.4559571
51
256.5115543
0
ARC
8
DEFAULT_255_2_778
10
17.3048234
20
0.051483
40
2.4317135
50
70.245482
51
77.0867621
0
ARC
8
DEFAULT_255_2_778
10
17.7364506
20
1.2354133
40
1.1715879
50
57.6505242
51
70.5422305
0
ARC
8
DEFAULT_255_2_778
10
18.0690196
20
1.7358978
40
0.5709785
50
3.111379
51
58.9706113
0
ARC
8
DEFAULT_255_2_778
10
17.7796387
20
1.6962786
40
0.8624133
50
359.9281792
51
4.696362
0
ARC
8
DEFAULT_255_2_778
10
17.9282589
20
1.6752319
40
0.7138692
50
332.3354873
51
0.8400061
0
ARC
8
DEFAULT_255_2_778
10
17.9408977
20
1.6905001
40
0.7100289
50
290.0291647
51
330.7705502
0
ARC
8
DEFAULT_255_2_778
10
17.7886029
20
2.0592991
40
1.1088099
50
272.3914527
51
290.8957921
0
ARC
8
DEFAULT_255_2_778
10
17.7629609
20
2.3425996
40
1.3930021
50
269.9831559
51
272.959009
0
ARC
8
DEFAULT_255_2_778
10
17.7515269
20
2.5321095
40
1.5825504
50
270.000061
51
270.3991412
0
ARC
8
DEFAULT_255_2_778
10
17.751434
20
2.5262788
40
1.5767198
50
228.7026611
51
270.0034369
0
ARC
8
DEFAULT_255_2_778
10
20.5546777
20
2.2223806
40
1.3295462
50
152.3541847
51
180.3138592
0
ARC
8
DEFAULT_255_2_778
10
20.4566043
20
2.2713451
40
1.2199517
50
104.669383
51
152.2540483
0
ARC
8
DEFAULT_255_2_778
10
20.4927825
20
2.1407652
40
1.3554382
50
89.8322313
51
104.7509966
0
ARC
8
DEFAULT_255_2_778
10
20.5058278
20
1.8846116
40
1.6116115
50
79.4755675
51
90.3226855
0
ARC
8
DEFAULT_255_2_778
10
20.5728147
20
2.2512792
40
1.2388773
50
62.7771386
51
79.4240637
0
ARC
8
DEFAULT_255_2_778
10
20.4261696
20
2.0102421
40
1.5204324
50
46.5423176
51
62.0182122
0
ARC
8
DEFAULT_255_2_778
10
20.4583701
20
2.0663905
40
1.0313563
50
44.4392618
51
83.4818655
0
ARC
8
DEFAULT_255_2_778
10
20.4973327
20
2.1444781
40
0.9498196
50
85.2825786
51
90.0350648
0
ARC
8
DEFAULT_255_2_778
10
20.4902407
20
2.3116856
40
0.782639
50
89.5233565
51
128.570403
0
ARC
8
DEFAULT_255_2_778
10
20.5434439
20
2.2623434
40
0.8544566
50
129.2968252
51
169.1850152
0
ARC
8
DEFAULT_255_2_778
10
20.6771857
20
2.2258164
40
0.9927352
50
168.5626544
51
180.0818925
0
ARC
8
DEFAULT_255_2_778
10
20.6349166
20
2.2173302
40
0.9504915
50
179.5739781
51
209.48612
0
ARC
8
DEFAULT_255_2_778
10
20.4946502
20
2.130648
40
0.7857532
50
209.0184307
51
270.1532129
0
ARC
8
DEFAULT_255_2_778
10
20.5049837
20
2.2567531
40
0.9118928
50
269.4827429
51
285.6882502
0
ARC
8
DEFAULT_255_2_778
10
20.4527437
20
2.337834
40
1.0044798
50
287.3066632
51
311.3858322
0
ARC
8
DEFAULT_255_2_778
10
19.5723478
20
3.4466989
40
2.4195741
50
309.6673177
51
312.4121516
0
ARC
8
DEFAULT_255_2_778
10
20.5020191
20
2.2466404
40
1.3126124
50
283.2721699
51
318.4370484
0
ARC
8
DEFAULT_255_2_778
10
20.4913997
20
2.4275456
40
1.4914501
50
269.7882444
51
282.0736523
0
ARC
8
DEFAULT_255_2_778
10
20.4804213
20
2.7577864
40
1.8216887
50
269.9978016
51
270.171927
0
ARC
8
DEFAULT_255_2_778
10
20.4914135
20
2.2192894
40
1.2832396
50
243.2457516
51
269.5060788
0
ARC
8
DEFAULT_255_2_778
10
20.486407
20
2.1912583
40
1.255982
50
188.8289036
51
242.874049
0
ARC
8
DEFAULT_255_2_778
10
20.5876142
20
2.2162898
40
1.3598631
50
179.9617547
51
189.2165837
0
LINE
8
DEFAULT_255_2_778
10
8.5362514
20
3.4580975
11
10.3716514
21
3.4580975
0
LINE
8
DEFAULT_255_2_778
10
10.3716514
20
3.4580975
11
10.3716514
21
3.0659975
0
LINE
8
DEFAULT_255_2_778
10
10.3716514
20
3.0659975
11
8.9757514
21
3.0659975
0
LINE
8
DEFAULT_255_2_778
10
8.9757514
20
3.0659975
11
8.9757514
21
2.4256975
0
LINE
8
DEFAULT_255_2_778
10
8.9757514
20
2.4256975
11
10.2187514
21
2.4256975
0
LINE
8
DEFAULT_255_2_778
10
10.2187514
20
2.4256975
11
10.2187514
21
2.0335975
0
LINE
8
DEFAULT_255_2_778
10
10.2187514
20
2.0335975
11
8.9757514
21
2.0335975
0
LINE
8
DEFAULT_255_2_778
10
8.9757514
20
2.0335975
11
8.9757514
21
1.3739975
0
LINE
8
DEFAULT_255_2_778
10
8.9757514
20
1.3739975
11
10.3907514
21
1.3739975
0
LINE
8
DEFAULT_255_2_778
10
10.3907514
20
1.3739975
11
10.3907514
21
0.9818975
0
LINE
8
DEFAULT_255_2_778
10
10.3907514
20
0.9818975
11
8.5386514
21
0.9818975
0
LINE
8
DEFAULT_255_2_778
10
8.5386514
20
0.9818975
11
8.5362514
21
3.4580975
0
LINE
8
DEFAULT_255_2_778
10
13.1923514
20
3.4580975
11
12.3319514
21
2.2534975
0
LINE
8
DEFAULT_255_2_778
10
12.3319514
20
2.2534975
11
13.2307514
21
0.9913975
0
LINE
8
DEFAULT_255_2_778
10
13.2307514
20
0.9913975
11
12.7148514
21
0.9913975
0
LINE
8
DEFAULT_255_2_778
10
12.7148514
20
0.9913975
11
12.0649514
21
1.9377975
0
LINE
8
DEFAULT_255_2_778
10
12.0649514
20
1.9377975
11
11.4149514
21
0.9913975
0
LINE
8
DEFAULT_255_2_778
10
11.4149514
20
0.9913975
11
10.9174514
21
0.9913975
0
LINE
8
DEFAULT_255_2_778
10
10.9174514
20
0.9913975
11
11.8064514
21
2.2534975
0
LINE
8
DEFAULT_255_2_778
10
11.8064514
20
2.2534975
11
10.9460514
21
3.4705975
0
LINE
8
DEFAULT_255_2_778
10
10.9460514
20
3.4705975
11
11.4620514
21
3.4705975
0
LINE
8
DEFAULT_255_2_778
10
11.4620514
20
3.4705975
11
12.0739514
21
2.5814975
0
LINE
8
DEFAULT_255_2_778
10
12.0739514
20
2.5814975
11
12.6957514
21
3.4705975
0
LINE
8
DEFAULT_255_2_778
10
12.6957514
20
3.4705975
11
13.1931514
21
3.4705975
0
LINE
8
DEFAULT_255_2_778
10
13.1931514
20
3.4705975
11
13.1923514
21
3.4580975
0
LINE
8
DEFAULT_255_2_778
10
13.5845514
20
2.2150975
11
13.5845514
21
2.2150975
0
LINE
8
DEFAULT_255_2_778
10
15.7165514
20
2.2150975
11
15.7165514
21
2.2150975
0
LINE
8
DEFAULT_255_2_778
10
16.7108514
20
1.3450975
11
16.9690514
21
1.6604975
0
LINE
8
DEFAULT_255_2_778
10
18.1927514
20
1.6504975
11
18.1927514
21
1.6599975
0
LINE
8
DEFAULT_255_2_778
10
16.8158514
20
2.7783975
11
16.8158514
21
2.7878975
0
LINE
8
DEFAULT_255_2_778
10
18.5560514
20
3.1868975
11
18.3266514
21
2.8614975
0
LINE
8
DEFAULT_255_2_778
10
17.2555514
20
2.8233975
11
17.2555514
21
2.8137975
0
LINE
8
DEFAULT_255_2_778
10
18.6420514
20
1.6951975
11
18.6420514
21
1.6856975
0
LINE
8
DEFAULT_255_2_778
10
16.7108514
20
1.3416975
11
16.7108514
21
1.3450975
0
LINE
8
DEFAULT_255_2_778
10
21.4719514
20
3.1138975
11
21.1947514
21
2.7884975
0
LINE
8
DEFAULT_255_2_778
10
21.2042514
20
1.6602975
11
21.4841514
21
1.3757975
0
LINE
8
DEFAULT_255_2_778
10
19.2277514
20
2.2171975
11
19.2251514
21
2.2150975
0
LINE
8
DEFAULT_255_2_778
10
23.0206514
20
3.4771975
11
23.4222514
21
3.4771975
0
LINE
8
DEFAULT_255_2_778
10
23.4222514
20
3.4771975
11
24.5123514
21
0.9913975
0
LINE
8
DEFAULT_255_2_778
10
24.5123514
20
0.9913975
11
24.0506514
21
0.9913975
0
LINE
8
DEFAULT_255_2_778
10
24.0506514
20
0.9913975
11
23.8019514
21
1.5840975
0
LINE
8
DEFAULT_255_2_778
10
23.8019514
20
1.5840975
11
22.6377514
21
1.5840975
0
LINE
8
DEFAULT_255_2_778
10
22.6377514
20
1.5840975
11
22.3795514
21
0.9913975
0
LINE
8
DEFAULT_255_2_778
10
22.3795514
20
0.9913975
11
21.9302514
21
0.9913975
0
LINE
8
DEFAULT_255_2_778
10
21.9302514
20
0.9913975
11
23.0206514
21
3.4771975
0
LINE
8
DEFAULT_255_2_778
10
23.6423514
20
1.9689975
11
23.2121514
21
2.9537975
0
LINE
8
DEFAULT_255_2_778
10
23.2121514
20
2.9537975
11
22.7888514
21
1.9689975
0
LINE
8
DEFAULT_255_2_778
10
22.7888514
20
1.9689975
11
23.6423514
21
1.9689975
0
LINE
8
DEFAULT_255_2_778
10
25.1338514
20
3.4604975
11
25.5640514
21
3.4604975
0
LINE
8
DEFAULT_255_2_778
10
25.5640514
20
3.4604975
11
25.5640514
21
1.3861975
0
LINE
8
DEFAULT_255_2_778
10
25.5640514
20
1.3861975
11
26.8642514
21
1.3861975
0
LINE
8
DEFAULT_255_2_778
10
26.8642514
20
1.3861975
11
26.8642514
21
0.9939975
0
LINE
8
DEFAULT_255_2_778
10
26.8642514
20
0.9939975
11
25.1338514
21
0.9939975
0
LINE
8
DEFAULT_255_2_778
10
25.1338514
20
0.9939975
11
25.1338514
21
3.4604975
0
LINE
8
DEFAULT_255_2_778
10
27.5145514
20
3.4604975
11
29.3502514
21
3.4604975
0
LINE
8
DEFAULT_255_2_778
10
29.3502514
20
3.4604975
11
29.3502514
21
3.0683975
0
LINE
8
DEFAULT_255_2_778
10
29.3502514
20
3.0683975
11
27.9542514
21
3.0683975
0
LINE
8
DEFAULT_255_2_778
10
27.9542514
20
3.0683975
11
27.9542514
21
2.4280975
0
LINE
8
DEFAULT_255_2_778
10
27.9542514
20
2.4280975
11
29.1972514
21
2.4280975
0
LINE
8
DEFAULT_255_2_778
10
29.1972514
20
2.4280975
11
29.1972514
21
2.0359975
0
LINE
8
DEFAULT_255_2_778
10
29.1972514
20
2.0359975
11
27.9542514
21
2.0359975
0
LINE
8
DEFAULT_255_2_778
10
27.9542514
20
2.0359975
11
27.9542514
21
1.3763975
0
LINE
8
DEFAULT_255_2_778
10
27.9542514
20
1.3763975
11
29.3687514
21
1.3763975
0
LINE
8
DEFAULT_255_2_778
10
29.3687514
20
1.3763975
11
29.3687514
21
0.9789975
0
LINE
8
DEFAULT_255_2_778
10
29.3687514
20
0.9789975
11
27.5166514
21
0.9789975
0
LINE
8
DEFAULT_255_2_778
10
27.5166514
20
0.9789975
11
27.5145514
21
3.4604975
0
ENDSEC
0
EOF