0
SECTION
2
HEADER
9
$MEASUREMENT
70
1
0
ENDSEC
0
SECTION
2
TABLES
0
TABLE
2
LTYPE
0
LTYPE
72
65
70
64
2
CONTINUOUS
3
______
73
0
40
0
0
ENDTAB
0
TABLE
2
LAYER
0
LAYER
2
DEFAULT_255_2_778
70
0
62
255
6
CONTINUOUS
0
ENDTAB
0
ENDSEC
0
SECTION
2
ENTITIES
0
ARC
8
DEFAULT_255_2_778
10
8.2634185
20
5.7953519
40
1.2645001
50
317.4581513
51
325.3049255
0
ARC
8
DEFAULT_255_2_778
10
10.7798608
20
4.3641973
40
1.6391927
50
90.0128649
51
154.2790797
0
ARC
8
DEFAULT_255_2_778
10
10.7795028
20
4.3572483
40
1.6461417
50
89.3602933
51
90.0003513
0
ARC
8
DEFAULT_255_2_778
10
10.8815654
20
3.2112714
40
2.7932697
50
90.0077665
51
91.7167856
0
ARC
8
DEFAULT_255_2_778
10
10.8975625
20
3.7455226
40
2.2590779
50
76.2068453
51
90.4153341
0
ARC
8
DEFAULT_255_2_778
10
11.0553154
20
4.3514963
40
1.6329912
50
36.3600325
51
76.5131156
0
ARC
8
DEFAULT_255_2_778
10
10.8003453
20
4.1546824
40
1.9550169
50
28.1022821
51
36.5749967
0
ARC
8
DEFAULT_255_2_778
10
9.9132799
20
3.6396287
40
2.9803424
50
8.4743342
51
28.8036801
0
ARC
8
DEFAULT_255_2_778
10
9.9098868
20
3.6390818
40
2.983779
50
359.9998309
51
8.4751187
0
ARC
8
DEFAULT_255_2_778
10
9.9155826
20
3.6390476
40
2.9780831
50
359.5530738
51
0.0004896
0
ARC
8
DEFAULT_255_2_778
10
9.914048
20
3.6387598
40
2.9796154
50
337.4227415
51
359.5588372
0
ARC
8
DEFAULT_255_2_778
10
9.9077572
20
3.6414135
40
2.9864427
50
334.2120726
51
337.422067
0
ARC
8
DEFAULT_255_2_778
10
11.0592782
20
3.0396326
40
1.688297
50
286.5423449
51
335.5999128
0
ARC
8
DEFAULT_255_2_778
10
10.9129463
20
3.4312391
40
2.1055556
50
269.783848
51
287.3253973
0
ARC
8
DEFAULT_255_2_778
10
10.9061427
20
3.6532272
40
2.327529
50
263.6211165
51
269.9719437
0
ARC
8
DEFAULT_255_2_778
10
10.9145441
20
3.7373263
40
2.4120411
50
261.1986922
51
263.6447345
0
ARC
8
DEFAULT_255_2_778
10
10.6859975
20
3.0064975
40
1.6587725
50
208.0142244
51
265.140605
0
ARC
8
DEFAULT_255_2_778
10
11.4047613
20
3.3569562
40
2.160967
50
188.7911891
51
200.6238774
0
ARC
8
DEFAULT_255_2_778
10
10.8507504
20
3.1439076
40
1.5674244
50
200.4683495
51
219.4431284
0
ARC
8
DEFAULT_255_2_778
10
10.7092562
20
3.0468247
40
1.3965564
50
220.0552623
51
253.7952553
0
ARC
8
DEFAULT_255_2_778
10
10.8501621
20
3.4661711
40
1.8386559
50
253.2255889
51
263.3764508
0
ARC
8
DEFAULT_255_2_778
10
10.8918558
20
3.1805156
40
1.5614881
50
260.6467601
51
269.4100094
0
ARC
8
DEFAULT_255_2_778
10
10.8914637
20
3.1647577
40
1.5457271
50
269.4185267
51
270.0012602
0
ARC
8
DEFAULT_255_2_778
10
10.8902892
20
3.1751379
40
1.5561078
50
270.0444974
51
336.6026885
0
ARC
8
DEFAULT_255_2_778
10
10.8765795
20
3.1801564
40
1.5706833
50
336.6332681
51
339.4258234
0
ARC
8
DEFAULT_255_2_778
10
9.9056999
20
3.652543
40
2.6475742
50
337.2380385
51
359.5849387
0
ARC
8
DEFAULT_255_2_778
10
9.8999047
20
3.6529105
40
2.6533719
50
359.5779103
51
359.9999941
0
ARC
8
DEFAULT_255_2_778
10
9.8978201
20
3.6527795
40
2.6554565
50
0.0028197
51
25.784916
0
ARC
8
DEFAULT_255_2_778
10
10.8972848
20
4.1859041
40
1.5242719
50
24.0825659
51
89.9681014
0
ARC
8
DEFAULT_255_2_778
10
10.8983153
20
4.1818002
40
1.5283756
50
90.0068185
51
98.0842363
0
ARC
8
DEFAULT_255_2_778
10
10.7910141
20
4.2146413
40
1.4842537
50
94.1585246
51
163.8665594
0
ARC
8
DEFAULT_255_2_778
10
10.8023094
20
4.2115913
40
1.4959516
50
163.8745568
51
165.0073273
0
ARC
8
DEFAULT_255_2_778
10
16.7037349
20
2.7628266
40
7.572344
50
165.9700156
51
172.5635569
0
ARC
8
DEFAULT_255_2_778
10
17.8801257
20
3.1182969
40
1.7772386
50
324.1198694
51
353.3987383
0
ARC
8
DEFAULT_255_2_778
10
17.8745189
20
3.1208207
40
1.7832611
50
277.3885965
51
324.1597497
0
ARC
8
DEFAULT_255_2_778
10
17.8745279
20
3.1334802
40
1.7958151
50
270.9014753
51
277.3363686
0
ARC
8
DEFAULT_255_2_778
10
17.7530506
20
4.3030942
40
2.9689849
50
271.4652454
51
272.8907511
0
ARC
8
DEFAULT_255_2_778
10
17.7563191
20
4.1746836
40
2.8405326
50
270.0049985
51
271.4655702
0
ARC
8
DEFAULT_255_2_778
10
17.7477867
20
3.7826878
40
2.4485525
50
260.2208899
51
270.2054547
0
ARC
8
DEFAULT_255_2_778
10
17.6614576
20
3.2908732
40
1.9492216
50
246.4224578
51
260.2661562
0
ARC
8
DEFAULT_255_2_778
10
17.5663445
20
3.0665737
40
1.7056044
50
222.9081702
51
246.3369803
0
ARC
8
DEFAULT_255_2_778
10
17.8594903
20
3.2974184
40
2.0777067
50
194.3456299
51
222.0670625
0
ARC
8
DEFAULT_255_2_778
10
18.5695134
20
3.5186981
40
2.820679
50
185.4277783
51
195.126822
0
ARC
8
DEFAULT_255_2_778
10
18.8043505
20
3.6310038
40
3.0663953
50
182.977297
51
187.1019862
0
ARC
8
DEFAULT_255_2_778
10
18.8040819
20
3.6309884
40
3.0661262
50
179.999987
51
182.9772707
0
ARC
8
DEFAULT_255_2_778
10
18.8046582
20
3.6310062
40
3.0667025
50
154.7185629
51
180.0003198
0
ARC
8
DEFAULT_255_2_778
10
17.7275795
20
4.1293369
40
1.8799891
50
124.0180694
51
154.4326452
0
ARC
8
DEFAULT_255_2_778
10
17.7306055
20
4.1268448
40
1.8837481
50
90.0209922
51
124.051951
0
ARC
8
DEFAULT_255_2_778
10
17.7297078
20
4.1212949
40
1.8892978
50
81.9958841
51
89.9937039
0
ARC
8
DEFAULT_255_2_778
10
17.8409183
20
4.198825
40
1.7997808
50
48.9393292
51
85.1596975
0
ARC
8
DEFAULT_255_2_778
10
17.8422967
20
4.1980781
40
1.7994391
50
13.5864143
51
48.988044
0
ARC
8
DEFAULT_255_2_778
10
10.4922266
20
2.707686
40
9.2980954
50
5.553355
51
11.8735212
0
ARC
8
DEFAULT_255_2_778
10
18.5095234
20
3.4386172
40
2.4112624
50
175.9840648
51
179.2348952
0
ARC
8
DEFAULT_255_2_778
10
18.4586324
20
3.4396465
40
2.3603621
50
179.2433847
51
179.9994269
0
ARC
8
DEFAULT_255_2_778
10
18.2878038
20
3.4329166
40
2.1895438
50
179.8232723
51
194.7438189
0
ARC
8
DEFAULT_255_2_778
10
17.9896344
20
3.351923
40
1.880581
50
194.6693801
51
213.177357
0
ARC
8
DEFAULT_255_2_778
10
17.7112132
20
3.1603067
40
1.54271
50
212.8795687
51
243.1552972
0
ARC
8
DEFAULT_255_2_778
10
17.6312039
20
3.0277724
40
1.3883761
50
243.6314548
51
255.7044821
0
ARC
8
DEFAULT_255_2_778
10
17.8177415
20
3.8263479
40
2.2083453
50
256.1306426
51
261.7285438
0
ARC
8
DEFAULT_255_2_778
10
17.7862908
20
3.6082852
40
1.9880264
50
261.7214072
51
268.0910494
0
ARC
8
DEFAULT_255_2_778
10
17.7804225
20
3.4820896
40
1.8617062
50
268.1421756
51
269.9957846
0
ARC
8
DEFAULT_255_2_778
10
17.7901478
20
3.2579851
40
1.6376313
50
269.6549485
51
288.7367642
0
ARC
8
DEFAULT_255_2_778
10
17.8442021
20
3.0779824
40
1.4498198
50
288.9988125
51
326.1689422
0
ARC
8
DEFAULT_255_2_778
10
17.5906412
20
3.2549152
40
1.7589648
50
325.9798205
51
340.7731217
0
ARC
8
DEFAULT_255_2_778
10
17.3702222
20
3.3415976
40
1.995656
50
340.5072251
51
341.9330105
0
ARC
8
DEFAULT_255_2_778
10
19.7508699
20
2.5951517
40
0.4999296
50
151.1263556
51
165.2200704
0
ARC
8
DEFAULT_255_2_778
10
19.484802
20
2.7510564
40
0.191823
50
87.6469302
51
153.5300032
0
ARC
8
DEFAULT_255_2_778
10
19.487686
20
2.5358314
40
0.406917
50
77.6279884
51
89.2971171
0
ARC
8
DEFAULT_255_2_778
10
19.4126496
20
2.1711001
40
0.7792705
50
72.4228257
51
77.984795
0
ARC
8
DEFAULT_255_2_778
10
17.0468025
20
3.8785064
40
2.3130828
50
0.9284552
51
14.853069
0
ARC
8
DEFAULT_255_2_778
10
17.445077
20
3.9872886
40
1.9002333
50
14.7610051
51
32.5718006
0
ARC
8
DEFAULT_255_2_778
10
17.7816665
20
4.2152408
40
1.4939039
50
32.1539664
51
66.8515495
0
ARC
8
DEFAULT_255_2_778
10
17.8245917
20
4.2742143
40
1.4228972
50
67.5073506
51
89.6661896
0
ARC
8
DEFAULT_255_2_778
10
17.8009636
20
3.7335288
40
1.9638179
50
89.0687291
51
89.9989277
0
ARC
8
DEFAULT_255_2_778
10
17.7913758
20
3.9424298
40
1.7549433
50
89.685775
51
108.6112031
0
ARC
8
DEFAULT_255_2_778
10
17.7505601
20
4.0978312
40
1.5946797
50
109.0033451
51
154.4796129
0
ARC
8
DEFAULT_255_2_778
10
18.1136619
20
3.9036917
40
2.0060837
50
153.9437529
51
169.5244881
0
ARC
8
DEFAULT_255_2_778
10
18.4958007
20
3.8258577
40
2.396015
50
169.3557066
51
177.8442258
0
ARC
8
DEFAULT_255_2_778
10
21.9173078
20
2.9553324
40
1.2806187
50
182.8576571
51
245.6983695
0
ARC
8
DEFAULT_255_2_778
10
22.1968061
20
3.5796153
40
1.9646109
50
245.7620984
51
269.5518678
0
ARC
8
DEFAULT_255_2_778
10
22.1969286
20
3.5813365
40
1.966333
50
269.5486892
51
270.000731
0
ARC
8
DEFAULT_255_2_778
10
22.1970967
20
3.5802646
40
1.9652613
50
269.9958315
51
297.2546909
0
ARC
8
DEFAULT_255_2_778
10
22.7821144
20
2.5327956
40
0.7672393
50
294.2375175
51
359.9727815
0
ARC
8
DEFAULT_255_2_778
10
22.7791856
20
2.5324087
40
0.770168
50
0.0016698
51
4.1010122
0
ARC
8
DEFAULT_255_2_778
10
22.8481268
20
2.6257926
40
0.7003032
50
356.8644619
51
359.9983182
0
ARC
8
DEFAULT_255_2_778
10
22.8525188
20
2.625389
40
0.6959112
50
0.0315323
51
71.0003248
0
ARC
8
DEFAULT_255_2_778
10
20.8274871
20
-3.0852054
40
6.7548983
50
70.5291232
51
76.0608965
0
LINE
8
DEFAULT_255_2_778
10
22.4546778
20
3.4707766
11
22.4441889
21
3.4735603
0
ARC
8
DEFAULT_255_2_778
10
24.7223625
20
12.348149
40
9.1623359
50
252.6899627
51
255.6026258
0
ARC
8
DEFAULT_255_2_778
10
24.1724621
20
11.2418028
40
7.9448924
50
245.7265576
51
254.1022192
0
ARC
8
DEFAULT_255_2_778
10
21.2463611
20
4.6587306
40
0.7419242
50
203.8400533
51
242.7263928
0
ARC
8
DEFAULT_255_2_778
10
21.5771567
20
4.8239563
40
1.1114136
50
181.8464225
51
204.7384156
0
ARC
8
DEFAULT_255_2_778
10
21.6779043
20
4.835247
40
1.2124993
50
179.9994644
51
182.2262895
0
ARC
8
DEFAULT_255_2_778
10
21.6795266
20
4.8352553
40
1.2141216
50
177.810735
51
179.9998571
0
ARC
8
DEFAULT_255_2_778
10
21.502938
20
4.8654754
40
1.0367728
50
135.906654
51
179.1069013
0
ARC
8
DEFAULT_255_2_778
10
21.3338587
20
4.9959216
40
0.8249186
50
117.9843653
51
134.2420431
0
ARC
8
DEFAULT_255_2_778
10
22.0761886
20
3.7238038
40
2.2973669
50
96.3703913
51
119.4464127
0
ARC
8
DEFAULT_255_2_778
10
22.076762
20
3.7199212
40
2.3012891
50
89.9998163
51
96.3738557
0
ARC
8
DEFAULT_255_2_778
10
22.0768135
20
3.7255747
40
2.2956356
50
89.7412968
51
90.0011002
0
ARC
8
DEFAULT_255_2_778
10
22.077043
20
3.7229775
40
2.2982316
50
64.9413702
51
89.7473092
0
ARC
8
DEFAULT_255_2_778
10
22.0741312
20
3.7166405
40
2.3052053
50
62.3338491
51
64.9425222
0
ARC
8
DEFAULT_255_2_778
10
22.5845198
20
4.7451912
40
1.1575495
50
0.0018718
51
61.0695518
0
ARC
8
DEFAULT_255_2_778
10
22.5802469
20
4.7453462
40
1.1618227
50
351.7277774
51
359.9942192
0
ARC
8
DEFAULT_255_2_778
10
23.426424
20
4.5721585
40
0.0302642
50
11.4904412
51
52.8185677
0
ARC
8
DEFAULT_255_2_778
10
22.7721489
20
3.9306787
40
0.9462328
50
44.7014491
51
44.7902419
0
ARC
8
DEFAULT_255_2_778
10
23.4632175
20
4.6235062
40
0.0326768
50
192.224242
51
233.2837618
0
ARC
8
DEFAULT_255_2_778
10
22.1034169
20
4.5736311
40
1.3285593
50
1.8528618
51
15.0231887
0
ARC
8
DEFAULT_255_2_778
10
22.4320883
20
4.6636911
40
0.9877787
50
14.9195394
51
36.794343
0
ARC
8
DEFAULT_255_2_778
10
22.3803702
20
4.5884288
40
1.0746713
50
38.3562866
51
75.2118914
0
ARC
8
DEFAULT_255_2_778
10
22.1475936
20
3.8412375
40
1.8568457
50
74.1519331
51
89.6790868
0
ARC
8
DEFAULT_255_2_778
10
22.1229502
20
3.3670412
40
2.3312764
50
89.1387029
51
90.0013966
0
ARC
8
DEFAULT_255_2_778
10
22.1254241
20
3.1676756
40
2.5306432
50
90.057297
51
94.958262
0
ARC
8
DEFAULT_255_2_778
10
22.1397046
20
2.9751358
40
2.7236977
50
94.9074778
51
95.5669578
0
ARC
8
DEFAULT_255_2_778
10
22.1053135
20
3.7115091
40
1.9878095
50
96.639428
51
117.0933769
0
ARC
8
DEFAULT_255_2_778
10
21.4802452
20
4.8675363
40
0.6746223
50
114.54689
51
179.968995
0
ARC
8
DEFAULT_255_2_778
10
21.4826262
20
4.8679377
40
0.6770033
50
180.0030695
51
185.2672921
0
ARC
8
DEFAULT_255_2_778
10
21.4830441
20
4.8069809
40
0.6745635
50
180.1013801
51
250.5821064
0
ARC
8
DEFAULT_255_2_778
10
23.9183729
20
11.7829502
40
8.0634019
50
250.7412457
51
256.2008141
0
ARC
8
DEFAULT_255_2_778
10
128.4361629
20
410.567061
40
420.3156955
50
255.3306326
51
255.333874
0
ARC
8
DEFAULT_255_2_778
10
16.8601382
20
-15.9662028
40
20.569651
50
74.5966868
51
75.4777602
0
ARC
8
DEFAULT_255_2_778
10
22.8668734
20
2.6744386
40
1.0158785
50
2.7504955
51
71.8347979
0
ARC
8
DEFAULT_255_2_778
10
22.8104801
20
2.5634133
40
1.0829525
50
0.0061627
51
8.4841338
0
ARC
8
DEFAULT_255_2_778
10
22.8099419
20
2.5644871
40
1.0834912
50
296.8010594
51
359.9493797
0
ARC
8
DEFAULT_255_2_778
10
22.4035011
20
3.1999241
40
1.8355148
50
286.8321626
51
299.1823696
0
ARC
8
DEFAULT_255_2_778
10
22.2356498
20
3.7521398
40
2.4126766
50
274.7527541
51
286.8501027
0
ARC
8
DEFAULT_255_2_778
10
22.2002123
20
4.0689927
40
2.7313912
50
269.9849423
51
274.942855
0
ARC
8
DEFAULT_255_2_778
10
22.1994945
20
4.2403851
40
2.9027835
50
269.9263235
51
270
0
ARC
8
DEFAULT_255_2_778
10
22.1937381
20
4.028766
40
2.6911626
50
255.212766
51
270.0430845
0
ARC
8
DEFAULT_255_2_778
10
22.040049
20
3.4481465
40
2.090547
50
243.6946305
51
255.2239273
0
ARC
8
DEFAULT_255_2_778
10
21.7674305
20
2.9026362
40
1.4807172
50
229.6816675
51
243.7968546
0
ARC
8
DEFAULT_255_2_778
10
21.5797926
20
2.6675911
40
1.1801309
50
225.7481752
51
229.2439579
0
ARC
8
DEFAULT_255_2_778
10
21.8205566
20
2.8804878
40
1.500823
50
180.025482
51
224.8360209
0
ARC
8
DEFAULT_255_2_778
10
21.824627
20
2.8797929
40
1.5048933
50
179.5433313
51
179.9989552
0
ARC
8
DEFAULT_255_2_778
10
27.3569939
20
4.5686427
40
0.2773452
50
1.9308317
51
16.1496419
0
ARC
8
DEFAULT_255_2_778
10
28.0479923
20
4.76416
40
0.4407898
50
189.9116292
51
195.5780618
0
ARC
8
DEFAULT_255_2_778
10
26.6350517
20
4.6674127
40
0.9789525
50
1.221835
51
79.3136357
0
ARC
8
DEFAULT_255_2_778
10
26.2746439
20
3.7403389
40
1.9652481
50
73.9926631
51
89.141145
0
ARC
8
DEFAULT_255_2_778
10
26.2745821
20
3.7393267
40
1.9662612
50
89.1397861
51
89.9999641
0
ARC
8
DEFAULT_255_2_778
10
26.2745357
20
3.739581
40
1.9660069
50
89.9986124
51
111.5159807
0
ARC
8
DEFAULT_255_2_778
10
25.7646784
20
4.8308011
40
0.7674194
50
105.9741666
51
179.5605323
0
ARC
8
DEFAULT_255_2_778
10
25.7111087
20
4.8117803
40
0.7142615
50
178.0016321
51
179.9986265
0
ARC
8
DEFAULT_255_2_778
10
25.7032721
20
4.8120061
40
0.7064249
50
180.0169268
51
256.4350239
0
ARC
8
DEFAULT_255_2_778
10
26.0154551
20
0.0610812
40
3.8182504
50
69.6529649
51
76.5034926
0
ARC
8
DEFAULT_255_2_778
10
26.9613252
20
2.5791355
40
1.1284855
50
1.7545479
51
70.2272195
0
ARC
8
DEFAULT_255_2_778
10
26.9584367
20
2.5810318
40
1.1313163
50
0.0001364
51
1.654077
0
ARC
8
DEFAULT_255_2_778
10
26.9653606
20
2.5812385
40
1.1243924
50
292.8111341
51
359.9896018
0
ARC
8
DEFAULT_255_2_778
10
26.3652003
20
3.8247011
40
2.5042906
50
269.9961605
51
294.4388903
0
ARC
8
DEFAULT_255_2_778
10
26.3650325
20
3.8014395
40
2.4810291
50
269.8159544
51
269.9999998
0
ARC
8
DEFAULT_255_2_778
10
26.3648995
20
3.8249686
40
2.5045578
50
246.7161565
51
269.8207263
0
ARC
8
DEFAULT_255_2_778
10
25.9313125
20
2.8146264
40
1.4051093
50
180.0180869
51
246.6713069
0
ARC
8
DEFAULT_255_2_778
10
25.9384713
20
2.8141563
40
1.4122682
50
176.9667453
51
179.9989258
0
ARC
8
DEFAULT_255_2_778
10
26.4283129
20
3.2220292
40
1.6415904
50
191.7088487
51
247.3101512
0
ARC
8
DEFAULT_255_2_778
10
26.4277869
20
3.2199935
40
1.6395093
50
247.29967
51
268.4566258
0
ARC
8
DEFAULT_255_2_778
10
26.427957
20
3.2226514
40
1.642171
50
268.4531892
51
269.9997835
0
ARC
8
DEFAULT_255_2_778
10
26.4281525
20
3.2217538
40
1.6412733
50
269.9929576
51
302.9179367
0
ARC
8
DEFAULT_255_2_778
10
26.9490854
20
2.5575212
40
0.8042193
50
297.4718106
51
359.9904563
0
ARC
8
DEFAULT_255_2_778
10
26.945233
20
2.5573716
40
0.8080718
50
0.0011086
51
2.7390638
0
ARC
8
DEFAULT_255_2_778
10
27.0522882
20
2.627543
40
0.7008042
50
357.4192216
51
359.998757
0
ARC
8
DEFAULT_255_2_778
10
27.0573879
20
2.627248
40
0.6957046
50
0.0230422
51
71.5743812
0
ARC
8
DEFAULT_255_2_778
10
25.1106427
20
-2.8419825
40
6.500944
50
70.5319804
51
76.1178189
0
ARC
8
DEFAULT_255_2_778
10
69.9274018
20
167.0899141
40
169.2422753
50
255.1816694
51
255.1913188
0
ARC
8
DEFAULT_255_2_778
10
28.6437423
20
11.3125975
40
8.0876571
50
252.3702925
51
255.676126
0
ARC
8
DEFAULT_255_2_778
10
28.3343686
20
11.2825922
40
7.9704868
50
246.0425006
51
254.4248879
0
ARC
8
DEFAULT_255_2_778
10
25.4316657
20
4.6421808
40
0.7248221
50
205.5649624
51
242.5803102
0
ARC
8
DEFAULT_255_2_778
10
25.7574816
20
4.8152101
40
1.0935172
50
184.3370805
51
206.3765156
0
ARC
8
DEFAULT_255_2_778
10
25.8782035
20
4.8329958
40
1.2152689
50
179.9970623
51
184.7427972
0
ARC
8
DEFAULT_255_2_778
10
25.8808759
20
4.8330666
40
1.2179414
50
178.0004555
51
180.0003981
0
ARC
8
DEFAULT_255_2_778
10
25.7027803
20
4.8613863
40
1.0392007
50
138.4354352
51
179.2183792
0
ARC
8
DEFAULT_255_2_778
10
25.5176394
20
4.9962549
40
0.8114926
50
118.3993856
51
136.8872694
0
ARC
8
DEFAULT_255_2_778
10
26.2698856
20
3.7510845
40
2.2656567
50
97.9204303
51
120.1570986
0
ARC
8
DEFAULT_255_2_778
10
26.2705239
20
3.7470346
40
2.2697559
50
89.9996614
51
97.9223018
0
ARC
8
DEFAULT_255_2_778
10
26.2705993
20
3.7852375
40
2.2315529
50
89.81685
51
90.0015924
0
ARC
8
DEFAULT_255_2_778
10
26.2708639
20
3.7504216
40
2.2663678
50
64.320461
51
89.826353
0
ARC
8
DEFAULT_255_2_778
10
26.2676541
20
3.7437808
40
2.2737435
50
61.1325952
51
64.3200796
0
ARC
8
DEFAULT_255_2_778
10
26.7618346
20
4.7238934
40
1.1775312
50
0.0162696
51
59.165975
0
ARC
8
DEFAULT_255_2_778
10
26.7595199
20
4.724304
40
1.179846
50
352.9643016
51
359.9963023
0
ARC
8
DEFAULT_255_2_778
10
8.1372098
20
1.9310453
40
0.5166079
50
276.6773385
51
290.7312888
0
ARC
8
DEFAULT_255_2_778
10
8.137772
20
1.927677
40
0.513197
50
269.9991309
51
276.6587284
0
ARC
8
DEFAULT_255_2_778
10
8.1377333
20
1.930553
40
0.516073
50
207.6464984
51
270.003432
0
ARC
8
DEFAULT_255_2_778
10
4.5566724
20
1.9154842
40
0.4950201
50
270.0030468
51
332.7317619
0
ARC
8
DEFAULT_255_2_778
10
4.5566922
20
1.912399
40
0.4919349
50
263.080752
51
270.0007525
0
ARC
8
DEFAULT_255_2_778
10
4.5572308
20
1.9156591
40
0.4952363
50
250.1023509
51
263.0643319
0
ARC
8
DEFAULT_255_2_778
10
4.692901
20
5.3890173
40
0.5378656
50
96.2432275
51
109.8933105
0
ARC
8
DEFAULT_255_2_778
10
4.6924646
20
5.3916912
40
0.53516
50
89.999148
51
96.2279167
0
ARC
8
DEFAULT_255_2_778
10
4.6922821
20
5.3880704
40
0.538781
50
31.5379957
51
89.9797443
0
ARC
8
DEFAULT_255_2_778
10
7.9999419
20
5.4372076
40
0.4844533
50
90.0060054
51
152.1549179
0
ARC
8
DEFAULT_255_2_778
10
7.999901
20
5.4406016
40
0.4810593
50
83.5605926
51
90.001186
0
ARC
8
DEFAULT_255_2_778
10
7.9994195
20
5.4378004
40
0.4838968
50
68.7144877
51
83.5411296
0
ARC
8
DEFAULT_255_2_778
10
6.84541
20
3.7794249
40
0.2249284
50
131.7679919
51
180.0095712
0
ARC
8
DEFAULT_255_2_778
10
6.8453566
20
3.7794258
40
0.224875
50
180.0098149
51
228.2380885
0
ARC
8
DEFAULT_255_2_778
10
15.6029918
20
3.9701755
40
1.6331136
50
86.2472224
51
89.999623
0
ARC
8
DEFAULT_255_2_778
10
15.6031735
20
3.9706629
40
1.6326263
50
90.0059978
51
134.1306212
0
ARC
8
DEFAULT_255_2_778
10
15.6031134
20
3.9707251
40
1.6325397
50
134.1306304
51
180.0010982
0
ARC
8
DEFAULT_255_2_778
10
15.6060566
20
3.9706991
40
1.6354829
50
180.0001844
51
182.0117178
0
LINE
8
DEFAULT_255_2_778
10
13.9715816
20
3.9132873
11
13.9715816
21
1.6886873
0
ARC
8
DEFAULT_255_2_778
10
15.6636682
20
4.0043165
40
1.9587725
50
136.5665272
51
150.0140312
0
ARC
8
DEFAULT_255_2_778
10
15.5263305
20
4.0970539
40
1.7954879
50
98.1690609
51
135.7024123
0
ARC
8
DEFAULT_255_2_778
10
15.7702235
20
2.9039149
40
3.0120337
50
91.1060609
51
99.5365097
0
ARC
8
DEFAULT_255_2_778
10
2.4499473
20
3.9285117
40
2.1669417
50
150.3751756
51
164.3851189
0
ARC
8
DEFAULT_255_2_778
10
2.3515124
20
3.9838675
40
2.0540108
50
131.6460316
51
150.3601566
0
ARC
8
DEFAULT_255_2_778
10
2.3054349
20
4.0395747
40
1.9817647
50
101.509645
51
131.7208206
0
ARC
8
DEFAULT_255_2_778
10
2.2818683
20
4.1334354
40
1.8850942
50
90.0284594
51
101.3769929
0
ARC
8
DEFAULT_255_2_778
10
2.2809996
20
4.1679166
40
1.8506127
50
86.6543067
51
90.002094
0
ARC
8
DEFAULT_255_2_778
10
2.2828742
20
4.1908373
40
1.8276218
50
70.7565827
51
86.671039
0
ARC
8
DEFAULT_255_2_778
10
2.2708539
20
4.1595586
40
1.8611149
50
59.4571464
51
70.7245728
0
ARC
8
DEFAULT_255_2_778
10
2.2223444
20
4.0767352
40
1.9570982
50
51.8167162
51
59.4662419
0
ARC
8
DEFAULT_255_2_778
10
2.2384977
20
4.0826088
40
1.9425168
50
37.411972
51
52.084127
0
ARC
8
DEFAULT_255_2_778
10
2.0722802
20
4.012913
40
2.117376
50
4.8468836
51
36.1772586
0
ARC
8
DEFAULT_255_2_778
10
0.568282
20
3.7959457
40
3.6354209
50
359.8174066
51
6.2514969
0
ARC
8
DEFAULT_255_2_778
10
-0.5292824
20
3.7869919
40
4.7329677
50
357.7331697
51
359.9681398
0
ARC
8
DEFAULT_255_2_778
10
3.4297616
20
3.4843993
40
2.8349293
50
177.6672891
51
179.3713353
0
ARC
8
DEFAULT_255_2_778
10
3.3612893
20
3.485345
40
2.7664507
50
179.3753594
51
179.9998252
0
ARC
8
DEFAULT_255_2_778
10
3.0919714
20
3.4781902
40
2.4971432
50
179.8356429
51
190.1415856
0
ARC
8
DEFAULT_255_2_778
10
2.652312
20
3.3976242
40
2.0501679
50
190.0887264
51
203.2419381
0
ARC
8
DEFAULT_255_2_778
10
2.3146099
20
3.2496518
40
1.6814814
50
203.1498751
51
222.1216296
0
ARC
8
DEFAULT_255_2_778
10
2.1738185
20
3.1293788
40
1.4963945
50
222.3215199
51
261.2014896
0
ARC
8
DEFAULT_255_2_778
10
2.2178078
20
3.3482525
40
1.7194502
50
260.8685074
51
270.0842511
0
ARC
8
DEFAULT_255_2_778
10
2.2187897
20
3.5316075
40
1.9028038
50
270.046569
51
276.1689364
0
ARC
8
DEFAULT_255_2_778
10
2.1981492
20
3.7230005
40
2.0953065
50
276.1676722
51
281.7582724
0
ARC
8
DEFAULT_255_2_778
10
2.1533496
20
3.9393722
40
2.3162673
50
281.7525008
51
286.658034
0
ARC
8
DEFAULT_255_2_778
10
2.1058783
20
4.1032509
40
2.4868771
50
286.6235158
51
288.4709862
0
ARC
8
DEFAULT_255_2_778
10
2.4274901
20
3.0394864
40
1.3763904
50
289.8024701
51
346.3635165
0
ARC
8
DEFAULT_255_2_778
10
4.2744564
20
2.5664556
40
0.5305887
50
149.8496549
51
163.7435252
0
ARC
8
DEFAULT_255_2_778
10
3.9966913
20
2.7372978
40
0.2047582
50
87.811021
51
152.1492036
0
ARC
8
DEFAULT_255_2_778
10
3.9997612
20
2.5220324
40
0.4199011
50
77.9347782
51
89.3517121
0
ARC
8
DEFAULT_255_2_778
10
3.9293286
20
2.171385
40
0.7775374
50
72.6357034
51
78.2602844
0
ARC
8
DEFAULT_255_2_778
10
2.3481288
20
3.1462434
40
1.8281305
50
300.9304081
51
352.6852944
0
ARC
8
DEFAULT_255_2_778
10
2.2719529
20
3.4343148
40
2.1160076
50
283.5549057
51
298.6898782
0
ARC
8
DEFAULT_255_2_778
10
2.2729677
20
3.4321454
40
2.113661
50
272.012551
51
283.5419455
0
ARC
8
DEFAULT_255_2_778
10
2.2726422
20
3.4373811
40
2.1189049
50
269.9998584
51
272.0163752
0
ARC
8
DEFAULT_255_2_778
10
2.2719646
20
3.4351095
40
2.1166334
50
235.0752574
51
270.0182005
0
ARC
8
DEFAULT_255_2_778
10
2.2757637
20
3.4386152
40
2.1216831
50
226.7521896
51
235.0453402
0
ARC
8
DEFAULT_255_2_778
10
2.4812213
20
3.3676998
40
2.2196693
50
184.4626973
51
221.6281695
0
ARC
8
DEFAULT_255_2_778
10
-0.3813747
20
3.1691549
40
0.6501696
50
2.2770664
51
18.0438708
0
ARC
8
DEFAULT_255_2_778
10
2.9166852
20
4.1322838
40
2.7860244
50
194.8152809
51
195.8676062
0
ARC
8
DEFAULT_255_2_778
10
30.4031986
20
3.8160733
40
30.1825173
50
180.0087057
51
180.7521055
0
ARC
8
DEFAULT_255_2_778
10
1.5623092
20
3.8716636
40
2.2977643
50
0.9132663
51
14.634224
0
ARC
8
DEFAULT_255_2_778
10
1.9550207
20
3.9769805
40
1.8911869
50
14.552947
51
32.2381177
0
ARC
8
DEFAULT_255_2_778
10
2.2998188
20
4.2192375
40
1.4704638
50
31.4205579
51
84.8589055
0
ARC
8
DEFAULT_255_2_778
10
2.2988325
20
4.1532234
40
1.5363087
50
85.0428829
51
89.5618184
0
ARC
8
DEFAULT_255_2_778
10
2.2842949
20
3.7529607
40
1.936705
50
89.2223066
51
89.9989787
0
ARC
8
DEFAULT_255_2_778
10
2.2747684
20
3.960466
40
1.7292262
50
89.6832061
51
108.6225698
0
ARC
8
DEFAULT_255_2_778
10
2.2402839
20
4.102127
40
1.5840199
50
109.0768105
51
154.4186383
0
ARC
8
DEFAULT_255_2_778
10
2.6162918
20
3.8992899
40
2.0108578
50
153.831775
51
169.4672309
0
ARC
8
DEFAULT_255_2_778
10
2.999175
20
3.8207494
40
2.4016576
50
169.2948214
51
177.803736
0
LINE
8
DEFAULT_255_2_778
10
8.8643816
20
-0.1978127
11
8.8643816
21
5.8995873
0
LINE
8
DEFAULT_255_2_778
10
8.8643816
20
5.8995873
11
9.1950816
21
5.8995873
0
LINE
8
DEFAULT_255_2_778
10
9.1950816
20
5.8995873
11
9.1950816
21
4.9403873
0
LINE
8
DEFAULT_255_2_778
10
9.2215816
20
2.2273873
11
9.2215816
21
-0.1975127
0
LINE
8
DEFAULT_255_2_778
10
9.2215816
20
-0.1975127
11
8.8643816
21
-0.1978127
0
LINE
8
DEFAULT_255_2_778
10
9.1950816
20
3.7426873
11
9.2691816
21
3.0266873
0
LINE
8
DEFAULT_255_2_778
10
9.1950816
20
3.7428873
11
9.1950816
21
3.7426873
0
LINE
8
DEFAULT_255_2_778
10
19.7466816
20
3.6074873
11
16.1041816
21
3.6074873
0
LINE
8
DEFAULT_255_2_778
10
19.6479816
20
2.9139873
11
19.6455816
21
2.9139873
0
LINE
8
DEFAULT_255_2_778
10
16.1014816
20
3.9159873
11
19.3595816
21
3.9159873
0
LINE
8
DEFAULT_255_2_778
10
16.1014816
20
3.9159873
11
16.1014816
21
3.9159873
0
LINE
8
DEFAULT_255_2_778
10
20.3189816
20
2.8914873
11
20.6382816
21
2.8914873
0
LINE
8
DEFAULT_255_2_778
10
23.7299816
20
4.5781873
11
23.4560816
21
4.5781873
0
LINE
8
DEFAULT_255_2_778
10
22.3236816
20
3.8645873
11
23.1835816
21
3.6396873
0
LINE
8
DEFAULT_255_2_778
10
20.3197816
20
2.8917873
11
20.3189816
21
2.8914873
0
LINE
8
DEFAULT_255_2_778
10
27.9336816
20
4.5779873
11
27.6341816
21
4.5779873
0
LINE
8
DEFAULT_255_2_778
10
25.5375816
20
4.1252873
11
26.9065816
21
3.7738873
0
LINE
8
DEFAULT_255_2_778
10
24.5281816
20
2.8888873
11
24.8208816
21
2.8888873
0
LINE
8
DEFAULT_255_2_778
10
27.9304816
20
4.5797873
11
27.9336816
21
4.5779873
0
LINE
8
DEFAULT_255_2_778
10
7.6805816
20
1.6910873
11
6.5164816
21
3.3010873
0
LINE
8
DEFAULT_255_2_778
10
6.5164816
20
3.3010873
11
6.3476816
21
3.5259873
0
LINE
8
DEFAULT_255_2_778
10
6.3476816
20
3.5259873
11
4.9966816
21
1.6886873
0
LINE
8
DEFAULT_255_2_778
10
4.3886816
20
1.4499873
11
6.1290816
21
3.7849873
0
LINE
8
DEFAULT_255_2_778
10
6.1290816
20
3.7849873
11
4.5098816
21
5.8947873
0
LINE
8
DEFAULT_255_2_778
10
5.1514816
20
5.6698873
11
6.3579816
21
4.0400873
0
LINE
8
DEFAULT_255_2_778
10
6.3579816
20
4.0400873
11
7.5715816
21
5.6634873
0
LINE
8
DEFAULT_255_2_778
10
8.1750816
20
5.8886873
11
7.5466816
21
5.0549873
0
LINE
8
DEFAULT_255_2_778
10
7.5466816
20
5.0549873
11
6.6955816
21
3.9471873
0
LINE
8
DEFAULT_255_2_778
10
6.6955816
20
3.6116873
11
8.3166816
21
1.4478873
0
LINE
8
DEFAULT_255_2_778
10
8.3166816
20
1.4478873
11
8.3200816
21
1.4478873
0
LINE
8
DEFAULT_255_2_778
10
15.7098816
20
5.9172873
11
15.7098816
21
5.5997873
0
LINE
8
DEFAULT_255_2_778
10
13.9715816
20
1.6886873
11
13.9715816
21
1.4365873
0
LINE
8
DEFAULT_255_2_778
10
13.9715816
20
1.4365873
11
13.6495816
21
1.4365873
0
LINE
8
DEFAULT_255_2_778
10
13.6495816
20
1.4365873
11
13.6495816
21
5.8973873
0
LINE
8
DEFAULT_255_2_778
10
13.6495816
20
5.8973873
11
13.9670816
21
5.8973873
0
LINE
8
DEFAULT_255_2_778
10
13.9670816
20
5.8973873
11
13.9670816
21
4.9832873
0
LINE
8
DEFAULT_255_2_778
10
15.7120816
20
5.9153873
11
15.7098816
21
5.9172873
0
LINE
8
DEFAULT_255_2_778
10
0.2211816
20
3.8114873
11
0.3629816
21
4.5117873
0
LINE
8
DEFAULT_255_2_778
10
4.1999816
20
3.5997873
11
0.5971816
21
3.5997873
0
LINE
8
DEFAULT_255_2_778
10
0.2206816
20
3.8114873
11
0.2211816
21
3.8114873
0
LINE
8
DEFAULT_255_2_778
10
0.6016816
20
3.9082873
11
3.8597816
21
3.9082873
0
LINE
8
DEFAULT_255_2_778
10
0.5992816
20
3.9127873
11
0.6016816
21
3.9082873
0
ENDSEC
0
EOF