0
SECTION
2
HEADER
9
$MEASUREMENT
70
1
0
ENDSEC
0
SECTION
2
TABLES
0
TABLE
2
LTYPE
0
LTYPE
72
65
70
64
2
CONTINUOUS
3
______
73
0
40
0
0
ENDTAB
0
TABLE
2
LAYER
0
LAYER
2
DEFAULT_255_2_778
70
0
62
255
6
CONTINUOUS
0
LAYER
2
DEFAULT_255_1_388
70
0
62
255
6
CONTINUOUS
0
LAYER
2
DEFAULT_255_2_778_1
70
0
62
255
6
CONTINUOUS
0
ENDTAB
0
ENDSEC
0
SECTION
2
ENTITIES
0
ARC
8
DEFAULT_255_2_778
10
3.5700693
20
147.242652
40
0.7914215
50
129.1312896
51
180.1450914
0
ARC
8
DEFAULT_255_2_778
10
3.5703345
20
147.2431391
40
0.7912112
50
89.854026
51
129.1684493
0
ARC
8
DEFAULT_255_2_778
10
25.7993937
20
147.2428257
40
0.7915249
50
39.4792447
51
90.147911
0
ARC
8
DEFAULT_255_2_778
10
25.7999935
20
147.2426723
40
0.7911595
50
359.8533901
51
39.5154338
0
ARC
8
DEFAULT_255_2_778
10
25.7996693
20
-1.9864002
40
0.7914836
50
309.4761667
51
0.1482649
0
ARC
8
DEFAULT_255_2_778
10
25.799398
20
-1.9868313
40
0.7913235
50
269.8517415
51
309.511178
0
ARC
8
DEFAULT_255_2_778
10
3.570342
20
-1.9867731
40
0.7913815
50
219.1282118
51
270.1454017
0
ARC
8
DEFAULT_255_2_778
10
3.5700247
20
-1.9863907
40
0.7913769
50
179.8524075
51
219.1641908
0
LINE
8
DEFAULT_255_2_778
10
3.5723503
20
148.0343479
11
25.7973503
21
148.0343479
0
LINE
8
DEFAULT_255_2_778
10
26.5911503
20
147.2406479
11
26.5911503
21
-1.9843521
0
LINE
8
DEFAULT_255_2_778
10
25.7973503
20
-2.7781521
11
3.5723503
21
-2.7781521
0
LINE
8
DEFAULT_255_2_778
10
2.7786503
20
-1.9843521
11
2.7786503
21
147.2406479
0
LINE
8
DEFAULT_255_1_388
10
11.9165389
20
-0.6398
11
11.5524024
21
-0.6398
0
LINE
8
DEFAULT_255_1_388
10
11.5524024
20
-0.6398
11
11.5524024
21
0.6757898
0
LINE
8
DEFAULT_255_1_388
10
11.5524024
20
0.6757898
11
11.9237674
21
0.6757898
0
LINE
8
DEFAULT_255_1_388
10
12.5038558
20
0.0622696
11
12.5038558
21
-0.0217619
0
LINE
8
DEFAULT_255_1_388
10
11.9282852
20
0.5330267
11
11.7258868
21
0.5330267
0
LINE
8
DEFAULT_255_1_388
10
11.7258868
20
0.5330267
11
11.7258868
21
-0.4979404
0
LINE
8
DEFAULT_255_1_388
10
11.7258868
20
-0.4979404
11
11.9084068
21
-0.4979404
0
LINE
8
DEFAULT_255_1_388
10
12.3321785
20
-0.0181477
11
12.3321785
21
0.0586553
0
ARC
8
DEFAULT_255_1_388
10
11.9281469
20
0.0159436
40
0.6598608
50
75.4100343
51
90.3802731
0
ARC
8
DEFAULT_255_1_388
10
11.9539714
20
0.1235691
40
0.5492049
50
60.1455157
51
75.1889627
0
ARC
8
DEFAULT_255_1_388
10
11.9718306
20
0.1546914
40
0.5133226
50
26.525419
51
60.1451222
0
ARC
8
DEFAULT_255_1_388
10
11.8458092
20
0.0878642
40
0.6559324
50
7.4029944
51
26.832209
0
ARC
8
DEFAULT_255_1_388
10
11.6664489
20
0.0599229
40
0.8374103
50
0.1605597
51
7.7176135
0
ARC
8
DEFAULT_255_1_388
10
11.6848889
20
-0.0260679
40
0.8189782
50
348.7289744
51
0.30125
0
ARC
8
DEFAULT_255_1_388
10
11.8712353
20
-0.0630844
40
0.628991
50
333.0706936
51
348.7181455
0
ARC
8
DEFAULT_255_1_388
10
11.9799981
20
-0.1221551
40
0.5052808
50
299.2531435
51
333.4571133
0
ARC
8
DEFAULT_255_1_388
10
11.9394012
20
-0.0450371
40
0.5924066
50
278.1072193
51
299.0340218
0
ARC
8
DEFAULT_255_1_388
10
11.9106061
20
0.1245979
40
0.7644209
50
270.4446841
51
278.4508355
0
ARC
8
DEFAULT_255_1_388
10
11.9129545
20
0.02003
40
0.5179903
50
269.4969684
51
284.0204874
0
ARC
8
DEFAULT_255_1_388
10
11.9529263
20
-0.1335585
40
0.3592968
50
283.7699076
51
318.1557121
0
ARC
8
DEFAULT_255_1_388
10
11.9149808
20
-0.1051601
40
0.4065308
50
318.7417595
51
343.687252
0
ARC
8
DEFAULT_255_1_388
10
11.7120387
20
-0.0417725
40
0.6191194
50
343.3324891
51
355.8548594
0
ARC
8
DEFAULT_255_1_388
10
11.4759424
20
-0.0193281
40
0.856237
50
355.4988754
51
0.0789913
0
ARC
8
DEFAULT_255_1_388
10
11.5640224
20
0.063408
40
0.7681709
50
359.6455047
51
9.8607559
0
ARC
8
DEFAULT_255_1_388
10
11.8295947
20
0.1113664
40
0.498312
50
9.6573037
51
26.1931522
0
ARC
8
DEFAULT_255_1_388
10
11.9340022
20
0.1598587
40
0.3832303
50
26.5777895
51
40.1533752
0
ARC
8
DEFAULT_255_1_388
10
11.9627687
20
0.182302
40
0.3467742
50
40.3839958
51
80.1430923
0
ARC
8
DEFAULT_255_1_388
10
11.9259942
20
0.0192486
40
0.5137832
50
79.2153636
51
89.7445174
0
LINE
8
DEFAULT_255_1_388
10
13.5989759
20
-0.6398
11
13.4733804
21
-0.2964455
0
LINE
8
DEFAULT_255_1_388
10
13.4733804
20
-0.2964455
11
12.9222061
21
-0.2964455
0
LINE
8
DEFAULT_255_1_388
10
12.9222061
20
-0.2964455
11
12.7984178
21
-0.6398
0
LINE
8
DEFAULT_255_1_388
10
12.7984178
20
-0.6398
11
12.619512
21
-0.6398
0
LINE
8
DEFAULT_255_1_388
10
12.619512
20
-0.6398
11
13.1218938
21
0.6757898
0
LINE
8
DEFAULT_255_1_388
10
13.1218938
20
0.6757898
11
13.2736927
21
0.6757898
0
LINE
8
DEFAULT_255_1_388
10
13.2736927
20
0.6757898
11
13.7769781
21
-0.6398
0
LINE
8
DEFAULT_255_1_388
10
13.7769781
20
-0.6398
11
13.5989759
21
-0.6398
0
LINE
8
DEFAULT_255_1_388
10
13.1977933
20
0.4616451
11
12.9746128
21
-0.1536823
0
LINE
8
DEFAULT_255_1_388
10
12.9746128
20
-0.1536823
11
13.4218772
21
-0.1536823
0
LINE
8
DEFAULT_255_1_388
10
13.4218772
20
-0.1536823
11
13.1977933
21
0.4616451
0
LINE
8
DEFAULT_255_1_388
10
14.1212361
20
-0.0145334
11
13.9875086
21
0.0198021
0
LINE
8
DEFAULT_255_1_388
10
13.9875086
20
0.0198021
11
14.0543724
21
0.6757898
0
LINE
8
DEFAULT_255_1_388
10
14.0543724
20
0.6757898
11
14.7284314
21
0.6757898
0
LINE
8
DEFAULT_255_1_388
10
14.7284314
20
0.6757898
11
14.7284314
21
0.5212803
0
LINE
8
DEFAULT_255_1_388
10
14.7284314
20
0.5212803
11
14.196232
21
0.5212803
0
LINE
8
DEFAULT_255_1_388
10
14.196232
20
0.5212803
11
14.1564751
21
0.1625652
0
LINE
8
DEFAULT_255_1_388
10
13.9405232
20
-0.2937348
11
14.098647
21
-0.2937348
0
LINE
8
DEFAULT_255_1_388
10
14.1655108
20
0.0216092
11
14.1212361
21
-0.0145334
0
ARC
8
DEFAULT_255_1_388
10
14.3651365
20
-0.1951759
40
0.4141476
50
93.7181681
51
120.253934
0
ARC
8
DEFAULT_255_1_388
10
14.3757417
20
-0.2860716
40
0.5055616
50
89.9660471
51
94.2495185
0
ARC
8
DEFAULT_255_1_388
10
14.3803239
20
-0.2197846
40
0.4392953
50
73.8045384
51
90.5585736
0
ARC
8
DEFAULT_255_1_388
10
14.4067497
20
-0.123248
40
0.3392225
50
41.3071072
51
73.543002
0
ARC
8
DEFAULT_255_1_388
10
14.3599317
20
-0.1635539
40
0.4009977
50
13.5075837
51
41.2174839
0
ARC
8
DEFAULT_255_1_388
10
14.1752414
20
-0.2119093
40
0.5918864
50
1.1330171
51
13.8830737
0
ARC
8
DEFAULT_255_1_388
10
14.015606
20
-0.2204478
40
0.7516787
50
359.9925091
51
1.5431298
0
ARC
8
DEFAULT_255_1_388
10
14.1600675
20
-0.2250973
40
0.6072343
50
347.8572712
51
0.4294349
0
ARC
8
DEFAULT_255_1_388
10
14.356981
20
-0.2697102
40
0.4053482
50
323.6727442
51
348.1674594
0
ARC
8
DEFAULT_255_1_388
10
14.3900774
20
-0.2898825
40
0.3667495
50
316.8171818
51
323.1486802
0
ARC
8
DEFAULT_255_1_388
10
14.3969898
20
-0.2940388
40
0.358869
50
281.839603
51
316.5458142
0
ARC
8
DEFAULT_255_1_388
10
14.3547185
20
-0.1190637
40
0.5388223
50
269.5770964
51
282.4214641
0
ARC
8
DEFAULT_255_1_388
10
14.3467106
20
-0.143107
40
0.5147801
50
256.2425863
51
270.4486481
0
ARC
8
DEFAULT_255_1_388
10
14.3130634
20
-0.2780876
40
0.3756708
50
228.9024379
51
256.33135
0
ARC
8
DEFAULT_255_1_388
10
14.3047614
20
-0.2911946
40
0.360344
50
193.7536029
51
228.5272638
0
ARC
8
DEFAULT_255_1_388
10
14.4440179
20
-0.2503537
40
0.5053599
50
184.9244437
51
194.4976052
0
ARC
8
DEFAULT_255_1_388
10
14.465682
20
-0.2463278
40
0.3700839
50
187.3596909
51
198.6733728
0
ARC
8
DEFAULT_255_1_388
10
14.3476064
20
-0.2872627
40
0.2451195
50
198.4453795
51
217.7945479
0
ARC
8
DEFAULT_255_1_388
10
14.3143236
20
-0.3108437
40
0.2043754
50
218.2887146
51
228.5613203
0
ARC
8
DEFAULT_255_1_388
10
14.3253243
20
-0.2960098
40
0.2227819
50
228.9652423
51
258.1237049
0
ARC
8
DEFAULT_255_1_388
10
14.3484681
20
-0.1969036
40
0.3245374
50
257.7260585
51
270.4013717
0
ARC
8
DEFAULT_255_1_388
10
14.3535179
20
-0.2469745
40
0.2744726
50
269.4204315
51
286.420998
0
ARC
8
DEFAULT_255_1_388
10
14.3702234
20
-0.3076295
40
0.2115721
50
286.7250065
51
320.6004665
0
ARC
8
DEFAULT_255_1_388
10
14.327115
20
-0.2726473
40
0.2670878
50
320.6712228
51
344.5440474
0
ARC
8
DEFAULT_255_1_388
10
14.1969864
20
-0.2344606
40
0.4026927
50
344.241448
51
356.735803
0
ARC
8
DEFAULT_255_1_388
10
14.0566171
20
-0.2228344
40
0.5435085
50
356.3547471
51
0.0507222
0
ARC
8
DEFAULT_255_1_388
10
14.2068436
20
-0.2193188
40
0.3932934
50
359.5579289
51
12.9534322
0
ARC
8
DEFAULT_255_1_388
10
14.3255276
20
-0.1905414
40
0.2711827
50
12.6489751
51
41.608121
0
ARC
8
DEFAULT_255_1_388
10
14.3514436
20
-0.1685054
40
0.2371737
50
41.7851122
51
85.9892156
0
ARC
8
DEFAULT_255_1_388
10
14.3375746
20
-0.2600262
40
0.3295244
50
84.6965848
51
90.0672125
0
ARC
8
DEFAULT_255_1_388
10
14.3349313
20
-0.3351882
40
0.4046926
50
89.6804991
51
99.161352
0
ARC
8
DEFAULT_255_1_388
10
14.3118323
20
-0.1971152
40
0.2647044
50
98.9836248
51
113.8905702
0
ARC
8
DEFAULT_255_1_388
10
14.2859998
20
-0.1361882
40
0.1985386
50
114.195234
51
127.3641866
0
LINE
8
DEFAULT_255_1_388
10
15.7747591
20
0.138169
11
15.7747591
21
-0.0786865
0
LINE
8
DEFAULT_255_1_388
10
14.9443833
20
-0.1012756
11
14.9443833
21
0.1219048
0
LINE
8
DEFAULT_255_1_388
10
15.6075997
20
-0.1238647
11
15.6075997
21
0.1499153
0
LINE
8
DEFAULT_255_1_388
10
15.1115428
20
0.1625652
11
15.1115428
21
-0.1048898
0
ARC
8
DEFAULT_255_1_388
10
14.3969925
20
-0.0841882
40
1.3777776
50
353.8440855
51
0.2287917
0
ARC
8
DEFAULT_255_1_388
10
14.9188942
20
-0.1424586
40
0.852639
50
344.4934746
51
353.9763743
0
ARC
8
DEFAULT_255_1_388
10
15.2555749
20
-0.2381809
40
0.5026273
50
329.2803599
51
344.7473406
0
ARC
8
DEFAULT_255_1_388
10
15.3671245
20
-0.2993962
40
0.3754848
50
324.9361395
51
328.6153007
0
ARC
8
DEFAULT_255_1_388
10
15.4096895
20
-0.3291414
40
0.3235566
50
280.5801797
51
324.9173226
0
ARC
8
DEFAULT_255_1_388
10
15.3645524
20
-0.1411764
40
0.5167077
50
269.5979457
51
281.6732777
0
ARC
8
DEFAULT_255_1_388
10
15.3564427
20
-0.1546887
40
0.5032026
50
256.6228565
51
270.5105488
0
ARC
8
DEFAULT_255_1_388
10
15.311217
20
-0.3288655
40
0.3233092
50
215.8618351
51
257.2787793
0
ARC
8
DEFAULT_255_1_388
10
15.4260877
20
-0.2517894
40
0.4615831
50
197.9695203
51
215.2622745
0
ARC
8
DEFAULT_255_1_388
10
15.7056552
20
-0.1574359
40
0.7566307
50
187.8816486
51
198.2346584
0
ARC
8
DEFAULT_255_1_388
10
16.1509791
20
-0.0931547
40
1.2065653
50
180.8977266
51
188.0054894
0
ARC
8
DEFAULT_255_1_388
10
16.4560004
20
-0.08166
40
1.5117443
50
180.7434591
51
181.152202
0
ARC
8
DEFAULT_255_1_388
10
16.2885
20
0.1273371
40
1.3441277
50
173.7674302
51
180.2315596
0
ARC
8
DEFAULT_255_1_388
10
15.7802869
20
0.1847779
40
0.8326847
50
164.3058537
51
173.9000553
0
ARC
8
DEFAULT_255_1_388
10
15.4526869
20
0.2791652
40
0.4917711
50
148.7922028
51
164.5682288
0
ARC
8
DEFAULT_255_1_388
10
15.3457607
20
0.3388457
40
0.3694204
50
144.5883979
51
148.1161588
0
ARC
8
DEFAULT_255_1_388
10
15.3070352
20
0.3658667
40
0.322202
50
101.6440149
51
144.5142619
0
ARC
8
DEFAULT_255_1_388
10
15.3548544
20
0.1758337
40
0.5180451
50
89.528284
51
102.5820197
0
ARC
8
DEFAULT_255_1_388
10
15.3637536
20
0.1714376
40
0.5224441
50
77.0437914
51
90.508231
0
ARC
8
DEFAULT_255_1_388
10
15.408979
20
0.3562272
40
0.3322297
50
48.2777708
51
77.4996087
0
ARC
8
DEFAULT_255_1_388
10
15.417153
20
0.3707557
40
0.315966
50
36.3141586
51
47.6307332
0
ARC
8
DEFAULT_255_1_388
10
15.3194252
20
0.3049159
40
0.4337313
50
18.2931065
51
35.6770203
0
ARC
8
DEFAULT_255_1_388
10
15.0333093
20
0.2067107
40
0.7362203
50
8.0246996
51
18.5605636
0
ARC
8
DEFAULT_255_1_388
10
14.5649448
20
0.1375432
40
1.2096583
50
1.127539
51
8.1718423
0
ARC
8
DEFAULT_255_1_388
10
14.2000582
20
0.1232374
40
1.5747719
50
0.5432713
51
1.38669
0
ARC
8
DEFAULT_255_1_388
10
14.405796
20
0.1539163
40
1.2018103
50
359.8092569
51
4.9408001
0
ARC
8
DEFAULT_255_1_388
10
14.8794542
20
0.19619
40
0.7262727
50
4.8364937
51
12.2906017
0
ARC
8
DEFAULT_255_1_388
10
15.1894007
20
0.2652485
40
0.4087324
50
12.0806994
51
23.8171225
0
ARC
8
DEFAULT_255_1_388
10
15.3214403
20
0.3211508
40
0.2653719
50
24.2874621
51
31.3934353
0
ARC
8
DEFAULT_255_1_388
10
15.3804838
20
0.3597822
40
0.1948607
50
30.7407708
51
82.4658033
0
ARC
8
DEFAULT_255_1_388
10
15.3602499
20
0.2604017
40
0.2961198
50
81.1057101
51
90.2187368
0
ARC
8
DEFAULT_255_1_388
10
15.3562311
20
0.2894421
40
0.2670929
50
89.380395
51
105.6763916
0
ARC
8
DEFAULT_255_1_388
10
15.3356033
20
0.364432
40
0.1893189
50
105.7980655
51
149.7387869
0
ARC
8
DEFAULT_255_1_388
10
15.4553173
20
0.2924719
40
0.3289892
50
149.4208441
51
163.628295
0
ARC
8
DEFAULT_255_1_388
10
15.6905403
20
0.2207345
40
0.5749004
50
163.3764549
51
172.141138
0
ARC
8
DEFAULT_255_1_388
10
16.0618124
20
0.1675582
40
0.9499585
50
172.0258462
51
178.0705453
0
ARC
8
DEFAULT_255_1_388
10
16.4039677
20
0.1513682
40
1.2924734
50
177.8639301
51
179.5036263
0
ARC
8
DEFAULT_255_1_388
10
16.2820696
20
-0.1089849
40
1.170534
50
179.7995545
51
185.246089
0
ARC
8
DEFAULT_255_1_388
10
15.8272289
20
-0.1520596
40
0.7136613
50
185.1411911
51
193.0082205
0
ARC
8
DEFAULT_255_1_388
10
15.5298549
20
-0.2223559
40
0.4080987
50
192.7897338
51
205.2507384
0
ARC
8
DEFAULT_255_1_388
10
15.4120759
20
-0.2749462
40
0.2791522
50
205.8001921
51
211.2545876
0
ARC
8
DEFAULT_255_1_388
10
15.3532299
20
-0.3143868
40
0.2084074
50
210.3789935
51
238.4007996
0
ARC
8
DEFAULT_255_1_388
10
15.3510385
20
-0.3091214
40
0.2117943
50
239.6521916
51
265.9793852
0
ARC
8
DEFAULT_255_1_388
10
15.3606233
20
-0.2334642
40
0.2879689
50
265.1324455
51
270.0603288
0
ARC
8
DEFAULT_255_1_388
10
15.3638611
20
-0.2699582
40
0.2514919
50
269.3314378
51
287.2180039
0
ARC
8
DEFAULT_255_1_388
10
15.3793693
20
-0.3265709
40
0.1928357
50
287.7957942
51
329.0808983
0
ARC
8
DEFAULT_255_1_388
10
15.271645
20
-0.2593349
40
0.319808
50
328.6635261
51
343.3325043
0
ARC
8
DEFAULT_255_1_388
10
15.0271908
20
-0.1831805
40
0.5758408
50
343.0498092
51
351.9392499
0
ARC
8
DEFAULT_255_1_388
10
14.637123
20
-0.1256795
40
0.9701202
50
351.8071632
51
357.7957897
0
ARC
8
DEFAULT_255_1_388
10
14.2736707
20
-0.1068276
40
1.3340376
50
357.5870923
51
359.2682493
0
LINE
8
DEFAULT_255_1_388
10
16.538271
20
0.6821148
11
16.538271
21
-0.6398
0
LINE
8
DEFAULT_255_1_388
10
16.538271
20
-0.6398
11
16.3702081
21
-0.6398
0
LINE
8
DEFAULT_255_1_388
10
16.3702081
20
-0.6398
11
16.3702081
21
0.474295
0
LINE
8
DEFAULT_255_1_388
10
16.3702081
20
0.474295
11
16.0331785
21
0.3505066
0
LINE
8
DEFAULT_255_1_388
10
16.0331785
20
0.3505066
11
16.0331785
21
0.5023055
0
LINE
8
DEFAULT_255_1_388
10
16.0331785
20
0.5023055
11
16.5120677
21
0.6821148
0
LINE
8
DEFAULT_255_1_388
10
16.5120677
20
0.6821148
11
16.538271
21
0.6821148
0
LINE
8
DEFAULT_255_1_388
10
12.4044637
20
141.5738
11
12.2788682
21
141.9171545
0
LINE
8
DEFAULT_255_1_388
10
12.2788682
20
141.9171545
11
11.7276939
21
141.9171545
0
LINE
8
DEFAULT_255_1_388
10
11.7276939
20
141.9171545
11
11.6039056
21
141.5738
0
LINE
8
DEFAULT_255_1_388
10
11.6039056
20
141.5738
11
11.4249998
21
141.5738
0
LINE
8
DEFAULT_255_1_388
10
11.4249998
20
141.5738
11
11.9273816
21
142.8893898
0
LINE
8
DEFAULT_255_1_388
10
11.9273816
20
142.8893898
11
12.0791805
21
142.8893898
0
LINE
8
DEFAULT_255_1_388
10
12.0791805
20
142.8893898
11
12.5824659
21
141.5738
0
LINE
8
DEFAULT_255_1_388
10
12.5824659
20
141.5738
11
12.4044637
21
141.5738
0
LINE
8
DEFAULT_255_1_388
10
12.0032811
20
142.6752451
11
11.7801006
21
142.0599177
0
LINE
8
DEFAULT_255_1_388
10
11.7801006
20
142.0599177
11
12.227365
21
142.0599177
0
LINE
8
DEFAULT_255_1_388
10
12.227365
20
142.0599177
11
12.0032811
21
142.6752451
0
LINE
8
DEFAULT_255_1_388
10
13.5429549
20
141.9912468
11
13.7173428
21
141.9912468
0
LINE
8
DEFAULT_255_1_388
10
12.7044471
20
142.1701525
11
12.7044471
21
142.2966516
0
LINE
8
DEFAULT_255_1_388
10
13.7173428
20
142.4665217
11
13.5429549
21
142.4665217
0
LINE
8
DEFAULT_255_1_388
10
12.878835
20
142.2921337
11
12.878835
21
142.1647312
0
ARC
8
DEFAULT_255_1_388
10
13.1007662
20
142.0584329
40
0.6202263
50
340.1774904
51
353.7812217
0
ARC
8
DEFAULT_255_1_388
10
13.2775515
20
141.9925893
40
0.4315926
50
311.4560052
51
340.4420756
0
ARC
8
DEFAULT_255_1_388
10
13.2738055
20
142.0050665
40
0.4434573
50
282.4332229
51
310.7514507
0
ARC
8
DEFAULT_255_1_388
10
13.2243873
20
142.2092703
40
0.6535262
50
269.9358869
51
282.8096729
0
ARC
8
DEFAULT_255_1_388
10
13.2185812
20
142.3605329
40
0.8048043
50
269.9995752
51
270.3612856
0
ARC
8
DEFAULT_255_1_388
10
13.2126302
20
142.0806781
40
0.5249831
50
250.7885263
51
270.6488451
0
ARC
8
DEFAULT_255_1_388
10
13.1937127
20
142.0089853
40
0.4510942
50
219.3628377
51
250.0611024
0
ARC
8
DEFAULT_255_1_388
10
13.2870001
20
142.0882653
40
0.5735046
50
193.5480293
51
219.5755675
0
ARC
8
DEFAULT_255_1_388
10
13.553821
20
142.157552
40
0.849146
50
181.1220183
51
193.8754971
0
ARC
8
DEFAULT_255_1_388
10
13.7861443
20
142.1699914
40
1.0816971
50
179.9914644
51
181.5398227
0
ARC
8
DEFAULT_255_1_388
10
13.5784754
20
142.3008586
40
0.8740384
50
169.5837606
51
180.275782
0
ARC
8
DEFAULT_255_1_388
10
13.3718102
20
142.3390439
40
0.6638751
50
155.0367033
51
169.6002779
0
ARC
8
DEFAULT_255_1_388
10
13.244056
20
142.4006336
40
0.5220662
50
136.7831557
51
155.2472983
0
ARC
8
DEFAULT_255_1_388
10
13.2002351
20
142.4378577
40
0.4646502
50
121.7633063
51
136.4281161
0
ARC
8
DEFAULT_255_1_388
10
13.2154191
20
142.4098049
40
0.4964979
50
95.6460018
51
121.5489589
0
ARC
8
DEFAULT_255_1_388
10
13.2331165
20
142.2850704
40
0.6223912
50
89.9245727
51
96.1375919
0
ARC
8
DEFAULT_255_1_388
10
13.238787
20
142.2984721
40
0.6090084
50
76.6779212
51
90.456405
0
ARC
8
DEFAULT_255_1_388
10
13.2830683
20
142.477406
40
0.42469
50
47.4858803
51
76.9287069
0
ARC
8
DEFAULT_255_1_388
10
13.2665297
20
142.4661623
40
0.4441778
50
16.5424081
51
46.8934505
0
ARC
8
DEFAULT_255_1_388
10
13.0856347
20
142.4067265
40
0.6345318
50
5.4072971
51
17.0363711
0
ARC
8
DEFAULT_255_1_388
10
12.9238072
20
142.3807304
40
0.6250632
50
7.8888693
51
15.9242022
0
ARC
8
DEFAULT_255_1_388
10
13.1473057
20
142.4456309
40
0.3923364
50
15.7650676
51
27.9410069
0
ARC
8
DEFAULT_255_1_388
10
13.2715226
20
142.5121317
40
0.2514401
50
27.8167196
51
46.4007942
0
ARC
8
DEFAULT_255_1_388
10
13.2771068
20
142.5114882
40
0.2480958
50
47.4372362
51
75.0695672
0
ARC
8
DEFAULT_255_1_388
10
13.2423904
20
142.3906277
40
0.3738281
50
74.7009379
51
87.8124314
0
ARC
8
DEFAULT_255_1_388
10
13.2341521
20
142.2722659
40
0.4924321
50
87.3802571
51
90.0251599
0
ARC
8
DEFAULT_255_1_388
10
13.2298168
20
142.4042997
40
0.3604218
50
89.3451886
51
108.5744412
0
ARC
8
DEFAULT_255_1_388
10
13.214416
20
142.4620836
40
0.3007661
50
109.2998307
51
143.3037387
0
ARC
8
DEFAULT_255_1_388
10
13.300145
20
142.3961584
40
0.4089031
50
143.075267
51
163.1918576
0
ARC
8
DEFAULT_255_1_388
10
13.5197284
20
142.3268652
40
0.6391492
50
162.9375929
51
174.6208776
0
ARC
8
DEFAULT_255_1_388
10
13.8151666
20
142.2944711
40
0.9363344
50
174.342123
51
180.1430283
0
ARC
8
DEFAULT_255_1_388
10
13.7104207
20
142.1601117
40
0.8315986
50
179.6817261
51
189.150555
0
ARC
8
DEFAULT_255_1_388
10
13.4290956
20
142.1132559
40
0.5464044
50
188.9911061
51
203.5772363
0
ARC
8
DEFAULT_255_1_388
10
13.3076248
20
142.0628539
40
0.4149206
50
203.9075402
51
215.1312435
0
ARC
8
DEFAULT_255_1_388
10
13.2038046
20
141.9823907
40
0.2837747
50
213.9071511
51
263.8848919
0
ARC
8
DEFAULT_255_1_388
10
13.2179039
20
142.0706519
40
0.3730641
50
263.1757928
51
270.1031044
0
ARC
8
DEFAULT_255_1_388
10
13.2215119
20
142.2109511
40
0.5133712
50
269.6722503
51
279.0606936
0
ARC
8
DEFAULT_255_1_388
10
13.2515274
20
142.029515
40
0.3294739
50
278.8749101
51
293.6349581
0
ARC
8
DEFAULT_255_1_388
10
13.2875478
20
141.9449251
40
0.2375405
50
293.8553806
51
310.0518171
0
ARC
8
DEFAULT_255_1_388
10
13.2880987
20
141.9379021
40
0.2318463
50
311.0644687
51
332.0111037
0
ARC
8
DEFAULT_255_1_388
10
13.153966
20
142.0118702
40
0.3850112
50
331.6586806
51
343.2877423
0
ARC
8
DEFAULT_255_1_388
10
12.9219125
20
142.0831806
40
0.6277712
50
343.1446576
51
351.0103568
0
ARC
8
DEFAULT_255_1_388
10
12.7586449
20
142.1131873
40
0.7937327
50
350.71248
51
351.1626997
0
LINE
8
DEFAULT_255_1_388
10
14.1212361
20
142.1990666
11
13.9875086
21
142.2334021
0
LINE
8
DEFAULT_255_1_388
10
13.9875086
20
142.2334021
11
14.0543724
21
142.8893898
0
LINE
8
DEFAULT_255_1_388
10
14.0543724
20
142.8893898
11
14.7284314
21
142.8893898
0
LINE
8
DEFAULT_255_1_388
10
14.7284314
20
142.8893898
11
14.7284314
21
142.7348803
0
LINE
8
DEFAULT_255_1_388
10
14.7284314
20
142.7348803
11
14.196232
21
142.7348803
0
LINE
8
DEFAULT_255_1_388
10
14.196232
20
142.7348803
11
14.1564751
21
142.3761652
0
LINE
8
DEFAULT_255_1_388
10
13.9405232
20
141.9198652
11
14.098647
21
141.9198652
0
LINE
8
DEFAULT_255_1_388
10
14.1655108
20
142.2352092
11
14.1212361
21
142.1990666
0
ARC
8
DEFAULT_255_1_388
10
14.3651365
20
142.0184241
40
0.4141476
50
93.7181681
51
120.253934
0
ARC
8
DEFAULT_255_1_388
10
14.3757417
20
141.9275284
40
0.5055616
50
89.9660471
51
94.2495185
0
ARC
8
DEFAULT_255_1_388
10
14.3803239
20
141.9938154
40
0.4392953
50
73.8045384
51
90.5585736
0
ARC
8
DEFAULT_255_1_388
10
14.4067497
20
142.090352
40
0.3392225
50
41.3071072
51
73.543002
0
ARC
8
DEFAULT_255_1_388
10
14.3599317
20
142.0500461
40
0.4009977
50
13.5075837
51
41.2174839
0
ARC
8
DEFAULT_255_1_388
10
14.1752414
20
142.0016907
40
0.5918864
50
1.1330171
51
13.8830737
0
ARC
8
DEFAULT_255_1_388
10
14.015606
20
141.9931522
40
0.7516787
50
359.9925091
51
1.5431298
0
ARC
8
DEFAULT_255_1_388
10
14.1600675
20
141.9885027
40
0.6072343
50
347.8572712
51
0.4294349
0
ARC
8
DEFAULT_255_1_388
10
14.356981
20
141.9438898
40
0.4053482
50
323.6727442
51
348.1674594
0
ARC
8
DEFAULT_255_1_388
10
14.3900774
20
141.9237175
40
0.3667495
50
316.8171818
51
323.1486802
0
ARC
8
DEFAULT_255_1_388
10
14.3969898
20
141.9195612
40
0.358869
50
281.839603
51
316.5458142
0
ARC
8
DEFAULT_255_1_388
10
14.3547185
20
142.0945363
40
0.5388223
50
269.5770964
51
282.4214641
0
ARC
8
DEFAULT_255_1_388
10
14.3467106
20
142.070493
40
0.5147801
50
256.2425863
51
270.4486481
0
ARC
8
DEFAULT_255_1_388
10
14.3130634
20
141.9355124
40
0.3756708
50
228.9024379
51
256.33135
0
ARC
8
DEFAULT_255_1_388
10
14.3047614
20
141.9224054
40
0.360344
50
193.7536029
51
228.5272638
0
ARC
8
DEFAULT_255_1_388
10
14.4440179
20
141.9632463
40
0.5053599
50
184.9244437
51
194.4976052
0
ARC
8
DEFAULT_255_1_388
10
14.465682
20
141.9672722
40
0.3700839
50
187.3596909
51
198.6733728
0
ARC
8
DEFAULT_255_1_388
10
14.3476064
20
141.9263373
40
0.2451195
50
198.4453795
51
217.7945479
0
ARC
8
DEFAULT_255_1_388
10
14.3143236
20
141.9027563
40
0.2043754
50
218.2887146
51
228.5613203
0
ARC
8
DEFAULT_255_1_388
10
14.3253243
20
141.9175902
40
0.2227819
50
228.9652423
51
258.1237049
0
ARC
8
DEFAULT_255_1_388
10
14.3484681
20
142.0166964
40
0.3245374
50
257.7260585
51
270.4013717
0
ARC
8
DEFAULT_255_1_388
10
14.3535179
20
141.9666255
40
0.2744726
50
269.4204315
51
286.420998
0
ARC
8
DEFAULT_255_1_388
10
14.3702234
20
141.9059705
40
0.2115721
50
286.7250065
51
320.6004665
0
ARC
8
DEFAULT_255_1_388
10
14.327115
20
141.9409527
40
0.2670878
50
320.6712228
51
344.5440474
0
ARC
8
DEFAULT_255_1_388
10
14.1969864
20
141.9791394
40
0.4026927
50
344.241448
51
356.735803
0
ARC
8
DEFAULT_255_1_388
10
14.0566171
20
141.9907656
40
0.5435085
50
356.3547471
51
0.0507222
0
ARC
8
DEFAULT_255_1_388
10
14.2068436
20
141.9942812
40
0.3932934
50
359.5579289
51
12.9534322
0
ARC
8
DEFAULT_255_1_388
10
14.3255276
20
142.0230586
40
0.2711827
50
12.6489751
51
41.608121
0
ARC
8
DEFAULT_255_1_388
10
14.3514436
20
142.0450946
40
0.2371737
50
41.7851122
51
85.9892156
0
ARC
8
DEFAULT_255_1_388
10
14.3375746
20
141.9535738
40
0.3295244
50
84.6965848
51
90.0672125
0
ARC
8
DEFAULT_255_1_388
10
14.3349313
20
141.8784118
40
0.4046926
50
89.6804991
51
99.161352
0
ARC
8
DEFAULT_255_1_388
10
14.3118323
20
142.0164848
40
0.2647044
50
98.9836248
51
113.8905702
0
ARC
8
DEFAULT_255_1_388
10
14.2859998
20
142.0774118
40
0.1985386
50
114.195234
51
127.3641866
0
LINE
8
DEFAULT_255_1_388
10
15.7747591
20
142.351769
11
15.7747591
21
142.1349135
0
LINE
8
DEFAULT_255_1_388
10
14.9443833
20
142.1123244
11
14.9443833
21
142.3355048
0
LINE
8
DEFAULT_255_1_388
10
15.6075997
20
142.0897353
11
15.6075997
21
142.3635153
0
LINE
8
DEFAULT_255_1_388
10
15.1115428
20
142.3761652
11
15.1115428
21
142.1087102
0
ARC
8
DEFAULT_255_1_388
10
14.3969925
20
142.1294118
40
1.3777776
50
353.8440855
51
0.2287917
0
ARC
8
DEFAULT_255_1_388
10
14.9188942
20
142.0711414
40
0.852639
50
344.4934746
51
353.9763743
0
ARC
8
DEFAULT_255_1_388
10
15.2555749
20
141.9754191
40
0.5026273
50
329.2803599
51
344.7473406
0
ARC
8
DEFAULT_255_1_388
10
15.3671245
20
141.9142038
40
0.3754848
50
324.9361395
51
328.6153007
0
ARC
8
DEFAULT_255_1_388
10
15.4096895
20
141.8844586
40
0.3235566
50
280.5801797
51
324.9173226
0
ARC
8
DEFAULT_255_1_388
10
15.3645524
20
142.0724236
40
0.5167077
50
269.5979457
51
281.6732777
0
ARC
8
DEFAULT_255_1_388
10
15.3564427
20
142.0589113
40
0.5032026
50
256.6228565
51
270.5105488
0
ARC
8
DEFAULT_255_1_388
10
15.311217
20
141.8847345
40
0.3233092
50
215.8618351
51
257.2787793
0
ARC
8
DEFAULT_255_1_388
10
15.4260877
20
141.9618106
40
0.4615831
50
197.9695203
51
215.2622745
0
ARC
8
DEFAULT_255_1_388
10
15.7056552
20
142.0561641
40
0.7566307
50
187.8816486
51
198.2346584
0
ARC
8
DEFAULT_255_1_388
10
16.1509791
20
142.1204453
40
1.2065653
50
180.8977266
51
188.0054894
0
ARC
8
DEFAULT_255_1_388
10
16.4560004
20
142.13194
40
1.5117443
50
180.7434591
51
181.152202
0
ARC
8
DEFAULT_255_1_388
10
16.2885
20
142.3409371
40
1.3441277
50
173.7674302
51
180.2315596
0
ARC
8
DEFAULT_255_1_388
10
15.7802869
20
142.3983779
40
0.8326847
50
164.3058537
51
173.9000553
0
ARC
8
DEFAULT_255_1_388
10
15.4526869
20
142.4927652
40
0.4917711
50
148.7922028
51
164.5682288
0
ARC
8
DEFAULT_255_1_388
10
15.3457607
20
142.5524457
40
0.3694204
50
144.5883979
51
148.1161588
0
ARC
8
DEFAULT_255_1_388
10
15.3070352
20
142.5794667
40
0.322202
50
101.6440149
51
144.5142619
0
ARC
8
DEFAULT_255_1_388
10
15.3548544
20
142.3894337
40
0.5180451
50
89.528284
51
102.5820197
0
ARC
8
DEFAULT_255_1_388
10
15.3637536
20
142.3850376
40
0.5224441
50
77.0437914
51
90.508231
0
ARC
8
DEFAULT_255_1_388
10
15.408979
20
142.5698272
40
0.3322297
50
48.2777708
51
77.4996087
0
ARC
8
DEFAULT_255_1_388
10
15.417153
20
142.5843557
40
0.315966
50
36.3141586
51
47.6307332
0
ARC
8
DEFAULT_255_1_388
10
15.3194252
20
142.5185159
40
0.4337313
50
18.2931065
51
35.6770203
0
ARC
8
DEFAULT_255_1_388
10
15.0333093
20
142.4203107
40
0.7362203
50
8.0246996
51
18.5605636
0
ARC
8
DEFAULT_255_1_388
10
14.5649448
20
142.3511432
40
1.2096583
50
1.127539
51
8.1718423
0
ARC
8
DEFAULT_255_1_388
10
14.2000582
20
142.3368374
40
1.5747719
50
0.5432713
51
1.38669
0
ARC
8
DEFAULT_255_1_388
10
14.405796
20
142.3675163
40
1.2018103
50
359.8092569
51
4.9408001
0
ARC
8
DEFAULT_255_1_388
10
14.8794542
20
142.40979
40
0.7262727
50
4.8364937
51
12.2906017
0
ARC
8
DEFAULT_255_1_388
10
15.1894007
20
142.4788485
40
0.4087324
50
12.0806994
51
23.8171225
0
ARC
8
DEFAULT_255_1_388
10
15.3214403
20
142.5347508
40
0.2653719
50
24.2874621
51
31.3934353
0
ARC
8
DEFAULT_255_1_388
10
15.3804838
20
142.5733822
40
0.1948607
50
30.7407708
51
82.4658033
0
ARC
8
DEFAULT_255_1_388
10
15.3602499
20
142.4740017
40
0.2961198
50
81.1057101
51
90.2187368
0
ARC
8
DEFAULT_255_1_388
10
15.3562311
20
142.5030421
40
0.2670929
50
89.380395
51
105.6763916
0
ARC
8
DEFAULT_255_1_388
10
15.3356033
20
142.578032
40
0.1893189
50
105.7980655
51
149.7387869
0
ARC
8
DEFAULT_255_1_388
10
15.4553173
20
142.5060719
40
0.3289892
50
149.4208441
51
163.628295
0
ARC
8
DEFAULT_255_1_388
10
15.6905403
20
142.4343345
40
0.5749004
50
163.3764549
51
172.141138
0
ARC
8
DEFAULT_255_1_388
10
16.0618124
20
142.3811582
40
0.9499585
50
172.0258462
51
178.0705453
0
ARC
8
DEFAULT_255_1_388
10
16.4039677
20
142.3649682
40
1.2924734
50
177.8639301
51
179.5036263
0
ARC
8
DEFAULT_255_1_388
10
16.2820696
20
142.1046151
40
1.170534
50
179.7995545
51
185.246089
0
ARC
8
DEFAULT_255_1_388
10
15.8272289
20
142.0615404
40
0.7136613
50
185.1411911
51
193.0082205
0
ARC
8
DEFAULT_255_1_388
10
15.5298549
20
141.9912441
40
0.4080987
50
192.7897338
51
205.2507384
0
ARC
8
DEFAULT_255_1_388
10
15.4120759
20
141.9386538
40
0.2791522
50
205.8001921
51
211.2545876
0
ARC
8
DEFAULT_255_1_388
10
15.3532299
20
141.8992132
40
0.2084074
50
210.3789935
51
238.4007996
0
ARC
8
DEFAULT_255_1_388
10
15.3510385
20
141.9044786
40
0.2117943
50
239.6521916
51
265.9793852
0
ARC
8
DEFAULT_255_1_388
10
15.3606233
20
141.9801358
40
0.2879689
50
265.1324455
51
270.0603288
0
ARC
8
DEFAULT_255_1_388
10
15.3638611
20
141.9436418
40
0.2514919
50
269.3314378
51
287.2180039
0
ARC
8
DEFAULT_255_1_388
10
15.3793693
20
141.8870291
40
0.1928357
50
287.7957942
51
329.0808983
0
ARC
8
DEFAULT_255_1_388
10
15.271645
20
141.9542651
40
0.319808
50
328.6635261
51
343.3325043
0
ARC
8
DEFAULT_255_1_388
10
15.0271908
20
142.0304195
40
0.5758408
50
343.0498092
51
351.9392499
0
ARC
8
DEFAULT_255_1_388
10
14.637123
20
142.0879205
40
0.9701202
50
351.8071632
51
357.7957897
0
ARC
8
DEFAULT_255_1_388
10
14.2736707
20
142.1067724
40
1.3340376
50
357.5870923
51
359.2682493
0
LINE
8
DEFAULT_255_1_388
10
16.8138582
20
142.351769
11
16.8138582
21
142.1349135
0
LINE
8
DEFAULT_255_1_388
10
15.9834825
20
142.1123244
11
15.9834825
21
142.3355048
0
LINE
8
DEFAULT_255_1_388
10
16.6466988
20
142.0897353
11
16.6466988
21
142.3635153
0
LINE
8
DEFAULT_255_1_388
10
16.1506419
20
142.3761652
11
16.1506419
21
142.1087102
0
ARC
8
DEFAULT_255_1_388
10
15.4360916
20
142.1294118
40
1.3777776
50
353.8440855
51
0.2287917
0
ARC
8
DEFAULT_255_1_388
10
15.9579933
20
142.0711414
40
0.852639
50
344.4934746
51
353.9763743
0
ARC
8
DEFAULT_255_1_388
10
16.2946741
20
141.9754191
40
0.5026273
50
329.2803599
51
344.7473406
0
ARC
8
DEFAULT_255_1_388
10
16.4062236
20
141.9142038
40
0.3754848
50
324.9361395
51
328.6153007
0
ARC
8
DEFAULT_255_1_388
10
16.4487886
20
141.8844586
40
0.3235566
50
280.5801797
51
324.9173226
0
ARC
8
DEFAULT_255_1_388
10
16.4036515
20
142.0724236
40
0.5167077
50
269.5979457
51
281.6732777
0
ARC
8
DEFAULT_255_1_388
10
16.3955418
20
142.0589113
40
0.5032026
50
256.6228565
51
270.5105488
0
ARC
8
DEFAULT_255_1_388
10
16.3503161
20
141.8847345
40
0.3233092
50
215.8618351
51
257.2787793
0
ARC
8
DEFAULT_255_1_388
10
16.4651868
20
141.9618106
40
0.4615831
50
197.9695203
51
215.2622745
0
ARC
8
DEFAULT_255_1_388
10
16.7447544
20
142.0561641
40
0.7566307
50
187.8816486
51
198.2346584
0
ARC
8
DEFAULT_255_1_388
10
17.1900782
20
142.1204453
40
1.2065653
50
180.8977266
51
188.0054894
0
ARC
8
DEFAULT_255_1_388
10
17.4950996
20
142.13194
40
1.5117443
50
180.7434591
51
181.152202
0
ARC
8
DEFAULT_255_1_388
10
17.3275992
20
142.3409371
40
1.3441277
50
173.7674302
51
180.2315596
0
ARC
8
DEFAULT_255_1_388
10
16.819386
20
142.3983779
40
0.8326847
50
164.3058537
51
173.9000553
0
ARC
8
DEFAULT_255_1_388
10
16.491786
20
142.4927652
40
0.4917711
50
148.7922028
51
164.5682288
0
ARC
8
DEFAULT_255_1_388
10
16.3848598
20
142.5524457
40
0.3694204
50
144.5883979
51
148.1161588
0
ARC
8
DEFAULT_255_1_388
10
16.3461343
20
142.5794667
40
0.322202
50
101.6440149
51
144.5142619
0
ARC
8
DEFAULT_255_1_388
10
16.3939535
20
142.3894337
40
0.5180451
50
89.528284
51
102.5820197
0
ARC
8
DEFAULT_255_1_388
10
16.4028527
20
142.3850376
40
0.5224441
50
77.0437914
51
90.508231
0
ARC
8
DEFAULT_255_1_388
10
16.4480781
20
142.5698272
40
0.3322297
50
48.2777708
51
77.4996087
0
ARC
8
DEFAULT_255_1_388
10
16.4562521
20
142.5843557
40
0.315966
50
36.3141586
51
47.6307332
0
ARC
8
DEFAULT_255_1_388
10
16.3585243
20
142.5185159
40
0.4337313
50
18.2931065
51
35.6770203
0
ARC
8
DEFAULT_255_1_388
10
16.0724084
20
142.4203107
40
0.7362203
50
8.0246996
51
18.5605636
0
ARC
8
DEFAULT_255_1_388
10
15.6040439
20
142.3511432
40
1.2096583
50
1.127539
51
8.1718423
0
ARC
8
DEFAULT_255_1_388
10
15.2391573
20
142.3368374
40
1.5747719
50
0.5432713
51
1.38669
0
ARC
8
DEFAULT_255_1_388
10
15.4448952
20
142.3675163
40
1.2018103
50
359.8092569
51
4.9408001
0
ARC
8
DEFAULT_255_1_388
10
15.9185533
20
142.40979
40
0.7262727
50
4.8364937
51
12.2906017
0
ARC
8
DEFAULT_255_1_388
10
16.2284998
20
142.4788485
40
0.4087324
50
12.0806994
51
23.8171225
0
ARC
8
DEFAULT_255_1_388
10
16.3605394
20
142.5347508
40
0.2653719
50
24.2874621
51
31.3934353
0
ARC
8
DEFAULT_255_1_388
10
16.419583
20
142.5733822
40
0.1948607
50
30.7407708
51
82.4658033
0
ARC
8
DEFAULT_255_1_388
10
16.399349
20
142.4740017
40
0.2961198
50
81.1057101
51
90.2187368
0
ARC
8
DEFAULT_255_1_388
10
16.3953302
20
142.5030421
40
0.2670929
50
89.380395
51
105.6763916
0
ARC
8
DEFAULT_255_1_388
10
16.3747024
20
142.578032
40
0.1893189
50
105.7980655
51
149.7387869
0
ARC
8
DEFAULT_255_1_388
10
16.4944164
20
142.5060719
40
0.3289892
50
149.4208441
51
163.628295
0
ARC
8
DEFAULT_255_1_388
10
16.7296394
20
142.4343345
40
0.5749004
50
163.3764549
51
172.141138
0
ARC
8
DEFAULT_255_1_388
10
17.1009115
20
142.3811582
40
0.9499585
50
172.0258462
51
178.0705453
0
ARC
8
DEFAULT_255_1_388
10
17.4430668
20
142.3649682
40
1.2924734
50
177.8639301
51
179.5036263
0
ARC
8
DEFAULT_255_1_388
10
17.3211687
20
142.1046151
40
1.170534
50
179.7995545
51
185.246089
0
ARC
8
DEFAULT_255_1_388
10
16.866328
20
142.0615404
40
0.7136613
50
185.1411911
51
193.0082205
0
ARC
8
DEFAULT_255_1_388
10
16.5689541
20
141.9912441
40
0.4080987
50
192.7897338
51
205.2507384
0
ARC
8
DEFAULT_255_1_388
10
16.4511751
20
141.9386538
40
0.2791522
50
205.8001921
51
211.2545876
0
ARC
8
DEFAULT_255_1_388
10
16.392329
20
141.8992132
40
0.2084074
50
210.3789935
51
238.4007996
0
ARC
8
DEFAULT_255_1_388
10
16.3901376
20
141.9044786
40
0.2117943
50
239.6521916
51
265.9793852
0
ARC
8
DEFAULT_255_1_388
10
16.3997225
20
141.9801358
40
0.2879689
50
265.1324455
51
270.0603288
0
ARC
8
DEFAULT_255_1_388
10
16.4029602
20
141.9436418
40
0.2514919
50
269.3314378
51
287.2180039
0
ARC
8
DEFAULT_255_1_388
10
16.4184684
20
141.8870291
40
0.1928357
50
287.7957942
51
329.0808983
0
ARC
8
DEFAULT_255_1_388
10
16.3107441
20
141.9542651
40
0.319808
50
328.6635261
51
343.3325043
0
ARC
8
DEFAULT_255_1_388
10
16.06629
20
142.0304195
40
0.5758408
50
343.0498092
51
351.9392499
0
ARC
8
DEFAULT_255_1_388
10
15.6762221
20
142.0879205
40
0.9701202
50
351.8071632
51
357.7957897
0
ARC
8
DEFAULT_255_1_388
10
15.3127698
20
142.1067724
40
1.3340376
50
357.5870923
51
359.2682493
0
ARC
8
DEFAULT_255_2_778
10
17.2795513
20
144.8890655
40
0.9032652
50
36.6636783
51
62.8800292
0
ARC
8
DEFAULT_255_2_778
10
17.362048
20
146.1580795
40
0.5698185
50
305.2984654
51
359.1896208
0
ARC
8
DEFAULT_255_2_778
10
17.3634372
20
146.1534256
40
0.5683825
50
359.6567283
51
359.9965559
0
ARC
8
DEFAULT_255_2_778
10
17.3738628
20
146.1532968
40
0.5579568
50
0.0097156
51
44.9837975
0
ARC
8
DEFAULT_255_2_778
10
17.3736736
20
146.1534297
40
0.5579968
50
44.9604089
51
90.0139948
0
ARC
8
DEFAULT_255_2_778
10
17.3735813
20
146.1358846
40
0.5755419
50
90.0043846
51
90.2659864
0
ARC
8
DEFAULT_255_2_778
10
17.3015142
20
144.9427344
40
0.8779024
50
272.428255
51
302.0472027
0
ARC
8
DEFAULT_255_2_778
10
17.3149911
20
144.9082487
40
0.841549
50
302.5153244
51
0.4882776
0
ARC
8
DEFAULT_255_2_778
10
17.3237108
20
144.9362449
40
0.833059
50
358.5675863
51
29.0157619
0
ARC
8
DEFAULT_255_2_778
10
15.115709
20
144.8901166
40
0.90203
50
36.6388615
51
62.8867752
0
ARC
8
DEFAULT_255_2_778
10
15.1980877
20
146.1577954
40
0.5692748
50
305.2706468
51
359.2174393
0
ARC
8
DEFAULT_255_2_778
10
15.2034234
20
146.1530241
40
0.563894
50
359.6947901
51
359.9999584
0
ARC
8
DEFAULT_255_2_778
10
15.2087973
20
146.1530658
40
0.5585202
50
359.9956834
51
44.9740581
0
ARC
8
DEFAULT_255_2_778
10
15.2091182
20
146.1533026
40
0.5581257
50
44.9801433
51
90.0010632
0
ARC
8
DEFAULT_255_2_778
10
15.2091083
20
146.1493714
40
0.562057
50
90.0000416
51
90.3056982
0
ARC
8
DEFAULT_255_2_778
10
15.1365968
20
144.9428822
40
0.8780507
50
272.42898
51
302.0445025
0
ARC
8
DEFAULT_255_2_778
10
15.1501929
20
144.9082943
40
0.8415468
50
302.5093151
51
0.4851764
0
ARC
8
DEFAULT_255_2_778
10
15.1579024
20
144.9359974
40
0.8340609
50
358.5863171
51
28.9970314
0
LINE
8
DEFAULT_255_2_778
10
13.4101095
20
145.4284203
11
12.9532095
21
146.7114203
0
LINE
8
DEFAULT_255_2_778
10
12.9532095
20
146.7114203
11
12.6084095
21
146.7114203
0
LINE
8
DEFAULT_255_2_778
10
12.6084095
20
146.7114203
11
12.6084095
21
145.4284203
0
LINE
8
DEFAULT_255_2_778
10
12.6084095
20
145.4284203
11
13.4101095
21
145.4284203
0
LINE
8
DEFAULT_255_2_778
10
12.6084095
20
144.6267203
11
13.0334095
21
144.6267203
0
LINE
8
DEFAULT_255_2_778
10
13.0334095
20
144.6267203
11
13.2257095
21
144.0656203
0
LINE
8
DEFAULT_255_2_778
10
13.2257095
20
144.0656203
11
13.8911095
21
144.0656203
0
LINE
8
DEFAULT_255_2_778
10
13.8911095
20
144.0656203
11
13.4342095
21
145.3483203
0
LINE
8
DEFAULT_255_2_778
10
13.4342095
20
145.3483203
11
12.6084095
21
145.3483203
0
LINE
8
DEFAULT_255_2_778
10
12.6084095
20
145.3483203
11
12.6084095
21
144.6267203
0
LINE
8
DEFAULT_255_2_778
10
12.5283095
20
146.7114203
11
12.1835095
21
146.7114203
0
LINE
8
DEFAULT_255_2_778
10
12.1835095
20
146.7114203
11
11.7266095
21
145.4284203
0
LINE
8
DEFAULT_255_2_778
10
11.7266095
20
145.4284203
11
12.5283095
21
145.4284203
0
LINE
8
DEFAULT_255_2_778
10
12.5283095
20
145.4284203
11
12.5283095
21
146.7114203
0
LINE
8
DEFAULT_255_2_778
10
11.7025095
20
145.3483203
11
11.2453095
21
144.0656203
0
LINE
8
DEFAULT_255_2_778
10
11.2453095
20
144.0656203
11
11.9107095
21
144.0656203
0
LINE
8
DEFAULT_255_2_778
10
11.9107095
20
144.0656203
11
12.1031095
21
144.6267203
0
LINE
8
DEFAULT_255_2_778
10
12.1031095
20
144.6267203
11
12.5280095
21
144.6267203
0
LINE
8
DEFAULT_255_2_778
10
12.5280095
20
144.6267203
11
12.5280095
21
145.3483203
0
LINE
8
DEFAULT_255_2_778
10
12.5280095
20
145.3483203
11
11.7025095
21
145.3483203
0
LINE
8
DEFAULT_255_2_778
10
16.2965095
20
146.7114203
11
17.0981095
21
146.7114203
0
LINE
8
DEFAULT_255_2_778
10
17.0981095
20
146.7114203
11
17.0981095
21
145.4284203
0
LINE
8
DEFAULT_255_2_778
10
17.0981095
20
145.4284203
11
16.2965095
21
145.4284203
0
LINE
8
DEFAULT_255_2_778
10
16.2965095
20
145.4284203
11
16.2965095
21
146.7114203
0
LINE
8
DEFAULT_255_2_778
10
17.3709095
20
146.7114203
11
17.1786095
21
146.7114203
0
LINE
8
DEFAULT_255_2_778
10
17.1786095
20
146.7114203
11
17.1786095
21
145.4284203
0
LINE
8
DEFAULT_255_2_778
10
17.1786095
20
145.4284203
11
18.0043095
21
145.4284203
0
LINE
8
DEFAULT_255_2_778
10
18.0043095
20
145.4284203
11
18.0041095
21
145.4284203
0
LINE
8
DEFAULT_255_2_778
10
16.2965095
20
145.3483203
11
17.0981095
21
145.3483203
0
LINE
8
DEFAULT_255_2_778
10
17.0981095
20
145.3483203
11
17.0981095
21
144.0656203
0
LINE
8
DEFAULT_255_2_778
10
17.0981095
20
144.0656203
11
16.2965095
21
144.0656203
0
LINE
8
DEFAULT_255_2_778
10
16.2965095
20
144.0656203
11
16.2965095
21
145.3483203
0
LINE
8
DEFAULT_255_2_778
10
17.1783095
20
144.0656203
11
17.3387095
21
144.0656203
0
LINE
8
DEFAULT_255_2_778
10
18.0522095
20
145.3403203
11
17.1783095
21
145.3403203
0
LINE
8
DEFAULT_255_2_778
10
17.1783095
20
145.3403203
11
17.1783095
21
144.0656203
0
LINE
8
DEFAULT_255_2_778
10
17.1783095
20
144.0656203
11
17.1783095
21
144.0656203
0
LINE
8
DEFAULT_255_2_778
10
14.1316095
20
146.7114203
11
14.9333095
21
146.7114203
0
LINE
8
DEFAULT_255_2_778
10
14.9333095
20
146.7114203
11
14.9333095
21
145.4284203
0
LINE
8
DEFAULT_255_2_778
10
14.9333095
20
145.4284203
11
14.1316095
21
145.4284203
0
LINE
8
DEFAULT_255_2_778
10
14.1316095
20
145.4284203
11
14.1316095
21
146.7114203
0
LINE
8
DEFAULT_255_2_778
10
15.2061095
20
146.7114203
11
15.0138095
21
146.7114203
0
LINE
8
DEFAULT_255_2_778
10
15.0138095
20
146.7114203
11
15.0138095
21
145.4284203
0
LINE
8
DEFAULT_255_2_778
10
15.0138095
20
145.4284203
11
15.8395095
21
145.4284203
0
LINE
8
DEFAULT_255_2_778
10
15.8395095
20
145.4284203
11
15.8395095
21
145.4284203
0
LINE
8
DEFAULT_255_2_778
10
14.1316095
20
145.3483203
11
14.9333095
21
145.3483203
0
LINE
8
DEFAULT_255_2_778
10
14.9333095
20
145.3483203
11
14.9333095
21
144.0656203
0
LINE
8
DEFAULT_255_2_778
10
14.9333095
20
144.0656203
11
14.1316095
21
144.0656203
0
LINE
8
DEFAULT_255_2_778
10
14.1316095
20
144.0656203
11
14.1316095
21
145.3483203
0
LINE
8
DEFAULT_255_2_778
10
15.0135095
20
144.0656203
11
15.1738095
21
144.0656203
0
LINE
8
DEFAULT_255_2_778
10
15.8874095
20
145.3403203
11
15.0135095
21
145.3403203
0
LINE
8
DEFAULT_255_2_778
10
15.0135095
20
145.3403203
11
15.0135095
21
144.0656203
0
LINE
8
DEFAULT_255_2_778
10
15.0135095
20
144.0656203
11
15.0135095
21
144.0656203
0
LINE
8
DEFAULT_255_2_778
10
9.3932417
20
132.1593982
11
10.7161417
21
132.1593982
0
LINE
8
DEFAULT_255_2_778
10
10.7161417
20
132.1593982
11
10.7161417
21
71.3051982
0
LINE
8
DEFAULT_255_2_778
10
10.7161417
20
66.0135982
11
10.7161417
21
5.1593982
0
LINE
8
DEFAULT_255_2_778
10
10.7161417
20
5.1593982
11
9.3932417
21
5.1593982
0
LINE
8
DEFAULT_255_2_778
10
9.3932834
20
71.3052333
11
12.0390834
21
71.3052333
0
LINE
8
DEFAULT_255_2_778
10
12.0390834
20
71.3052333
11
12.0390834
21
66.0135333
0
LINE
8
DEFAULT_255_2_778
10
12.0390834
20
66.0135333
11
9.3932834
21
66.0135333
0
LINE
8
DEFAULT_255_2_778
10
9.3932834
20
66.0135333
11
9.3932834
21
71.3052333
0
LINE
8
DEFAULT_255_2_778
10
10.187
20
66.5427666
11
10.187
21
70.7760666
0
LINE
8
DEFAULT_255_2_778
10
9.9224167
20
69.982375
11
10.1870167
21
70.776075
0
LINE
8
DEFAULT_255_2_778
10
10.1870167
20
70.776075
11
10.4516167
21
69.982375
0
LINE
8
DEFAULT_255_2_778
10
10.4516167
20
69.982375
11
9.9224167
21
69.982375
0
LINE
8
DEFAULT_255_2_778
10
11.2453
20
70.7760666
11
11.2453
21
66.5427666
0
LINE
8
DEFAULT_255_2_778
10
10.9807167
20
67.336475
11
11.2453167
21
66.542775
0
LINE
8
DEFAULT_255_2_778
10
11.2453167
20
66.542775
11
11.5099167
21
67.336475
0
LINE
8
DEFAULT_255_2_778
10
11.5099167
20
67.336475
11
10.9807167
21
67.336475
0
LINE
8
DEFAULT_255_2_778
10
19.9765417
20
132.1593579
11
18.6536417
21
132.1593579
0
LINE
8
DEFAULT_255_2_778
10
18.6536417
20
132.1593579
11
18.6536417
21
99.0864579
0
LINE
8
DEFAULT_255_2_778
10
17.3307834
20
99.0864333
11
19.9765834
21
99.0864333
0
LINE
8
DEFAULT_255_2_778
10
19.9765834
20
99.0864333
11
19.9765834
21
93.7947333
0
LINE
8
DEFAULT_255_2_778
10
19.9765834
20
93.7947333
11
17.3307834
21
93.7947333
0
LINE
8
DEFAULT_255_2_778
10
17.3307834
20
93.7947333
11
17.3307834
21
99.0864333
0
ARC
8
DEFAULT_255_2_778_1
10
21.1303591
20
93.897177
40
4.816461
50
120.9442904
51
122.351755
0
ARC
8
DEFAULT_255_2_778_1
10
20.6837523
20
94.6008039
40
3.9830657
50
122.3407904
51
124.1946752
0
ARC
8
DEFAULT_255_2_778_1
10
20.2438464
20
95.2473306
40
3.2010724
50
124.1855758
51
126.4338849
0
ARC
8
DEFAULT_255_2_778_1
10
19.8579129
20
95.7700611
40
2.5513094
50
126.4326926
51
128.8877368
0
ARC
8
DEFAULT_255_2_778_1
10
19.5230968
20
96.1844658
40
2.0185498
50
128.8749205
51
131.8726567
0
ARC
8
DEFAULT_255_2_778_1
10
19.2259677
20
96.5154854
40
1.5737356
50
131.8616166
51
135.4168838
0
ARC
8
DEFAULT_255_2_778_1
10
18.963168
20
96.7736765
40
1.2053256
50
135.3893975
51
139.9687014
0
ARC
8
DEFAULT_255_2_778_1
10
18.7302889
20
96.9685102
40
0.9016937
50
139.9301659
51
145.9260426
0
ARC
8
DEFAULT_255_2_778_1
10
18.534154
20
97.1005104
40
0.6652776
50
145.8787362
51
153.8146208
0
ARC
8
DEFAULT_255_2_778_1
10
18.3820553
20
97.1748797
40
0.4959714
50
153.770634
51
164.3484794
0
ARC
8
DEFAULT_255_2_778_1
10
18.2807387
20
97.2030786
40
0.3908039
50
164.3220276
51
179.8083066
0
ARC
8
DEFAULT_255_2_778_1
10
18.3017789
20
97.211215
40
0.4118985
50
180.9499449
51
213.8111542
0
ARC
8
DEFAULT_255_2_778_1
10
18.5776828
20
97.3807896
40
0.73561
50
212.8271214
51
224.258472
0
ARC
8
DEFAULT_255_2_778_1
10
18.9605335
20
97.7501236
40
1.267567
50
224.1376218
51
231.4508261
0
ARC
8
DEFAULT_255_2_778_1
10
19.6032195
20
98.5531168
40
2.2960809
50
231.3955893
51
236.1256478
0
ARC
8
DEFAULT_255_2_778_1
10
21.4355223
20
101.2996293
40
5.5976905
50
236.2233172
51
239.1314682
0
ARC
8
DEFAULT_255_2_778_1
10
33.385427
20
121.0273568
40
28.6623793
50
238.8606853
51
239.0711101
0
ARC
8
DEFAULT_255_2_778_1
10
14.2132281
20
88.9302653
40
8.7248518
50
57.2420924
51
59.4062964
0
ARC
8
DEFAULT_255_2_778_1
10
17.4409241
20
93.9612102
40
2.747542
50
52.8289294
51
57.079028
0
ARC
8
DEFAULT_255_2_778_1
10
18.2155783
20
94.9815488
40
1.466457
50
46.3041868
51
52.8596521
0
ARC
8
DEFAULT_255_2_778_1
10
18.6478073
20
95.4316842
40
0.8424061
50
36.2174211
51
46.4090895
0
ARC
8
DEFAULT_255_2_778_1
10
18.9323088
20
95.6365128
40
0.4918609
50
17.400375
51
36.5489745
0
ARC
8
DEFAULT_255_2_778_1
10
19.0463994
20
95.6763754
40
0.3710912
50
0.0676858
51
16.7951297
0
ARC
8
DEFAULT_255_2_778_1
10
19.0253613
20
95.6782428
40
0.3921317
50
343.8035191
51
359.7912046
0
ARC
8
DEFAULT_255_2_778_1
10
18.9190912
20
95.7087167
40
0.5026844
50
333.2506233
51
343.8465691
0
ARC
8
DEFAULT_255_2_778_1
10
18.7652757
20
95.7854313
40
0.6745679
50
325.6600948
51
333.3122657
0
ARC
8
DEFAULT_255_2_778_1
10
18.5698344
20
95.9182296
40
0.9108568
50
319.7560915
51
325.6976089
0
ARC
8
DEFAULT_255_2_778_1
10
18.341699
20
96.1100002
40
1.2088854
50
315.4577584
51
319.8037947
0
ARC
8
DEFAULT_255_2_778_1
10
18.0783127
20
96.3688507
40
1.5781764
50
311.7298824
51
315.4670864
0
ARC
8
DEFAULT_255_2_778_1
10
17.7692879
20
96.7144074
40
2.0417554
50
308.723055
51
311.7470879
0
ARC
8
DEFAULT_255_2_778_1
10
17.415089
20
97.1556492
40
2.6075745
50
306.1165163
51
308.7300151
0
ARC
8
DEFAULT_255_2_778_1
10
17.0121091
20
97.7069523
40
3.2904564
50
303.9559446
51
306.1266333
0
ARC
8
DEFAULT_255_2_778_1
10
16.6005432
20
98.316215
40
4.0257023
50
302.3733397
51
303.9712246
0
ARC
8
DEFAULT_255_2_778_1
10
16.1809347
20
98.9777058
40
4.8090549
50
300.9434827
51
302.3758078
0
LINE
8
DEFAULT_255_2_778
10
18.6536417
20
93.7947579
11
18.6536417
21
60.7218579
0
LINE
8
DEFAULT_255_2_778
10
18.6536417
20
60.7218579
11
19.9765417
21
60.7218579
0
LINE
8
DEFAULT_255_1_388
10
4.8826318
20
139.7258382
11
4.8826318
21
139.5894
0
LINE
8
DEFAULT_255_1_388
10
4.8826318
20
139.5894
11
4.0206313
21
139.5894
0
LINE
8
DEFAULT_255_1_388
10
4.0206313
20
139.5894
11
4.0206313
21
139.7095741
0
LINE
8
DEFAULT_255_1_388
10
4.0206313
20
139.7095741
11
4.4760278
21
140.2155702
0
LINE
8
DEFAULT_255_1_388
10
4.1624909
20
140.5173607
11
3.9953315
21
140.5173607
0
LINE
8
DEFAULT_255_1_388
10
4.5745163
20
140.108046
11
4.2221262
21
139.7258382
0
LINE
8
DEFAULT_255_1_388
10
4.2221262
20
139.7258382
11
4.8826318
21
139.7258382
0
ARC
8
DEFAULT_255_1_388
10
2.9584337
20
141.5575983
40
2.0258655
50
318.5132526
51
320.7829045
0
ARC
8
DEFAULT_255_1_388
10
3.5532294
20
141.0734929
40
1.2589638
50
320.7372878
51
323.9739031
0
ARC
8
DEFAULT_255_1_388
10
3.9941226
20
140.7540554
40
0.7145141
50
323.8962701
51
328.64194
0
ARC
8
DEFAULT_255_1_388
10
4.2243484
20
140.6120545
40
0.4440242
50
328.8294576
51
331.7891185
0
ARC
8
DEFAULT_255_1_388
10
4.3365804
20
140.5541374
40
0.3177517
50
331.4254512
51
352.9365785
0
ARC
8
DEFAULT_255_1_388
10
4.3518804
20
140.550705
40
0.3021496
50
353.2257659
51
0.0166158
0
ARC
8
DEFAULT_255_1_388
10
4.3755564
20
140.5532894
40
0.2784847
50
359.486299
51
15.9343185
0
ARC
8
DEFAULT_255_1_388
10
4.4325831
20
140.5686269
40
0.2194403
50
16.1712913
51
43.5286088
0
ARC
8
DEFAULT_255_1_388
10
4.4412776
20
140.5773191
40
0.2071504
50
43.4417391
51
83.1661095
0
ARC
8
DEFAULT_255_1_388
10
4.4261937
20
140.4944316
40
0.2912888
50
82.160179
51
90.1505708
0
ARC
8
DEFAULT_255_1_388
10
4.4226418
20
140.4340279
40
0.3517025
50
89.5460741
51
102.5418361
0
ARC
8
DEFAULT_255_1_388
10
4.3953138
20
140.5499933
40
0.2325748
50
102.1738499
51
129.206123
0
ARC
8
DEFAULT_255_1_388
10
4.3864592
20
140.5639664
40
0.2161591
50
129.72865
51
135.753947
0
ARC
8
DEFAULT_255_1_388
10
4.4001074
20
140.5530728
40
0.2335433
50
136.1757367
51
166.3673339
0
ARC
8
DEFAULT_255_1_388
10
4.5133762
20
140.5227148
40
0.3507873
50
165.9090694
51
178.8684636
0
ARC
8
DEFAULT_255_1_388
10
4.6109534
20
140.5174263
40
0.4484624
50
178.4391136
51
180.0083808
0
ARC
8
DEFAULT_255_1_388
10
4.4530235
20
140.5218197
40
0.4577138
50
163.2878482
51
180.5581842
0
ARC
8
DEFAULT_255_1_388
10
4.3628276
20
140.5466393
40
0.3641968
50
133.4540601
51
162.947111
0
ARC
8
DEFAULT_255_1_388
10
4.3829158
20
140.5252789
40
0.3935189
50
100.7869829
51
133.4382499
0
ARC
8
DEFAULT_255_1_388
10
4.4220403
20
140.3510399
40
0.5720313
50
89.660664
51
101.3702276
0
ARC
8
DEFAULT_255_1_388
10
4.4295012
20
140.3579263
40
0.5651495
50
78.2172678
51
90.412935
0
ARC
8
DEFAULT_255_1_388
10
4.4694478
20
140.5406511
40
0.378122
50
55.9269121
51
78.4888449
0
ARC
8
DEFAULT_255_1_388
10
4.4915193
20
140.5787187
40
0.3342379
50
47.929771
51
55.4049217
0
ARC
8
DEFAULT_255_1_388
10
4.5029723
20
140.5903618
40
0.3179217
50
4.334829
51
48.0560205
0
ARC
8
DEFAULT_255_1_388
10
4.3797525
20
140.5712487
40
0.442341
50
359.9251713
51
5.5971671
0
ARC
8
DEFAULT_255_1_388
10
4.427968
20
140.5775728
40
0.3941854
50
337.8914027
51
358.9967534
0
ARC
8
DEFAULT_255_1_388
10
4.122725
20
140.6953295
40
0.7213271
50
326.9132501
51
338.3508308
0
ARC
8
DEFAULT_255_1_388
10
3.6743362
20
140.9827105
40
1.2538973
50
319.6471833
51
327.0959558
0
ARC
8
DEFAULT_255_1_388
10
3.243002
20
141.338505
40
1.8129975
50
317.2588228
51
319.9045804
0
LINE
8
DEFAULT_255_1_388
10
5.7654143
20
140.9049898
11
5.7654143
21
140.031243
0
LINE
8
DEFAULT_255_1_388
10
5.7654143
20
140.031243
11
5.9479343
21
140.031243
0
LINE
8
DEFAULT_255_1_388
10
5.9479343
20
140.031243
11
5.9479343
21
139.8948048
0
LINE
8
DEFAULT_255_1_388
10
5.9479343
20
139.8948048
11
5.7654143
21
139.8948048
0
LINE
8
DEFAULT_255_1_388
10
5.7654143
20
139.8948048
11
5.7654143
21
139.5894
0
LINE
8
DEFAULT_255_1_388
10
5.7654143
20
139.5894
11
5.5973513
21
139.5894
0
LINE
8
DEFAULT_255_1_388
10
5.5973513
20
139.5894
11
5.5973513
21
139.8948048
0
LINE
8
DEFAULT_255_1_388
10
5.5973513
20
139.8948048
11
4.998288
21
139.8948048
0
LINE
8
DEFAULT_255_1_388
10
4.998288
20
139.8948048
11
4.998288
21
139.9932933
0
LINE
8
DEFAULT_255_1_388
10
4.998288
20
139.9932933
11
5.5874121
21
140.9049898
0
LINE
8
DEFAULT_255_1_388
10
5.5874121
20
140.9049898
11
5.7654143
21
140.9049898
0
LINE
8
DEFAULT_255_1_388
10
5.5774729
20
140.6402455
11
5.1880366
21
140.031243
0
LINE
8
DEFAULT_255_1_388
10
5.1880366
20
140.031243
11
5.5973513
21
140.031243
0
LINE
8
DEFAULT_255_1_388
10
5.5973513
20
140.031243
11
5.5973513
21
140.676388
0
LINE
8
DEFAULT_255_1_388
10
5.5973513
20
140.676388
11
5.5774729
21
140.6402455
0
LINE
8
DEFAULT_255_1_388
10
6.203643
20
140.9049898
11
6.5777187
21
139.8198089
0
LINE
8
DEFAULT_255_1_388
10
6.5777187
20
139.8198089
11
6.9536015
21
140.9049898
0
LINE
8
DEFAULT_255_1_388
10
6.9536015
20
140.9049898
11
7.14335
21
140.9049898
0
LINE
8
DEFAULT_255_1_388
10
7.14335
20
140.9049898
11
6.6554252
21
139.5894
0
LINE
8
DEFAULT_255_1_388
10
6.6554252
20
139.5894
11
6.5018193
21
139.5894
0
LINE
8
DEFAULT_255_1_388
10
6.5018193
20
139.5894
11
6.014798
21
140.9049898
0
LINE
8
DEFAULT_255_1_388
10
6.014798
20
140.9049898
11
6.203643
21
140.9049898
0
LINE
8
DEFAULT_255_1_388
10
4.3662389
20
4.6519
11
4.0021024
21
4.6519
0
LINE
8
DEFAULT_255_1_388
10
4.0021024
20
4.6519
11
4.0021024
21
5.9674898
0
LINE
8
DEFAULT_255_1_388
10
4.0021024
20
5.9674898
11
4.3734674
21
5.9674898
0
LINE
8
DEFAULT_255_1_388
10
4.9535558
20
5.3539696
11
4.9535558
21
5.2699381
0
LINE
8
DEFAULT_255_1_388
10
4.3779852
20
5.8247267
11
4.1755868
21
5.8247267
0
LINE
8
DEFAULT_255_1_388
10
4.1755868
20
5.8247267
11
4.1755868
21
4.7937596
0
LINE
8
DEFAULT_255_1_388
10
4.1755868
20
4.7937596
11
4.3581068
21
4.7937596
0
LINE
8
DEFAULT_255_1_388
10
4.7818785
20
5.2735523
11
4.7818785
21
5.3503553
0
ARC
8
DEFAULT_255_1_388
10
4.3778469
20
5.3076436
40
0.6598608
50
75.4100343
51
90.3802731
0
ARC
8
DEFAULT_255_1_388
10
4.4036714
20
5.4152691
40
0.5492049
50
60.1455157
51
75.1889627
0
ARC
8
DEFAULT_255_1_388
10
4.4215306
20
5.4463914
40
0.5133226
50
26.525419
51
60.1451222
0
ARC
8
DEFAULT_255_1_388
10
4.2955092
20
5.3795642
40
0.6559324
50
7.4029944
51
26.832209
0
ARC
8
DEFAULT_255_1_388
10
4.1161489
20
5.3516229
40
0.8374103
50
0.1605597
51
7.7176135
0
ARC
8
DEFAULT_255_1_388
10
4.1345889
20
5.2656321
40
0.8189782
50
348.7289744
51
0.30125
0
ARC
8
DEFAULT_255_1_388
10
4.3209353
20
5.2286156
40
0.628991
50
333.0706936
51
348.7181455
0
ARC
8
DEFAULT_255_1_388
10
4.4296981
20
5.1695449
40
0.5052808
50
299.2531435
51
333.4571133
0
ARC
8
DEFAULT_255_1_388
10
4.3891012
20
5.2466629
40
0.5924066
50
278.1072193
51
299.0340218
0
ARC
8
DEFAULT_255_1_388
10
4.3603061
20
5.4162979
40
0.7644209
50
270.4446841
51
278.4508355
0
ARC
8
DEFAULT_255_1_388
10
4.3626545
20
5.31173
40
0.5179903
50
269.4969684
51
284.0204874
0
ARC
8
DEFAULT_255_1_388
10
4.4026263
20
5.1581415
40
0.3592968
50
283.7699076
51
318.1557121
0
ARC
8
DEFAULT_255_1_388
10
4.3646808
20
5.1865399
40
0.4065308
50
318.7417595
51
343.687252
0
ARC
8
DEFAULT_255_1_388
10
4.1617387
20
5.2499275
40
0.6191194
50
343.3324891
51
355.8548594
0
ARC
8
DEFAULT_255_1_388
10
3.9256424
20
5.2723719
40
0.856237
50
355.4988754
51
0.0789913
0
ARC
8
DEFAULT_255_1_388
10
4.0137224
20
5.355108
40
0.7681709
50
359.6455047
51
9.8607559
0
ARC
8
DEFAULT_255_1_388
10
4.2792947
20
5.4030664
40
0.498312
50
9.6573037
51
26.1931522
0
ARC
8
DEFAULT_255_1_388
10
4.3837022
20
5.4515587
40
0.3832303
50
26.5777895
51
40.1533752
0
ARC
8
DEFAULT_255_1_388
10
4.4124687
20
5.474002
40
0.3467742
50
40.3839958
51
80.1430923
0
ARC
8
DEFAULT_255_1_388
10
4.3756942
20
5.3109486
40
0.5137832
50
79.2153636
51
89.7445174
0
LINE
8
DEFAULT_255_1_388
10
5.4017237
20
5.9674898
11
5.4017237
21
4.6519
0
LINE
8
DEFAULT_255_1_388
10
5.4017237
20
4.6519
11
5.2282394
21
4.6519
0
LINE
8
DEFAULT_255_1_388
10
5.2282394
20
4.6519
11
5.2282394
21
5.9674898
0
LINE
8
DEFAULT_255_1_388
10
5.2282394
20
5.9674898
11
5.4017237
21
5.9674898
0
LINE
8
DEFAULT_255_1_388
10
6.2248709
20
5.9738148
11
6.2248709
21
4.6519
0
LINE
8
DEFAULT_255_1_388
10
6.2248709
20
4.6519
11
6.056808
21
4.6519
0
LINE
8
DEFAULT_255_1_388
10
6.056808
20
4.6519
11
6.056808
21
5.765995
0
LINE
8
DEFAULT_255_1_388
10
6.056808
20
5.765995
11
5.7197784
21
5.6422066
0
LINE
8
DEFAULT_255_1_388
10
5.7197784
20
5.6422066
11
5.7197784
21
5.7940055
0
LINE
8
DEFAULT_255_1_388
10
5.7197784
20
5.7940055
11
6.1986676
21
5.9738148
0
LINE
8
DEFAULT_255_1_388
10
6.1986676
20
5.9738148
11
6.2248709
21
5.9738148
0
LINE
8
DEFAULT_255_1_388
10
7.340773
20
5.9683934
11
7.3705907
21
5.9683934
0
LINE
8
DEFAULT_255_1_388
10
7.3705907
20
5.9683934
11
7.3705907
21
5.8265338
0
LINE
8
DEFAULT_255_1_388
10
7.3705907
20
5.8265338
11
7.3398695
21
5.8265338
0
LINE
8
DEFAULT_255_1_388
10
6.7245421
20
5.1524747
11
6.7245421
21
5.2166278
0
LINE
8
DEFAULT_255_1_388
10
6.8926051
20
5.1949422
11
6.8926051
21
5.1334999
0
ARC
8
DEFAULT_255_1_388
10
7.3457586
20
5.2642826
40
0.562282
50
90.6001079
51
104.5146616
0
ARC
8
DEFAULT_255_1_388
10
7.3020546
20
5.42681
40
0.3939917
50
104.2855758
51
133.8630124
0
ARC
8
DEFAULT_255_1_388
10
7.3204799
20
5.4146243
40
0.4155734
50
134.5304124
51
161.6210222
0
ARC
8
DEFAULT_255_1_388
10
7.5064731
20
5.3490421
40
0.6127682
50
161.2850533
51
174.2074364
0
ARC
8
DEFAULT_255_1_388
10
7.6654298
20
5.3271437
40
0.7731446
50
173.7817938
51
174.9251711
0
ARC
8
DEFAULT_255_1_388
10
7.1528491
20
5.171627
40
0.3412588
50
95.8332067
51
138.995412
0
ARC
8
DEFAULT_255_1_388
10
7.1779771
20
5.0277695
40
0.4870358
50
89.8755506
51
97.0540979
0
ARC
8
DEFAULT_255_1_388
10
7.1833161
20
5.1217841
40
0.3930432
50
71.6407016
51
90.6240821
0
ARC
8
DEFAULT_255_1_388
10
7.2002554
20
5.1841433
40
0.3285421
50
39.6368051
51
71.0190743
0
ARC
8
DEFAULT_255_1_388
10
7.1286462
20
5.1222586
40
0.4231706
50
10.6588054
51
39.9044509
0
ARC
8
DEFAULT_255_1_388
10
6.9545007
20
5.0844223
40
0.60133
50
359.6827842
51
11.1326896
0
ARC
8
DEFAULT_255_1_388
10
6.9500343
20
5.0764715
40
0.6058047
50
347.2485908
51
0.4371098
0
ARC
8
DEFAULT_255_1_388
10
7.1376129
20
5.0313379
40
0.4128987
50
318.1408565
51
347.6118497
0
ARC
8
DEFAULT_255_1_388
10
7.1741725
20
5.0012903
40
0.3656244
50
275.6342406
51
317.824739
0
ARC
8
DEFAULT_255_1_388
10
7.1493246
20
5.1474827
40
0.513655
50
269.8872513
51
276.7916069
0
ARC
8
DEFAULT_255_1_388
10
7.1431439
20
5.0321181
40
0.398323
50
246.9139443
51
270.7436787
0
ARC
8
DEFAULT_255_1_388
10
7.1438635
20
5.0161044
40
0.3839368
50
218.1665534
51
245.8780431
0
ARC
8
DEFAULT_255_1_388
10
7.2428007
20
5.0988903
40
0.5128958
50
191.4115343
51
218.6077624
0
ARC
8
DEFAULT_255_1_388
10
7.4608323
20
5.1477777
40
0.7363054
50
179.6344971
51
191.7836758
0
ARC
8
DEFAULT_255_1_388
10
8.0888197
20
5.2241495
40
1.3642984
50
171.4523743
51
180.3158856
0
ARC
8
DEFAULT_255_1_388
10
7.5943925
20
5.3010895
40
0.8639311
50
157.9802296
51
171.6246761
0
ARC
8
DEFAULT_255_1_388
10
7.3453275
20
5.4004038
40
0.5958004
50
141.4299236
51
157.8541251
0
ARC
8
DEFAULT_255_1_388
10
7.2731359
20
5.4514746
40
0.5075416
50
102.871586
51
140.8564533
0
ARC
8
DEFAULT_255_1_388
10
7.3459911
20
5.1769943
40
0.7914163
50
90.377773
51
103.5868422
0
ARC
8
DEFAULT_255_1_388
10
7.1504432
20
5.1089543
40
0.2667015
50
89.8751238
51
126.2072139
0
ARC
8
DEFAULT_255_1_388
10
7.1555903
20
5.0915847
40
0.2838229
50
124.9742447
51
144.8960197
0
ARC
8
DEFAULT_255_1_388
10
7.1358149
20
5.1076981
40
0.2583845
50
145.2974778
51
160.2660922
0
ARC
8
DEFAULT_255_1_388
10
7.4814637
20
5.1299151
40
0.5888695
50
179.6512124
51
190.285571
0
ARC
8
DEFAULT_255_1_388
10
7.2909116
20
5.0939968
40
0.3949683
50
190.0944895
51
207.5099647
0
ARC
8
DEFAULT_255_1_388
10
7.2272698
20
5.0637177
40
0.3245464
50
207.9585471
51
216.325377
0
ARC
8
DEFAULT_255_1_388
10
7.1890335
20
5.0322712
40
0.2751259
50
215.7661336
51
232.5457193
0
ARC
8
DEFAULT_255_1_388
10
7.1459451
20
4.9775273
40
0.2054668
50
232.8005815
51
270.6605497
0
ARC
8
DEFAULT_255_1_388
10
7.1510875
20
5.0184853
40
0.2464268
50
269.3550767
51
288.474612
0
ARC
8
DEFAULT_255_1_388
10
7.1615382
20
4.9791721
40
0.2058436
50
289.1831976
51
322.9685307
0
ARC
8
DEFAULT_255_1_388
10
7.0927484
20
5.0334279
40
0.2934408
50
322.6007085
51
346.5183319
0
ARC
8
DEFAULT_255_1_388
10
6.962524
20
5.0666434
40
0.4278249
50
346.2584622
51
358.7739592
0
ARC
8
DEFAULT_255_1_388
10
6.8473816
20
5.0728829
40
0.5430876
50
358.3757628
51
0.0082477
0
ARC
8
DEFAULT_255_1_388
10
6.9330634
20
5.0759856
40
0.4574157
50
359.6211417
51
11.28403
0
ARC
8
DEFAULT_255_1_388
10
7.076724
20
5.1059535
40
0.3106708
50
11.0483152
51
31.8145585
0
ARC
8
DEFAULT_255_1_388
10
7.1114945
20
5.1248045
40
0.2711963
50
32.3028554
51
38.0820598
0
ARC
8
DEFAULT_255_1_388
10
7.1588178
20
5.1676717
40
0.2075566
50
36.8249851
51
85.741667
0
ARC
8
DEFAULT_255_1_388
10
7.1512591
20
5.1113065
40
0.2643487
50
85.0150021
51
90.050843
0
LINE
8
DEFAULT_255_1_388
10
4.3662389
20
12.5894
11
4.0021024
21
12.5894
0
LINE
8
DEFAULT_255_1_388
10
4.0021024
20
12.5894
11
4.0021024
21
13.9049898
0
LINE
8
DEFAULT_255_1_388
10
4.0021024
20
13.9049898
11
4.3734674
21
13.9049898
0
LINE
8
DEFAULT_255_1_388
10
4.9535558
20
13.2914696
11
4.9535558
21
13.2074381
0
LINE
8
DEFAULT_255_1_388
10
4.3779852
20
13.7622267
11
4.1755868
21
13.7622267
0
LINE
8
DEFAULT_255_1_388
10
4.1755868
20
13.7622267
11
4.1755868
21
12.7312596
0
LINE
8
DEFAULT_255_1_388
10
4.1755868
20
12.7312596
11
4.3581068
21
12.7312596
0
LINE
8
DEFAULT_255_1_388
10
4.7818785
20
13.2110523
11
4.7818785
21
13.2878553
0
ARC
8
DEFAULT_255_1_388
10
4.3778469
20
13.2451436
40
0.6598608
50
75.4100343
51
90.3802731
0
ARC
8
DEFAULT_255_1_388
10
4.4036714
20
13.3527691
40
0.5492049
50
60.1455157
51
75.1889627
0
ARC
8
DEFAULT_255_1_388
10
4.4215306
20
13.3838914
40
0.5133226
50
26.525419
51
60.1451222
0
ARC
8
DEFAULT_255_1_388
10
4.2955092
20
13.3170642
40
0.6559324
50
7.4029944
51
26.832209
0
ARC
8
DEFAULT_255_1_388
10
4.1161489
20
13.2891229
40
0.8374103
50
0.1605597
51
7.7176135
0
ARC
8
DEFAULT_255_1_388
10
4.1345889
20
13.2031321
40
0.8189782
50
348.7289744
51
0.30125
0
ARC
8
DEFAULT_255_1_388
10
4.3209353
20
13.1661156
40
0.628991
50
333.0706936
51
348.7181455
0
ARC
8
DEFAULT_255_1_388
10
4.4296981
20
13.1070449
40
0.5052808
50
299.2531435
51
333.4571133
0
ARC
8
DEFAULT_255_1_388
10
4.3891012
20
13.1841629
40
0.5924066
50
278.1072193
51
299.0340218
0
ARC
8
DEFAULT_255_1_388
10
4.3603061
20
13.3537979
40
0.7644209
50
270.4446841
51
278.4508355
0
ARC
8
DEFAULT_255_1_388
10
4.3626545
20
13.24923
40
0.5179903
50
269.4969684
51
284.0204874
0
ARC
8
DEFAULT_255_1_388
10
4.4026263
20
13.0956415
40
0.3592968
50
283.7699076
51
318.1557121
0
ARC
8
DEFAULT_255_1_388
10
4.3646808
20
13.1240399
40
0.4065308
50
318.7417595
51
343.687252
0
ARC
8
DEFAULT_255_1_388
10
4.1617387
20
13.1874275
40
0.6191194
50
343.3324891
51
355.8548594
0
ARC
8
DEFAULT_255_1_388
10
3.9256424
20
13.2098719
40
0.856237
50
355.4988754
51
0.0789913
0
ARC
8
DEFAULT_255_1_388
10
4.0137224
20
13.292608
40
0.7681709
50
359.6455047
51
9.8607559
0
ARC
8
DEFAULT_255_1_388
10
4.2792947
20
13.3405664
40
0.498312
50
9.6573037
51
26.1931522
0
ARC
8
DEFAULT_255_1_388
10
4.3837022
20
13.3890587
40
0.3832303
50
26.5777895
51
40.1533752
0
ARC
8
DEFAULT_255_1_388
10
4.4124687
20
13.411502
40
0.3467742
50
40.3839958
51
80.1430923
0
ARC
8
DEFAULT_255_1_388
10
4.3756942
20
13.2484486
40
0.5137832
50
79.2153636
51
89.7445174
0
LINE
8
DEFAULT_255_1_388
10
5.4017237
20
13.9049898
11
5.4017237
21
12.5894
0
LINE
8
DEFAULT_255_1_388
10
5.4017237
20
12.5894
11
5.2282394
21
12.5894
0
LINE
8
DEFAULT_255_1_388
10
5.2282394
20
12.5894
11
5.2282394
21
13.9049898
0
LINE
8
DEFAULT_255_1_388
10
5.2282394
20
13.9049898
11
5.4017237
21
13.9049898
0
LINE
8
DEFAULT_255_1_388
10
6.2248709
20
13.9113148
11
6.2248709
21
12.5894
0
LINE
8
DEFAULT_255_1_388
10
6.2248709
20
12.5894
11
6.056808
21
12.5894
0
LINE
8
DEFAULT_255_1_388
10
6.056808
20
12.5894
11
6.056808
21
13.703495
0
LINE
8
DEFAULT_255_1_388
10
6.056808
20
13.703495
11
5.7197784
21
13.5797066
0
LINE
8
DEFAULT_255_1_388
10
5.7197784
20
13.5797066
11
5.7197784
21
13.7315055
0
LINE
8
DEFAULT_255_1_388
10
5.7197784
20
13.7315055
11
6.1986676
21
13.9113148
0
LINE
8
DEFAULT_255_1_388
10
6.1986676
20
13.9113148
11
6.2248709
21
13.9113148
0
LINE
8
DEFAULT_255_1_388
10
6.9251334
20
13.2146666
11
6.7914059
21
13.2490021
0
LINE
8
DEFAULT_255_1_388
10
6.7914059
20
13.2490021
11
6.8582696
21
13.9049898
0
LINE
8
DEFAULT_255_1_388
10
6.8582696
20
13.9049898
11
7.5323287
21
13.9049898
0
LINE
8
DEFAULT_255_1_388
10
7.5323287
20
13.9049898
11
7.5323287
21
13.7504803
0
LINE
8
DEFAULT_255_1_388
10
7.5323287
20
13.7504803
11
7.0001292
21
13.7504803
0
LINE
8
DEFAULT_255_1_388
10
7.0001292
20
13.7504803
11
6.9603724
21
13.3917652
0
LINE
8
DEFAULT_255_1_388
10
6.7444205
20
12.9354652
11
6.9025443
21
12.9354652
0
LINE
8
DEFAULT_255_1_388
10
6.9694081
20
13.2508092
11
6.9251334
21
13.2146666
0
ARC
8
DEFAULT_255_1_388
10
7.1690338
20
13.0340241
40
0.4141476
50
93.7181681
51
120.253934
0
ARC
8
DEFAULT_255_1_388
10
7.179639
20
12.9431284
40
0.5055616
50
89.9660471
51
94.2495185
0
ARC
8
DEFAULT_255_1_388
10
7.1842212
20
13.0094154
40
0.4392953
50
73.8045384
51
90.5585736
0
ARC
8
DEFAULT_255_1_388
10
7.2106469
20
13.105952
40
0.3392225
50
41.3071072
51
73.543002
0
ARC
8
DEFAULT_255_1_388
10
7.1638289
20
13.0656461
40
0.4009977
50
13.5075837
51
41.2174839
0
ARC
8
DEFAULT_255_1_388
10
6.9791387
20
13.0172907
40
0.5918864
50
1.1330171
51
13.8830737
0
ARC
8
DEFAULT_255_1_388
10
6.8195033
20
13.0087522
40
0.7516787
50
359.9925091
51
1.5431298
0
ARC
8
DEFAULT_255_1_388
10
6.9639647
20
13.0041027
40
0.6072343
50
347.8572712
51
0.4294349
0
ARC
8
DEFAULT_255_1_388
10
7.1608782
20
12.9594898
40
0.4053482
50
323.6727442
51
348.1674594
0
ARC
8
DEFAULT_255_1_388
10
7.1939747
20
12.9393175
40
0.3667495
50
316.8171818
51
323.1486802
0
ARC
8
DEFAULT_255_1_388
10
7.200887
20
12.9351612
40
0.358869
50
281.839603
51
316.5458142
0
ARC
8
DEFAULT_255_1_388
10
7.1586158
20
13.1101363
40
0.5388223
50
269.5770964
51
282.4214641
0
ARC
8
DEFAULT_255_1_388
10
7.1506079
20
13.086093
40
0.5147801
50
256.2425863
51
270.4486481
0
ARC
8
DEFAULT_255_1_388
10
7.1169606
20
12.9511124
40
0.3756708
50
228.9024379
51
256.33135
0
ARC
8
DEFAULT_255_1_388
10
7.1086587
20
12.9380054
40
0.360344
50
193.7536029
51
228.5272638
0
ARC
8
DEFAULT_255_1_388
10
7.2479152
20
12.9788463
40
0.5053599
50
184.9244437
51
194.4976052
0
ARC
8
DEFAULT_255_1_388
10
7.2695793
20
12.9828722
40
0.3700839
50
187.3596909
51
198.6733728
0
ARC
8
DEFAULT_255_1_388
10
7.1515036
20
12.9419373
40
0.2451195
50
198.4453795
51
217.7945479
0
ARC
8
DEFAULT_255_1_388
10
7.1182209
20
12.9183563
40
0.2043754
50
218.2887146
51
228.5613203
0
ARC
8
DEFAULT_255_1_388
10
7.1292216
20
12.9331902
40
0.2227819
50
228.9652423
51
258.1237049
0
ARC
8
DEFAULT_255_1_388
10
7.1523653
20
13.0322964
40
0.3245374
50
257.7260585
51
270.4013717
0
ARC
8
DEFAULT_255_1_388
10
7.1574151
20
12.9822255
40
0.2744726
50
269.4204315
51
286.420998
0
ARC
8
DEFAULT_255_1_388
10
7.1741207
20
12.9215705
40
0.2115721
50
286.7250065
51
320.6004665
0
ARC
8
DEFAULT_255_1_388
10
7.1310122
20
12.9565527
40
0.2670878
50
320.6712228
51
344.5440474
0
ARC
8
DEFAULT_255_1_388
10
7.0008836
20
12.9947394
40
0.4026927
50
344.241448
51
356.735803
0
ARC
8
DEFAULT_255_1_388
10
6.8605143
20
13.0063656
40
0.5435085
50
356.3547471
51
0.0507222
0
ARC
8
DEFAULT_255_1_388
10
7.0107409
20
13.0098812
40
0.3932934
50
359.5579289
51
12.9534322
0
ARC
8
DEFAULT_255_1_388
10
7.1294248
20
13.0386586
40
0.2711827
50
12.6489751
51
41.608121
0
ARC
8
DEFAULT_255_1_388
10
7.1553408
20
13.0606946
40
0.2371737
50
41.7851122
51
85.9892156
0
ARC
8
DEFAULT_255_1_388
10
7.1414719
20
12.9691738
40
0.3295244
50
84.6965848
51
90.0672125
0
ARC
8
DEFAULT_255_1_388
10
7.1388286
20
12.8940118
40
0.4046926
50
89.6804991
51
99.161352
0
ARC
8
DEFAULT_255_1_388
10
7.1157295
20
13.0320848
40
0.2647044
50
98.9836248
51
113.8905702
0
ARC
8
DEFAULT_255_1_388
10
7.089897
20
13.0930118
40
0.1985386
50
114.195234
51
127.3641866
0
LINE
8
DEFAULT_255_1_388
10
4.4985389
20
20.5269
11
4.1344024
21
20.5269
0
LINE
8
DEFAULT_255_1_388
10
4.1344024
20
20.5269
11
4.1344024
21
21.8424898
0
LINE
8
DEFAULT_255_1_388
10
4.1344024
20
21.8424898
11
4.5057674
21
21.8424898
0
LINE
8
DEFAULT_255_1_388
10
5.0858558
20
21.2289696
11
5.0858558
21
21.1449381
0
LINE
8
DEFAULT_255_1_388
10
4.5102852
20
21.6997267
11
4.3078868
21
21.6997267
0
LINE
8
DEFAULT_255_1_388
10
4.3078868
20
21.6997267
11
4.3078868
21
20.6687596
0
LINE
8
DEFAULT_255_1_388
10
4.3078868
20
20.6687596
11
4.4904068
21
20.6687596
0
LINE
8
DEFAULT_255_1_388
10
4.9141785
20
21.1485523
11
4.9141785
21
21.2253553
0
ARC
8
DEFAULT_255_1_388
10
4.5101469
20
21.1826436
40
0.6598608
50
75.4100343
51
90.3802731
0
ARC
8
DEFAULT_255_1_388
10
4.5359714
20
21.2902691
40
0.5492049
50
60.1455157
51
75.1889627
0
ARC
8
DEFAULT_255_1_388
10
4.5538306
20
21.3213914
40
0.5133226
50
26.525419
51
60.1451222
0
ARC
8
DEFAULT_255_1_388
10
4.4278092
20
21.2545642
40
0.6559324
50
7.4029944
51
26.832209
0
ARC
8
DEFAULT_255_1_388
10
4.2484489
20
21.2266229
40
0.8374103
50
0.1605597
51
7.7176135
0
ARC
8
DEFAULT_255_1_388
10
4.2668889
20
21.1406321
40
0.8189782
50
348.7289744
51
0.30125
0
ARC
8
DEFAULT_255_1_388
10
4.4532353
20
21.1036156
40
0.628991
50
333.0706936
51
348.7181455
0
ARC
8
DEFAULT_255_1_388
10
4.5619981
20
21.0445449
40
0.5052808
50
299.2531435
51
333.4571133
0
ARC
8
DEFAULT_255_1_388
10
4.5214012
20
21.1216629
40
0.5924066
50
278.1072193
51
299.0340218
0
ARC
8
DEFAULT_255_1_388
10
4.4926061
20
21.2912979
40
0.7644209
50
270.4446841
51
278.4508355
0
ARC
8
DEFAULT_255_1_388
10
4.4949545
20
21.18673
40
0.5179903
50
269.4969684
51
284.0204874
0
ARC
8
DEFAULT_255_1_388
10
4.5349263
20
21.0331415
40
0.3592968
50
283.7699076
51
318.1557121
0
ARC
8
DEFAULT_255_1_388
10
4.4969808
20
21.0615399
40
0.4065308
50
318.7417595
51
343.687252
0
ARC
8
DEFAULT_255_1_388
10
4.2940387
20
21.1249275
40
0.6191194
50
343.3324891
51
355.8548594
0
ARC
8
DEFAULT_255_1_388
10
4.0579424
20
21.1473719
40
0.856237
50
355.4988754
51
0.0789913
0
ARC
8
DEFAULT_255_1_388
10
4.1460224
20
21.230108
40
0.7681709
50
359.6455047
51
9.8607559
0
ARC
8
DEFAULT_255_1_388
10
4.4115947
20
21.2780664
40
0.498312
50
9.6573037
51
26.1931522
0
ARC
8
DEFAULT_255_1_388
10
4.5160022
20
21.3265587
40
0.3832303
50
26.5777895
51
40.1533752
0
ARC
8
DEFAULT_255_1_388
10
4.5447687
20
21.349002
40
0.3467742
50
40.3839958
51
80.1430923
0
ARC
8
DEFAULT_255_1_388
10
4.5079942
20
21.1859486
40
0.5137832
50
79.2153636
51
89.7445174
0
LINE
8
DEFAULT_255_1_388
10
5.5340237
20
21.8424898
11
5.5340237
21
20.5269
0
LINE
8
DEFAULT_255_1_388
10
5.5340237
20
20.5269
11
5.3605394
21
20.5269
0
LINE
8
DEFAULT_255_1_388
10
5.3605394
20
20.5269
11
5.3605394
21
21.8424898
0
LINE
8
DEFAULT_255_1_388
10
5.3605394
20
21.8424898
11
5.5340237
21
21.8424898
0
LINE
8
DEFAULT_255_1_388
10
6.3571709
20
21.8488148
11
6.3571709
21
20.5269
0
LINE
8
DEFAULT_255_1_388
10
6.3571709
20
20.5269
11
6.189108
21
20.5269
0
LINE
8
DEFAULT_255_1_388
10
6.189108
20
20.5269
11
6.189108
21
21.640995
0
LINE
8
DEFAULT_255_1_388
10
6.189108
20
21.640995
11
5.8520784
21
21.5172066
0
LINE
8
DEFAULT_255_1_388
10
5.8520784
20
21.5172066
11
5.8520784
21
21.6690055
0
LINE
8
DEFAULT_255_1_388
10
5.8520784
20
21.6690055
11
6.3309676
21
21.8488148
0
LINE
8
DEFAULT_255_1_388
10
6.3309676
20
21.8488148
11
6.3571709
21
21.8488148
0
LINE
8
DEFAULT_255_1_388
10
7.5525867
20
21.8424898
11
7.5525867
21
20.968743
0
LINE
8
DEFAULT_255_1_388
10
7.5525867
20
20.968743
11
7.7351067
21
20.968743
0
LINE
8
DEFAULT_255_1_388
10
7.7351067
20
20.968743
11
7.7351067
21
20.8323048
0
LINE
8
DEFAULT_255_1_388
10
7.7351067
20
20.8323048
11
7.5525867
21
20.8323048
0
LINE
8
DEFAULT_255_1_388
10
7.5525867
20
20.8323048
11
7.5525867
21
20.5269
0
LINE
8
DEFAULT_255_1_388
10
7.5525867
20
20.5269
11
7.3845237
21
20.5269
0
LINE
8
DEFAULT_255_1_388
10
7.3845237
20
20.5269
11
7.3845237
21
20.8323048
0
LINE
8
DEFAULT_255_1_388
10
7.3845237
20
20.8323048
11
6.7854605
21
20.8323048
0
LINE
8
DEFAULT_255_1_388
10
6.7854605
20
20.8323048
11
6.7854605
21
20.9307933
0
LINE
8
DEFAULT_255_1_388
10
6.7854605
20
20.9307933
11
7.3745845
21
21.8424898
0
LINE
8
DEFAULT_255_1_388
10
7.3745845
20
21.8424898
11
7.5525867
21
21.8424898
0
LINE
8
DEFAULT_255_1_388
10
7.3646453
20
21.5777455
11
6.975209
21
20.968743
0
LINE
8
DEFAULT_255_1_388
10
6.975209
20
20.968743
11
7.3845237
21
20.968743
0
LINE
8
DEFAULT_255_1_388
10
7.3845237
20
20.968743
11
7.3845237
21
21.613888
0
LINE
8
DEFAULT_255_1_388
10
7.3845237
20
21.613888
11
7.3646453
21
21.5777455
0
LINE
8
DEFAULT_255_1_388
10
4.3662389
20
28.4644
11
4.0021024
21
28.4644
0
LINE
8
DEFAULT_255_1_388
10
4.0021024
20
28.4644
11
4.0021024
21
29.7799898
0
LINE
8
DEFAULT_255_1_388
10
4.0021024
20
29.7799898
11
4.3734674
21
29.7799898
0
LINE
8
DEFAULT_255_1_388
10
4.9535558
20
29.1664696
11
4.9535558
21
29.0824381
0
LINE
8
DEFAULT_255_1_388
10
4.3779852
20
29.6372267
11
4.1755868
21
29.6372267
0
LINE
8
DEFAULT_255_1_388
10
4.1755868
20
29.6372267
11
4.1755868
21
28.6062596
0
LINE
8
DEFAULT_255_1_388
10
4.1755868
20
28.6062596
11
4.3581068
21
28.6062596
0
LINE
8
DEFAULT_255_1_388
10
4.7818785
20
29.0860523
11
4.7818785
21
29.1628553
0
ARC
8
DEFAULT_255_1_388
10
4.3778469
20
29.1201436
40
0.6598608
50
75.4100343
51
90.3802731
0
ARC
8
DEFAULT_255_1_388
10
4.4036714
20
29.2277691
40
0.5492049
50
60.1455157
51
75.1889627
0
ARC
8
DEFAULT_255_1_388
10
4.4215306
20
29.2588914
40
0.5133226
50
26.525419
51
60.1451222
0
ARC
8
DEFAULT_255_1_388
10
4.2955092
20
29.1920642
40
0.6559324
50
7.4029944
51
26.832209
0
ARC
8
DEFAULT_255_1_388
10
4.1161489
20
29.1641229
40
0.8374103
50
0.1605597
51
7.7176135
0
ARC
8
DEFAULT_255_1_388
10
4.1345889
20
29.0781321
40
0.8189782
50
348.7289744
51
0.30125
0
ARC
8
DEFAULT_255_1_388
10
4.3209353
20
29.0411156
40
0.628991
50
333.0706936
51
348.7181455
0
ARC
8
DEFAULT_255_1_388
10
4.4296981
20
28.9820449
40
0.5052808
50
299.2531435
51
333.4571133
0
ARC
8
DEFAULT_255_1_388
10
4.3891012
20
29.0591629
40
0.5924066
50
278.1072193
51
299.0340218
0
ARC
8
DEFAULT_255_1_388
10
4.3603061
20
29.2287979
40
0.7644209
50
270.4446841
51
278.4508355
0
ARC
8
DEFAULT_255_1_388
10
4.3626545
20
29.12423
40
0.5179903
50
269.4969684
51
284.0204874
0
ARC
8
DEFAULT_255_1_388
10
4.4026263
20
28.9706415
40
0.3592968
50
283.7699076
51
318.1557121
0
ARC
8
DEFAULT_255_1_388
10
4.3646808
20
28.9990399
40
0.4065308
50
318.7417595
51
343.687252
0
ARC
8
DEFAULT_255_1_388
10
4.1617387
20
29.0624275
40
0.6191194
50
343.3324891
51
355.8548594
0
ARC
8
DEFAULT_255_1_388
10
3.9256424
20
29.0848719
40
0.856237
50
355.4988754
51
0.0789913
0
ARC
8
DEFAULT_255_1_388
10
4.0137224
20
29.167608
40
0.7681709
50
359.6455047
51
9.8607559
0
ARC
8
DEFAULT_255_1_388
10
4.2792947
20
29.2155664
40
0.498312
50
9.6573037
51
26.1931522
0
ARC
8
DEFAULT_255_1_388
10
4.3837022
20
29.2640587
40
0.3832303
50
26.5777895
51
40.1533752
0
ARC
8
DEFAULT_255_1_388
10
4.4124687
20
29.286502
40
0.3467742
50
40.3839958
51
80.1430923
0
ARC
8
DEFAULT_255_1_388
10
4.3756942
20
29.1234486
40
0.5137832
50
79.2153636
51
89.7445174
0
LINE
8
DEFAULT_255_1_388
10
5.4017237
20
29.7799898
11
5.4017237
21
28.4644
0
LINE
8
DEFAULT_255_1_388
10
5.4017237
20
28.4644
11
5.2282394
21
28.4644
0
LINE
8
DEFAULT_255_1_388
10
5.2282394
20
28.4644
11
5.2282394
21
29.7799898
0
LINE
8
DEFAULT_255_1_388
10
5.2282394
20
29.7799898
11
5.4017237
21
29.7799898
0
LINE
8
DEFAULT_255_1_388
10
6.2248709
20
29.7863148
11
6.2248709
21
28.4644
0
LINE
8
DEFAULT_255_1_388
10
6.2248709
20
28.4644
11
6.056808
21
28.4644
0
LINE
8
DEFAULT_255_1_388
10
6.056808
20
28.4644
11
6.056808
21
29.578495
0
LINE
8
DEFAULT_255_1_388
10
6.056808
20
29.578495
11
5.7197784
21
29.4547066
0
LINE
8
DEFAULT_255_1_388
10
5.7197784
20
29.4547066
11
5.7197784
21
29.6065055
0
LINE
8
DEFAULT_255_1_388
10
5.7197784
20
29.6065055
11
6.1986676
21
29.7863148
0
LINE
8
DEFAULT_255_1_388
10
6.1986676
20
29.7863148
11
6.2248709
21
29.7863148
0
LINE
8
DEFAULT_255_1_388
10
6.9576617
20
29.0670775
11
6.9576617
21
29.2035157
0
LINE
8
DEFAULT_255_1_388
10
6.9576617
20
29.2035157
11
7.0832572
21
29.2035157
0
LINE
8
DEFAULT_255_1_388
10
6.8691124
20
29.4348282
11
6.701953
21
29.4348282
0
LINE
8
DEFAULT_255_1_388
10
6.6902066
20
28.8113687
11
6.8582696
21
28.8113687
0
LINE
8
DEFAULT_255_1_388
10
7.0832572
20
29.0670775
11
6.9576617
21
29.0670775
0
ARC
8
DEFAULT_255_1_388
10
7.0799798
20
29.5851922
40
0.3816905
50
270.491971
51
281.8953028
0
ARC
8
DEFAULT_255_1_388
10
7.1071225
20
29.4612199
40
0.2547877
50
281.6690378
51
301.2943765
0
ARC
8
DEFAULT_255_1_388
10
7.1262676
20
29.4261926
40
0.2149197
50
301.7834992
51
311.754567
0
ARC
8
DEFAULT_255_1_388
10
7.1365718
20
29.414765
40
0.1995326
50
311.7325027
51
354.2803031
0
ARC
8
DEFAULT_255_1_388
10
7.0548134
20
29.428828
40
0.2823461
50
353.0941646
51
0.1174696
0
ARC
8
DEFAULT_255_1_388
10
7.0029692
20
29.4341874
40
0.3342238
50
359.1804452
51
15.0452323
0
ARC
8
DEFAULT_255_1_388
10
7.154375
20
29.4783546
40
0.1765747
50
13.957816
51
77.6713812
0
ARC
8
DEFAULT_255_1_388
10
7.1108986
20
29.3225464
40
0.3381982
50
76.111571
51
90.7028736
0
ARC
8
DEFAULT_255_1_388
10
7.1042398
20
29.353325
40
0.3074046
50
89.5321574
51
103.5319393
0
ARC
8
DEFAULT_255_1_388
10
7.0816782
20
29.4432443
40
0.2147041
50
103.2930114
51
133.5619756
0
ARC
8
DEFAULT_255_1_388
10
7.0766723
20
29.4499351
40
0.2064084
50
133.8349761
51
173.5343225
0
ARC
8
DEFAULT_255_1_388
10
7.1580381
20
29.4355144
40
0.2889266
50
172.5097183
51
180.1360699
0
ARC
8
DEFAULT_255_1_388
10
7.0510145
20
29.439388
40
0.3490913
50
155.3483706
51
180.7484035
0
ARC
8
DEFAULT_255_1_388
10
7.045512
20
29.4361519
40
0.3454798
50
131.5745177
51
154.4799474
0
ARC
8
DEFAULT_255_1_388
10
7.0807403
20
29.4005422
40
0.3955058
50
96.9874487
51
131.9690874
0
ARC
8
DEFAULT_255_1_388
10
7.1054295
20
29.2604407
40
0.537622
50
89.8592909
51
97.7827481
0
ARC
8
DEFAULT_255_1_388
10
7.1108404
20
29.230936
40
0.5671399
50
78.3654493
51
90.4132586
0
ARC
8
DEFAULT_255_1_388
10
7.1511046
20
29.4175918
40
0.3762034
50
56.6229818
51
78.6387103
0
ARC
8
DEFAULT_255_1_388
10
7.1752875
20
29.4598846
40
0.3275964
50
47.0254604
51
56.085558
0
ARC
8
DEFAULT_255_1_388
10
7.1775126
20
29.4643189
40
0.3228382
50
10.9207523
51
46.777927
0
ARC
8
DEFAULT_255_1_388
10
7.024072
20
29.4288401
40
0.4802559
50
359.6364235
51
11.6087615
0
ARC
8
DEFAULT_255_1_388
10
7.2304885
20
29.4271404
40
0.273833
50
332.3549969
51
359.7179765
0
ARC
8
DEFAULT_255_1_388
10
7.1573286
20
29.4618285
40
0.3547505
50
325.2332381
51
332.8746682
0
ARC
8
DEFAULT_255_1_388
10
7.1744869
20
29.4498763
40
0.3338396
50
292.9803892
51
325.2391113
0
ARC
8
DEFAULT_255_1_388
10
7.1434065
20
29.5103679
40
0.4016959
50
292.542178
51
293.6931461
0
ARC
8
DEFAULT_255_1_388
10
7.1877637
20
28.7838036
40
0.372079
50
57.643292
51
72.8626085
0
ARC
8
DEFAULT_255_1_388
10
7.2276471
20
28.8484273
40
0.2961455
50
36.7246661
51
57.4701329
0
ARC
8
DEFAULT_255_1_388
10
7.2263628
20
28.849847
40
0.2963321
50
8.054535
51
36.3561529
0
ARC
8
DEFAULT_255_1_388
10
7.1293301
20
28.8324073
40
0.3948682
50
359.8316595
51
8.5873361
0
ARC
8
DEFAULT_255_1_388
10
7.0870775
20
28.826997
40
0.4371398
50
343.9831631
51
0.557075
0
ARC
8
DEFAULT_255_1_388
10
7.1867824
20
28.7996963
40
0.3337749
50
311.6358204
51
343.7652116
0
ARC
8
DEFAULT_255_1_388
10
7.1442078
20
28.8476955
40
0.3979351
50
279.7829743
51
311.625622
0
ARC
8
DEFAULT_255_1_388
10
7.1103213
20
29.0093642
40
0.5630417
50
269.7285092
51
280.3857694
0
ARC
8
DEFAULT_255_1_388
10
7.1033526
20
29.0047241
40
0.5584119
50
256.6827433
51
270.4412869
0
ARC
8
DEFAULT_255_1_388
10
7.0652513
20
28.8489698
40
0.3980715
50
229.4223821
51
256.8554507
0
ARC
8
DEFAULT_255_1_388
10
7.0186066
20
28.7964683
40
0.3278564
50
181.8183354
51
229.6455015
0
ARC
8
DEFAULT_255_1_388
10
7.1355676
20
28.8111825
40
0.4453611
50
179.9760419
51
183.2330638
0
ARC
8
DEFAULT_255_1_388
10
7.1162228
20
28.8088781
40
0.2579652
50
179.4467996
51
196.2871626
0
ARC
8
DEFAULT_255_1_388
10
7.0613682
20
28.7938709
40
0.2011057
50
196.5661293
51
227.7059371
0
ARC
8
DEFAULT_255_1_388
10
7.0798289
20
28.8145155
40
0.2287994
50
227.7653015
51
257.8763321
0
ARC
8
DEFAULT_255_1_388
10
7.1051372
20
28.9205961
40
0.3378385
50
257.4583525
51
270.4267406
0
ARC
8
DEFAULT_255_1_388
10
7.1102622
20
28.953223
40
0.3704652
50
269.5965319
51
280.8788143
0
ARC
8
DEFAULT_255_1_388
10
7.136085
20
28.8242529
40
0.2389415
50
280.6347277
51
299.8594068
0
ARC
8
DEFAULT_255_1_388
10
7.1575619
20
28.7834736
40
0.19289
50
300.3575552
51
314.5515667
0
ARC
8
DEFAULT_255_1_388
10
7.1482295
20
28.7903025
40
0.204312
50
315.0730962
51
345.0429362
0
ARC
8
DEFAULT_255_1_388
10
7.0443802
20
28.8205539
40
0.31246
50
344.598526
51
357.9270698
0
ARC
8
DEFAULT_255_1_388
10
6.9434107
20
28.8274705
40
0.4136265
50
357.4755098
51
0.0224936
0
ARC
8
DEFAULT_255_1_388
10
7.0586985
20
28.8302099
40
0.2983498
50
359.5051035
51
13.4236939
0
ARC
8
DEFAULT_255_1_388
10
7.1562075
20
28.8551637
40
0.1977186
50
12.9497905
51
48.7550905
0
ARC
8
DEFAULT_255_1_388
10
7.1356997
20
28.8271373
40
0.2323321
50
49.509109
51
72.1832965
0
ARC
8
DEFAULT_255_1_388
10
7.0954465
20
28.7076632
40
0.358397
50
71.9008458
51
84.3555134
0
ARC
8
DEFAULT_255_1_388
10
7.077286
20
28.5544712
40
0.512641
50
84.019632
51
89.3326067
0
LINE
8
DEFAULT_255_1_388
10
4.3662389
20
36.4019
11
4.0021024
21
36.4019
0
LINE
8
DEFAULT_255_1_388
10
4.0021024
20
36.4019
11
4.0021024
21
37.7174898
0
LINE
8
DEFAULT_255_1_388
10
4.0021024
20
37.7174898
11
4.3734674
21
37.7174898
0
LINE
8
DEFAULT_255_1_388
10
4.9535558
20
37.1039696
11
4.9535558
21
37.0199381
0
LINE
8
DEFAULT_255_1_388
10
4.3779852
20
37.5747267
11
4.1755868
21
37.5747267
0
LINE
8
DEFAULT_255_1_388
10
4.1755868
20
37.5747267
11
4.1755868
21
36.5437596
0
LINE
8
DEFAULT_255_1_388
10
4.1755868
20
36.5437596
11
4.3581068
21
36.5437596
0
LINE
8
DEFAULT_255_1_388
10
4.7818785
20
37.0235523
11
4.7818785
21
37.1003553
0
ARC
8
DEFAULT_255_1_388
10
4.3778469
20
37.0576436
40
0.6598608
50
75.4100343
51
90.3802731
0
ARC
8
DEFAULT_255_1_388
10
4.4036714
20
37.1652691
40
0.5492049
50
60.1455157
51
75.1889627
0
ARC
8
DEFAULT_255_1_388
10
4.4215306
20
37.1963914
40
0.5133226
50
26.525419
51
60.1451222
0
ARC
8
DEFAULT_255_1_388
10
4.2955092
20
37.1295642
40
0.6559324
50
7.4029944
51
26.832209
0
ARC
8
DEFAULT_255_1_388
10
4.1161489
20
37.1016229
40
0.8374103
50
0.1605597
51
7.7176135
0
ARC
8
DEFAULT_255_1_388
10
4.1345889
20
37.0156321
40
0.8189782
50
348.7289744
51
0.30125
0
ARC
8
DEFAULT_255_1_388
10
4.3209353
20
36.9786156
40
0.628991
50
333.0706936
51
348.7181455
0
ARC
8
DEFAULT_255_1_388
10
4.4296981
20
36.9195449
40
0.5052808
50
299.2531435
51
333.4571133
0
ARC
8
DEFAULT_255_1_388
10
4.3891012
20
36.9966629
40
0.5924066
50
278.1072193
51
299.0340218
0
ARC
8
DEFAULT_255_1_388
10
4.3603061
20
37.1662979
40
0.7644209
50
270.4446841
51
278.4508355
0
ARC
8
DEFAULT_255_1_388
10
4.3626545
20
37.06173
40
0.5179903
50
269.4969684
51
284.0204874
0
ARC
8
DEFAULT_255_1_388
10
4.4026263
20
36.9081415
40
0.3592968
50
283.7699076
51
318.1557121
0
ARC
8
DEFAULT_255_1_388
10
4.3646808
20
36.9365399
40
0.4065308
50
318.7417595
51
343.687252
0
ARC
8
DEFAULT_255_1_388
10
4.1617387
20
36.9999275
40
0.6191194
50
343.3324891
51
355.8548594
0
ARC
8
DEFAULT_255_1_388
10
3.9256424
20
37.0223719
40
0.856237
50
355.4988754
51
0.0789913
0
ARC
8
DEFAULT_255_1_388
10
4.0137224
20
37.105108
40
0.7681709
50
359.6455047
51
9.8607559
0
ARC
8
DEFAULT_255_1_388
10
4.2792947
20
37.1530664
40
0.498312
50
9.6573037
51
26.1931522
0
ARC
8
DEFAULT_255_1_388
10
4.3837022
20
37.2015587
40
0.3832303
50
26.5777895
51
40.1533752
0
ARC
8
DEFAULT_255_1_388
10
4.4124687
20
37.224002
40
0.3467742
50
40.3839958
51
80.1430923
0
ARC
8
DEFAULT_255_1_388
10
4.3756942
20
37.0609486
40
0.5137832
50
79.2153636
51
89.7445174
0
LINE
8
DEFAULT_255_1_388
10
5.4017237
20
37.7174898
11
5.4017237
21
36.4019
0
LINE
8
DEFAULT_255_1_388
10
5.4017237
20
36.4019
11
5.2282394
21
36.4019
0
LINE
8
DEFAULT_255_1_388
10
5.2282394
20
36.4019
11
5.2282394
21
37.7174898
0
LINE
8
DEFAULT_255_1_388
10
5.2282394
20
37.7174898
11
5.4017237
21
37.7174898
0
LINE
8
DEFAULT_255_1_388
10
6.2248709
20
37.7238148
11
6.2248709
21
36.4019
0
LINE
8
DEFAULT_255_1_388
10
6.2248709
20
36.4019
11
6.056808
21
36.4019
0
LINE
8
DEFAULT_255_1_388
10
6.056808
20
36.4019
11
6.056808
21
37.515995
0
LINE
8
DEFAULT_255_1_388
10
6.056808
20
37.515995
11
5.7197784
21
37.3922066
0
LINE
8
DEFAULT_255_1_388
10
5.7197784
20
37.3922066
11
5.7197784
21
37.5440055
0
LINE
8
DEFAULT_255_1_388
10
5.7197784
20
37.5440055
11
6.1986676
21
37.7238148
0
LINE
8
DEFAULT_255_1_388
10
6.1986676
20
37.7238148
11
6.2248709
21
37.7238148
0
LINE
8
DEFAULT_255_1_388
10
7.5766034
20
36.5383382
11
7.5766034
21
36.4019
0
LINE
8
DEFAULT_255_1_388
10
7.5766034
20
36.4019
11
6.7146029
21
36.4019
0
LINE
8
DEFAULT_255_1_388
10
6.7146029
20
36.4019
11
6.7146029
21
36.5220741
0
LINE
8
DEFAULT_255_1_388
10
6.7146029
20
36.5220741
11
7.1699994
21
37.0280702
0
LINE
8
DEFAULT_255_1_388
10
6.8564625
20
37.3298607
11
6.6893031
21
37.3298607
0
LINE
8
DEFAULT_255_1_388
10
7.2684879
20
36.920546
11
6.9160978
21
36.5383382
0
LINE
8
DEFAULT_255_1_388
10
6.9160978
20
36.5383382
11
7.5766034
21
36.5383382
0
ARC
8
DEFAULT_255_1_388
10
5.6524053
20
38.3700983
40
2.0258655
50
318.5132526
51
320.7829045
0
ARC
8
DEFAULT_255_1_388
10
6.247201
20
37.8859929
40
1.2589638
50
320.7372878
51
323.9739031
0
ARC
8
DEFAULT_255_1_388
10
6.6880942
20
37.5665554
40
0.7145141
50
323.8962701
51
328.64194
0
ARC
8
DEFAULT_255_1_388
10
6.9183199
20
37.4245545
40
0.4440242
50
328.8294576
51
331.7891185
0
ARC
8
DEFAULT_255_1_388
10
7.030552
20
37.3666374
40
0.3177517
50
331.4254512
51
352.9365785
0
ARC
8
DEFAULT_255_1_388
10
7.0458519
20
37.363205
40
0.3021496
50
353.2257659
51
0.0166158
0
ARC
8
DEFAULT_255_1_388
10
7.069528
20
37.3657894
40
0.2784847
50
359.486299
51
15.9343185
0
ARC
8
DEFAULT_255_1_388
10
7.1265547
20
37.3811269
40
0.2194403
50
16.1712913
51
43.5286088
0
ARC
8
DEFAULT_255_1_388
10
7.1352491
20
37.3898191
40
0.2071504
50
43.4417391
51
83.1661095
0
ARC
8
DEFAULT_255_1_388
10
7.1201652
20
37.3069316
40
0.2912888
50
82.160179
51
90.1505708
0
ARC
8
DEFAULT_255_1_388
10
7.1166134
20
37.2465279
40
0.3517025
50
89.5460741
51
102.5418361
0
ARC
8
DEFAULT_255_1_388
10
7.0892854
20
37.3624933
40
0.2325748
50
102.1738499
51
129.206123
0
ARC
8
DEFAULT_255_1_388
10
7.0804307
20
37.3764664
40
0.2161591
50
129.72865
51
135.753947
0
ARC
8
DEFAULT_255_1_388
10
7.094079
20
37.3655728
40
0.2335433
50
136.1757367
51
166.3673339
0
ARC
8
DEFAULT_255_1_388
10
7.2073478
20
37.3352148
40
0.3507873
50
165.9090694
51
178.8684636
0
ARC
8
DEFAULT_255_1_388
10
7.304925
20
37.3299263
40
0.4484624
50
178.4391136
51
180.0083808
0
ARC
8
DEFAULT_255_1_388
10
7.1469951
20
37.3343197
40
0.4577138
50
163.2878482
51
180.5581842
0
ARC
8
DEFAULT_255_1_388
10
7.0567992
20
37.3591393
40
0.3641968
50
133.4540601
51
162.947111
0
ARC
8
DEFAULT_255_1_388
10
7.0768874
20
37.3377789
40
0.3935189
50
100.7869829
51
133.4382499
0
ARC
8
DEFAULT_255_1_388
10
7.1160119
20
37.1635399
40
0.5720313
50
89.660664
51
101.3702276
0
ARC
8
DEFAULT_255_1_388
10
7.1234728
20
37.1704263
40
0.5651495
50
78.2172678
51
90.412935
0
ARC
8
DEFAULT_255_1_388
10
7.1634194
20
37.3531511
40
0.378122
50
55.9269121
51
78.4888449
0
ARC
8
DEFAULT_255_1_388
10
7.1854909
20
37.3912187
40
0.3342379
50
47.929771
51
55.4049217
0
ARC
8
DEFAULT_255_1_388
10
7.1969439
20
37.4028618
40
0.3179217
50
4.334829
51
48.0560205
0
ARC
8
DEFAULT_255_1_388
10
7.0737241
20
37.3837487
40
0.442341
50
359.9251713
51
5.5971671
0
ARC
8
DEFAULT_255_1_388
10
7.1219396
20
37.3900728
40
0.3941854
50
337.8914027
51
358.9967534
0
ARC
8
DEFAULT_255_1_388
10
6.8166966
20
37.5078295
40
0.7213271
50
326.9132501
51
338.3508308
0
ARC
8
DEFAULT_255_1_388
10
6.3683078
20
37.7952105
40
1.2538973
50
319.6471833
51
327.0959558
0
ARC
8
DEFAULT_255_1_388
10
5.9369736
20
38.151005
40
1.8129975
50
317.2588228
51
319.9045804
0
LINE
8
DEFAULT_255_1_388
10
4.3576389
20
44.3394
11
3.9935024
21
44.3394
0
LINE
8
DEFAULT_255_1_388
10
3.9935024
20
44.3394
11
3.9935024
21
45.6549898
0
LINE
8
DEFAULT_255_1_388
10
3.9935024
20
45.6549898
11
4.3648674
21
45.6549898
0
LINE
8
DEFAULT_255_1_388
10
4.9449558
20
45.0414696
11
4.9449558
21
44.9574381
0
LINE
8
DEFAULT_255_1_388
10
4.3693852
20
45.5122267
11
4.1669868
21
45.5122267
0
LINE
8
DEFAULT_255_1_388
10
4.1669868
20
45.5122267
11
4.1669868
21
44.4812596
0
LINE
8
DEFAULT_255_1_388
10
4.1669868
20
44.4812596
11
4.3495068
21
44.4812596
0
LINE
8
DEFAULT_255_1_388
10
4.7732785
20
44.9610523
11
4.7732785
21
45.0378553
0
ARC
8
DEFAULT_255_1_388
10
4.3692469
20
44.9951436
40
0.6598608
50
75.4100343
51
90.3802731
0
ARC
8
DEFAULT_255_1_388
10
4.3950714
20
45.1027691
40
0.5492049
50
60.1455157
51
75.1889627
0
ARC
8
DEFAULT_255_1_388
10
4.4129306
20
45.1338914
40
0.5133226
50
26.525419
51
60.1451222
0
ARC
8
DEFAULT_255_1_388
10
4.2869092
20
45.0670642
40
0.6559324
50
7.4029944
51
26.832209
0
ARC
8
DEFAULT_255_1_388
10
4.1075489
20
45.0391229
40
0.8374103
50
0.1605597
51
7.7176135
0
ARC
8
DEFAULT_255_1_388
10
4.1259889
20
44.9531321
40
0.8189782
50
348.7289744
51
0.30125
0
ARC
8
DEFAULT_255_1_388
10
4.3123353
20
44.9161156
40
0.628991
50
333.0706936
51
348.7181455
0
ARC
8
DEFAULT_255_1_388
10
4.4210981
20
44.8570449
40
0.5052808
50
299.2531435
51
333.4571133
0
ARC
8
DEFAULT_255_1_388
10
4.3805012
20
44.9341629
40
0.5924066
50
278.1072193
51
299.0340218
0
ARC
8
DEFAULT_255_1_388
10
4.3517061
20
45.1037979
40
0.7644209
50
270.4446841
51
278.4508355
0
ARC
8
DEFAULT_255_1_388
10
4.3540545
20
44.99923
40
0.5179903
50
269.4969684
51
284.0204874
0
ARC
8
DEFAULT_255_1_388
10
4.3940263
20
44.8456415
40
0.3592968
50
283.7699076
51
318.1557121
0
ARC
8
DEFAULT_255_1_388
10
4.3560808
20
44.8740399
40
0.4065308
50
318.7417595
51
343.687252
0
ARC
8
DEFAULT_255_1_388
10
4.1531387
20
44.9374275
40
0.6191194
50
343.3324891
51
355.8548594
0
ARC
8
DEFAULT_255_1_388
10
3.9170424
20
44.9598719
40
0.856237
50
355.4988754
51
0.0789913
0
ARC
8
DEFAULT_255_1_388
10
4.0051224
20
45.042608
40
0.7681709
50
359.6455047
51
9.8607559
0
ARC
8
DEFAULT_255_1_388
10
4.2706947
20
45.0905664
40
0.498312
50
9.6573037
51
26.1931522
0
ARC
8
DEFAULT_255_1_388
10
4.3751022
20
45.1390587
40
0.3832303
50
26.5777895
51
40.1533752
0
ARC
8
DEFAULT_255_1_388
10
4.4038687
20
45.161502
40
0.3467742
50
40.3839958
51
80.1430923
0
ARC
8
DEFAULT_255_1_388
10
4.3670942
20
44.9984486
40
0.5137832
50
79.2153636
51
89.7445174
0
LINE
8
DEFAULT_255_1_388
10
5.3931237
20
45.6549898
11
5.3931237
21
44.3394
0
LINE
8
DEFAULT_255_1_388
10
5.3931237
20
44.3394
11
5.2196394
21
44.3394
0
LINE
8
DEFAULT_255_1_388
10
5.2196394
20
44.3394
11
5.2196394
21
45.6549898
0
LINE
8
DEFAULT_255_1_388
10
5.2196394
20
45.6549898
11
5.3931237
21
45.6549898
0
LINE
8
DEFAULT_255_1_388
10
6.2162709
20
45.6613148
11
6.2162709
21
44.3394
0
LINE
8
DEFAULT_255_1_388
10
6.2162709
20
44.3394
11
6.048208
21
44.3394
0
LINE
8
DEFAULT_255_1_388
10
6.048208
20
44.3394
11
6.048208
21
45.453495
0
LINE
8
DEFAULT_255_1_388
10
6.048208
20
45.453495
11
5.7111784
21
45.3297066
0
LINE
8
DEFAULT_255_1_388
10
5.7111784
20
45.3297066
11
5.7111784
21
45.4815055
0
LINE
8
DEFAULT_255_1_388
10
5.7111784
20
45.4815055
11
6.1900676
21
45.6613148
0
LINE
8
DEFAULT_255_1_388
10
6.1900676
20
45.6613148
11
6.2162709
21
45.6613148
0
LINE
8
DEFAULT_255_1_388
10
7.2553701
20
45.6613148
11
7.2553701
21
44.3394
0
LINE
8
DEFAULT_255_1_388
10
7.2553701
20
44.3394
11
7.0873071
21
44.3394
0
LINE
8
DEFAULT_255_1_388
10
7.0873071
20
44.3394
11
7.0873071
21
45.453495
0
LINE
8
DEFAULT_255_1_388
10
7.0873071
20
45.453495
11
6.7502775
21
45.3297066
0
LINE
8
DEFAULT_255_1_388
10
6.7502775
20
45.3297066
11
6.7502775
21
45.4815055
0
LINE
8
DEFAULT_255_1_388
10
6.7502775
20
45.4815055
11
7.2291667
21
45.6613148
0
LINE
8
DEFAULT_255_1_388
10
7.2291667
20
45.6613148
11
7.2553701
21
45.6613148
0
LINE
8
DEFAULT_255_1_388
10
4.3662389
20
52.2769
11
4.0021024
21
52.2769
0
LINE
8
DEFAULT_255_1_388
10
4.0021024
20
52.2769
11
4.0021024
21
53.5924898
0
LINE
8
DEFAULT_255_1_388
10
4.0021024
20
53.5924898
11
4.3734674
21
53.5924898
0
LINE
8
DEFAULT_255_1_388
10
4.9535558
20
52.9789696
11
4.9535558
21
52.8949381
0
LINE
8
DEFAULT_255_1_388
10
4.3779852
20
53.4497267
11
4.1755868
21
53.4497267
0
LINE
8
DEFAULT_255_1_388
10
4.1755868
20
53.4497267
11
4.1755868
21
52.4187596
0
LINE
8
DEFAULT_255_1_388
10
4.1755868
20
52.4187596
11
4.3581068
21
52.4187596
0
LINE
8
DEFAULT_255_1_388
10
4.7818785
20
52.8985523
11
4.7818785
21
52.9753553
0
ARC
8
DEFAULT_255_1_388
10
4.3778469
20
52.9326436
40
0.6598608
50
75.4100343
51
90.3802731
0
ARC
8
DEFAULT_255_1_388
10
4.4036714
20
53.0402691
40
0.5492049
50
60.1455157
51
75.1889627
0
ARC
8
DEFAULT_255_1_388
10
4.4215306
20
53.0713914
40
0.5133226
50
26.525419
51
60.1451222
0
ARC
8
DEFAULT_255_1_388
10
4.2955092
20
53.0045642
40
0.6559324
50
7.4029944
51
26.832209
0
ARC
8
DEFAULT_255_1_388
10
4.1161489
20
52.9766229
40
0.8374103
50
0.1605597
51
7.7176135
0
ARC
8
DEFAULT_255_1_388
10
4.1345889
20
52.8906321
40
0.8189782
50
348.7289744
51
0.30125
0
ARC
8
DEFAULT_255_1_388
10
4.3209353
20
52.8536156
40
0.628991
50
333.0706936
51
348.7181455
0
ARC
8
DEFAULT_255_1_388
10
4.4296981
20
52.7945449
40
0.5052808
50
299.2531435
51
333.4571133
0
ARC
8
DEFAULT_255_1_388
10
4.3891012
20
52.8716629
40
0.5924066
50
278.1072193
51
299.0340218
0
ARC
8
DEFAULT_255_1_388
10
4.3603061
20
53.0412979
40
0.7644209
50
270.4446841
51
278.4508355
0
ARC
8
DEFAULT_255_1_388
10
4.3626545
20
52.93673
40
0.5179903
50
269.4969684
51
284.0204874
0
ARC
8
DEFAULT_255_1_388
10
4.4026263
20
52.7831415
40
0.3592968
50
283.7699076
51
318.1557121
0
ARC
8
DEFAULT_255_1_388
10
4.3646808
20
52.8115399
40
0.4065308
50
318.7417595
51
343.687252
0
ARC
8
DEFAULT_255_1_388
10
4.1617387
20
52.8749275
40
0.6191194
50
343.3324891
51
355.8548594
0
ARC
8
DEFAULT_255_1_388
10
3.9256424
20
52.8973719
40
0.856237
50
355.4988754
51
0.0789913
0
ARC
8
DEFAULT_255_1_388
10
4.0137224
20
52.980108
40
0.7681709
50
359.6455047
51
9.8607559
0
ARC
8
DEFAULT_255_1_388
10
4.2792947
20
53.0280664
40
0.498312
50
9.6573037
51
26.1931522
0
ARC
8
DEFAULT_255_1_388
10
4.3837022
20
53.0765587
40
0.3832303
50
26.5777895
51
40.1533752
0
ARC
8
DEFAULT_255_1_388
10
4.4124687
20
53.099002
40
0.3467742
50
40.3839958
51
80.1430923
0
ARC
8
DEFAULT_255_1_388
10
4.3756942
20
52.9359486
40
0.5137832
50
79.2153636
51
89.7445174
0
LINE
8
DEFAULT_255_1_388
10
5.4017237
20
53.5924898
11
5.4017237
21
52.2769
0
LINE
8
DEFAULT_255_1_388
10
5.4017237
20
52.2769
11
5.2282394
21
52.2769
0
LINE
8
DEFAULT_255_1_388
10
5.2282394
20
52.2769
11
5.2282394
21
53.5924898
0
LINE
8
DEFAULT_255_1_388
10
5.2282394
20
53.5924898
11
5.4017237
21
53.5924898
0
LINE
8
DEFAULT_255_1_388
10
6.2248709
20
53.5988148
11
6.2248709
21
52.2769
0
LINE
8
DEFAULT_255_1_388
10
6.2248709
20
52.2769
11
6.056808
21
52.2769
0
LINE
8
DEFAULT_255_1_388
10
6.056808
20
52.2769
11
6.056808
21
53.390995
0
LINE
8
DEFAULT_255_1_388
10
6.056808
20
53.390995
11
5.7197784
21
53.2672066
0
LINE
8
DEFAULT_255_1_388
10
5.7197784
20
53.2672066
11
5.7197784
21
53.4190055
0
LINE
8
DEFAULT_255_1_388
10
5.7197784
20
53.4190055
11
6.1986676
21
53.5988148
0
LINE
8
DEFAULT_255_1_388
10
6.1986676
20
53.5988148
11
6.2248709
21
53.5988148
0
LINE
8
DEFAULT_255_1_388
10
7.5395572
20
53.054869
11
7.5395572
21
52.8380135
0
LINE
8
DEFAULT_255_1_388
10
6.7091815
20
52.8154244
11
6.7091815
21
53.0386048
0
LINE
8
DEFAULT_255_1_388
10
7.3723978
20
52.7928353
11
7.3723978
21
53.0666153
0
LINE
8
DEFAULT_255_1_388
10
6.8763409
20
53.0792652
11
6.8763409
21
52.8118102
0
ARC
8
DEFAULT_255_1_388
10
6.1617906
20
52.8325118
40
1.3777776
50
353.8440855
51
0.2287917
0
ARC
8
DEFAULT_255_1_388
10
6.6836924
20
52.7742414
40
0.852639
50
344.4934746
51
353.9763743
0
ARC
8
DEFAULT_255_1_388
10
7.0203731
20
52.6785191
40
0.5026273
50
329.2803599
51
344.7473406
0
ARC
8
DEFAULT_255_1_388
10
7.1319227
20
52.6173038
40
0.3754848
50
324.9361395
51
328.6153007
0
ARC
8
DEFAULT_255_1_388
10
7.1744876
20
52.5875586
40
0.3235566
50
280.5801797
51
324.9173226
0
ARC
8
DEFAULT_255_1_388
10
7.1293505
20
52.7755236
40
0.5167077
50
269.5979457
51
281.6732777
0
ARC
8
DEFAULT_255_1_388
10
7.1212409
20
52.7620113
40
0.5032026
50
256.6228565
51
270.5105488
0
ARC
8
DEFAULT_255_1_388
10
7.0760151
20
52.5878345
40
0.3233092
50
215.8618351
51
257.2787793
0
ARC
8
DEFAULT_255_1_388
10
7.1908858
20
52.6649106
40
0.4615831
50
197.9695203
51
215.2622745
0
ARC
8
DEFAULT_255_1_388
10
7.4704534
20
52.7592641
40
0.7566307
50
187.8816486
51
198.2346584
0
ARC
8
DEFAULT_255_1_388
10
7.9157772
20
52.8235453
40
1.2065653
50
180.8977266
51
188.0054894
0
ARC
8
DEFAULT_255_1_388
10
8.2207986
20
52.83504
40
1.5117443
50
180.7434591
51
181.152202
0
ARC
8
DEFAULT_255_1_388
10
8.0532982
20
53.0440371
40
1.3441277
50
173.7674302
51
180.2315596
0
ARC
8
DEFAULT_255_1_388
10
7.5450851
20
53.1014779
40
0.8326847
50
164.3058537
51
173.9000553
0
ARC
8
DEFAULT_255_1_388
10
7.2174851
20
53.1958652
40
0.4917711
50
148.7922028
51
164.5682288
0
ARC
8
DEFAULT_255_1_388
10
7.1105588
20
53.2555457
40
0.3694204
50
144.5883979
51
148.1161588
0
ARC
8
DEFAULT_255_1_388
10
7.0718333
20
53.2825667
40
0.322202
50
101.6440149
51
144.5142619
0
ARC
8
DEFAULT_255_1_388
10
7.1196526
20
53.0925337
40
0.5180451
50
89.528284
51
102.5820197
0
ARC
8
DEFAULT_255_1_388
10
7.1285518
20
53.0881376
40
0.5224441
50
77.0437914
51
90.508231
0
ARC
8
DEFAULT_255_1_388
10
7.1737771
20
53.2729272
40
0.3322297
50
48.2777708
51
77.4996087
0
ARC
8
DEFAULT_255_1_388
10
7.1819511
20
53.2874557
40
0.315966
50
36.3141586
51
47.6307332
0
ARC
8
DEFAULT_255_1_388
10
7.0842233
20
53.2216159
40
0.4337313
50
18.2931065
51
35.6770203
0
ARC
8
DEFAULT_255_1_388
10
6.7981074
20
53.1234107
40
0.7362203
50
8.0246996
51
18.5605636
0
ARC
8
DEFAULT_255_1_388
10
6.329743
20
53.0542432
40
1.2096583
50
1.127539
51
8.1718423
0
ARC
8
DEFAULT_255_1_388
10
5.9648563
20
53.0399374
40
1.5747719
50
0.5432713
51
1.38669
0
ARC
8
DEFAULT_255_1_388
10
6.1705942
20
53.0706163
40
1.2018103
50
359.8092569
51
4.9408001
0
ARC
8
DEFAULT_255_1_388
10
6.6442523
20
53.11289
40
0.7262727
50
4.8364937
51
12.2906017
0
ARC
8
DEFAULT_255_1_388
10
6.9541988
20
53.1819485
40
0.4087324
50
12.0806994
51
23.8171225
0
ARC
8
DEFAULT_255_1_388
10
7.0862384
20
53.2378508
40
0.2653719
50
24.2874621
51
31.3934353
0
ARC
8
DEFAULT_255_1_388
10
7.145282
20
53.2764822
40
0.1948607
50
30.7407708
51
82.4658033
0
ARC
8
DEFAULT_255_1_388
10
7.1250481
20
53.1771017
40
0.2961198
50
81.1057101
51
90.2187368
0
ARC
8
DEFAULT_255_1_388
10
7.1210293
20
53.2061421
40
0.2670929
50
89.380395
51
105.6763916
0
ARC
8
DEFAULT_255_1_388
10
7.1004014
20
53.281132
40
0.1893189
50
105.7980655
51
149.7387869
0
ARC
8
DEFAULT_255_1_388
10
7.2201155
20
53.2091719
40
0.3289892
50
149.4208441
51
163.628295
0
ARC
8
DEFAULT_255_1_388
10
7.4553384
20
53.1374345
40
0.5749004
50
163.3764549
51
172.141138
0
ARC
8
DEFAULT_255_1_388
10
7.8266106
20
53.0842582
40
0.9499585
50
172.0258462
51
178.0705453
0
ARC
8
DEFAULT_255_1_388
10
8.1687658
20
53.0680682
40
1.2924734
50
177.8639301
51
179.5036263
0
ARC
8
DEFAULT_255_1_388
10
8.0468677
20
52.8077151
40
1.170534
50
179.7995545
51
185.246089
0
ARC
8
DEFAULT_255_1_388
10
7.592027
20
52.7646404
40
0.7136613
50
185.1411911
51
193.0082205
0
ARC
8
DEFAULT_255_1_388
10
7.2946531
20
52.6943441
40
0.4080987
50
192.7897338
51
205.2507384
0
ARC
8
DEFAULT_255_1_388
10
7.1768741
20
52.6417538
40
0.2791522
50
205.8001921
51
211.2545876
0
ARC
8
DEFAULT_255_1_388
10
7.118028
20
52.6023132
40
0.2084074
50
210.3789935
51
238.4007996
0
ARC
8
DEFAULT_255_1_388
10
7.1158366
20
52.6075786
40
0.2117943
50
239.6521916
51
265.9793852
0
ARC
8
DEFAULT_255_1_388
10
7.1254215
20
52.6832358
40
0.2879689
50
265.1324455
51
270.0603288
0
ARC
8
DEFAULT_255_1_388
10
7.1286592
20
52.6467418
40
0.2514919
50
269.3314378
51
287.2180039
0
ARC
8
DEFAULT_255_1_388
10
7.1441674
20
52.5901291
40
0.1928357
50
287.7957942
51
329.0808983
0
ARC
8
DEFAULT_255_1_388
10
7.0364431
20
52.6573651
40
0.319808
50
328.6635261
51
343.3325043
0
ARC
8
DEFAULT_255_1_388
10
6.791989
20
52.7335195
40
0.5758408
50
343.0498092
51
351.9392499
0
ARC
8
DEFAULT_255_1_388
10
6.4019211
20
52.7910205
40
0.9701202
50
351.8071632
51
357.7957897
0
ARC
8
DEFAULT_255_1_388
10
6.0384688
20
52.8098724
40
1.3340376
50
357.5870923
51
359.2682493
0
LINE
8
DEFAULT_255_1_388
10
4.3630389
20
60.2144
11
3.9989024
21
60.2144
0
LINE
8
DEFAULT_255_1_388
10
3.9989024
20
60.2144
11
3.9989024
21
61.5299898
0
LINE
8
DEFAULT_255_1_388
10
3.9989024
20
61.5299898
11
4.3702674
21
61.5299898
0
LINE
8
DEFAULT_255_1_388
10
4.9503558
20
60.9164696
11
4.9503558
21
60.8324381
0
LINE
8
DEFAULT_255_1_388
10
4.3747852
20
61.3872267
11
4.1723868
21
61.3872267
0
LINE
8
DEFAULT_255_1_388
10
4.1723868
20
61.3872267
11
4.1723868
21
60.3562596
0
LINE
8
DEFAULT_255_1_388
10
4.1723868
20
60.3562596
11
4.3549068
21
60.3562596
0
LINE
8
DEFAULT_255_1_388
10
4.7786785
20
60.8360523
11
4.7786785
21
60.9128553
0
ARC
8
DEFAULT_255_1_388
10
4.3746469
20
60.8701436
40
0.6598608
50
75.4100343
51
90.3802731
0
ARC
8
DEFAULT_255_1_388
10
4.4004714
20
60.9777691
40
0.5492049
50
60.1455157
51
75.1889627
0
ARC
8
DEFAULT_255_1_388
10
4.4183306
20
61.0088914
40
0.5133226
50
26.525419
51
60.1451222
0
ARC
8
DEFAULT_255_1_388
10
4.2923092
20
60.9420642
40
0.6559324
50
7.4029944
51
26.832209
0
ARC
8
DEFAULT_255_1_388
10
4.1129489
20
60.9141229
40
0.8374103
50
0.1605597
51
7.7176135
0
ARC
8
DEFAULT_255_1_388
10
4.1313889
20
60.8281321
40
0.8189782
50
348.7289744
51
0.30125
0
ARC
8
DEFAULT_255_1_388
10
4.3177353
20
60.7911156
40
0.628991
50
333.0706936
51
348.7181455
0
ARC
8
DEFAULT_255_1_388
10
4.4264981
20
60.7320449
40
0.5052808
50
299.2531435
51
333.4571133
0
ARC
8
DEFAULT_255_1_388
10
4.3859012
20
60.8091629
40
0.5924066
50
278.1072193
51
299.0340218
0
ARC
8
DEFAULT_255_1_388
10
4.3571061
20
60.9787979
40
0.7644209
50
270.4446841
51
278.4508355
0
ARC
8
DEFAULT_255_1_388
10
4.3594545
20
60.87423
40
0.5179903
50
269.4969684
51
284.0204874
0
ARC
8
DEFAULT_255_1_388
10
4.3994263
20
60.7206415
40
0.3592968
50
283.7699076
51
318.1557121
0
ARC
8
DEFAULT_255_1_388
10
4.3614808
20
60.7490399
40
0.4065308
50
318.7417595
51
343.687252
0
ARC
8
DEFAULT_255_1_388
10
4.1585387
20
60.8124275
40
0.6191194
50
343.3324891
51
355.8548594
0
ARC
8
DEFAULT_255_1_388
10
3.9224424
20
60.8348719
40
0.856237
50
355.4988754
51
0.0789913
0
ARC
8
DEFAULT_255_1_388
10
4.0105224
20
60.917608
40
0.7681709
50
359.6455047
51
9.8607559
0
ARC
8
DEFAULT_255_1_388
10
4.2760947
20
60.9655664
40
0.498312
50
9.6573037
51
26.1931522
0
ARC
8
DEFAULT_255_1_388
10
4.3805022
20
61.0140587
40
0.3832303
50
26.5777895
51
40.1533752
0
ARC
8
DEFAULT_255_1_388
10
4.4092687
20
61.036502
40
0.3467742
50
40.3839958
51
80.1430923
0
ARC
8
DEFAULT_255_1_388
10
4.3724942
20
60.8734486
40
0.5137832
50
79.2153636
51
89.7445174
0
LINE
8
DEFAULT_255_1_388
10
5.3985237
20
61.5299898
11
5.3985237
21
60.2144
0
LINE
8
DEFAULT_255_1_388
10
5.3985237
20
60.2144
11
5.2250394
21
60.2144
0
LINE
8
DEFAULT_255_1_388
10
5.2250394
20
60.2144
11
5.2250394
21
61.5299898
0
LINE
8
DEFAULT_255_1_388
10
5.2250394
20
61.5299898
11
5.3985237
21
61.5299898
0
LINE
8
DEFAULT_255_1_388
10
6.4809939
20
61.0041153
11
6.4809939
21
60.9553229
0
LINE
8
DEFAULT_255_1_388
10
5.8710879
20
60.2134964
11
5.8385596
21
60.2134964
0
LINE
8
DEFAULT_255_1_388
10
5.8385596
20
60.2134964
11
5.8385596
21
60.3544525
0
LINE
8
DEFAULT_255_1_388
10
5.8385596
20
60.3544525
11
5.8737986
21
60.3544525
0
LINE
8
DEFAULT_255_1_388
10
6.3138345
20
60.971587
11
6.3138345
21
61.0384508
0
ARC
8
DEFAULT_255_1_388
10
5.9995437
20
61.0554877
40
0.4089973
50
297.4036461
51
320.0168133
0
ARC
8
DEFAULT_255_1_388
10
6.0321617
20
60.9928072
40
0.3383378
50
270.2631886
51
297.3852322
0
ARC
8
DEFAULT_255_1_388
10
6.0283293
20
61.0465343
40
0.3920983
50
269.9969069
51
270.7871389
0
ARC
8
DEFAULT_255_1_388
10
6.0254617
20
61.0447737
40
0.3903482
50
254.5997295
51
270.4178147
0
ARC
8
DEFAULT_255_1_388
10
6.0094148
20
60.9812693
40
0.3248657
50
236.4717231
51
254.3539376
0
ARC
8
DEFAULT_255_1_388
10
6.026988
20
61.0048999
40
0.3542746
50
208.4727261
51
236.2134628
0
ARC
8
DEFAULT_255_1_388
10
6.0988643
20
61.0488676
40
0.4384402
50
204.3450776
51
209.0455365
0
ARC
8
DEFAULT_255_1_388
10
6.1753019
20
61.08128
40
0.5214459
50
183.9375459
51
204.1275509
0
ARC
8
DEFAULT_255_1_388
10
6.2775325
20
61.0922863
40
0.6242037
50
179.9652726
51
184.3010611
0
ARC
8
DEFAULT_255_1_388
10
6.2504871
20
61.0960004
40
0.5971675
50
166.7585952
51
180.3200491
0
ARC
8
DEFAULT_255_1_388
10
6.1552679
20
61.1166979
40
0.4997418
50
154.6954866
51
166.5679151
0
ARC
8
DEFAULT_255_1_388
10
6.0592919
20
61.1650411
40
0.3923208
50
136.3325251
51
155.0871367
0
ARC
8
DEFAULT_255_1_388
10
6.0276838
20
61.1921271
40
0.3507618
50
121.2365985
51
135.9680081
0
ARC
8
DEFAULT_255_1_388
10
6.0434903
20
61.1628541
40
0.3839917
50
96.8454764
51
120.9881329
0
ARC
8
DEFAULT_255_1_388
10
6.0598709
20
61.0575942
40
0.4904679
50
89.887204
51
97.2797758
0
ARC
8
DEFAULT_255_1_388
10
6.0657682
20
61.1293652
40
0.418725
50
70.6505767
51
90.6748382
0
ARC
8
DEFAULT_255_1_388
10
6.0805379
20
61.1871091
40
0.3593866
50
36.7493297
51
69.8220487
0
ARC
8
DEFAULT_255_1_388
10
5.9681726
20
61.0995446
40
0.5018201
50
15.3958155
51
37.0841102
0
ARC
8
DEFAULT_255_1_388
10
5.728601
20
61.0297111
40
0.7513436
50
3.9487796
51
15.6798517
0
ARC
8
DEFAULT_255_1_388
10
5.4584653
20
61.005381
40
1.0225293
50
359.9290791
51
4.266464
0
ARC
8
DEFAULT_255_1_388
10
4.940357
20
60.9478372
40
1.5406551
50
352.8365702
51
0.2783851
0
ARC
8
DEFAULT_255_1_388
10
5.5351801
20
60.8705664
40
0.9408425
50
341.8359339
51
352.9884057
0
ARC
8
DEFAULT_255_1_388
10
5.8972788
20
60.7485144
40
0.5587481
50
322.8579243
51
342.1527461
0
ARC
8
DEFAULT_255_1_388
10
5.994448
20
60.682235
40
0.4413099
50
319.3348471
51
322.100194
0
ARC
8
DEFAULT_255_1_388
10
5.9596411
20
60.7171814
40
0.4904992
50
285.954114
51
318.8878716
0
ARC
8
DEFAULT_255_1_388
10
5.8778848
20
60.9770865
40
0.7628991
50
272.9280841
51
286.4924389
0
ARC
8
DEFAULT_255_1_388
10
5.8565153
20
61.230524
40
1.017132
50
270.8209173
51
273.4010121
0
ARC
8
DEFAULT_255_1_388
10
5.8665176
20
61.0257073
40
0.6712943
50
270.6214576
51
281.4062333
0
ARC
8
DEFAULT_255_1_388
10
5.91489
20
60.794425
40
0.4350167
50
281.1852583
51
299.0622058
0
ARC
8
DEFAULT_255_1_388
10
5.9569145
20
60.7133138
40
0.3437146
50
299.5068171
51
313.1200142
0
ARC
8
DEFAULT_255_1_388
10
5.9593883
20
60.7043959
40
0.3355418
50
313.8525725
51
338.5989631
0
ARC
8
DEFAULT_255_1_388
10
5.7767011
20
60.7794576
40
0.5330317
50
338.2523315
51
351.2431701
0
ARC
8
DEFAULT_255_1_388
10
5.5054762
20
60.8255494
40
0.8081235
50
350.940933
51
357.6690137
0
ARC
8
DEFAULT_255_1_388
10
6.0556642
20
61.0508048
40
0.2581236
50
269.9447107
51
306.8249644
0
ARC
8
DEFAULT_255_1_388
10
6.0289944
20
61.098406
40
0.3122948
50
305.5071046
51
327.0773808
0
ARC
8
DEFAULT_255_1_388
10
6.0422995
20
61.0877445
40
0.2953369
50
327.4106457
51
336.8396801
0
ARC
8
DEFAULT_255_1_388
10
5.6942709
20
61.0420932
40
0.6195743
50
359.663158
51
10.1176387
0
ARC
8
DEFAULT_255_1_388
10
5.8915472
20
61.0785922
40
0.4189561
50
9.9431549
51
26.7699242
0
ARC
8
DEFAULT_255_1_388
10
5.9587458
20
61.1095796
40
0.3450125
50
27.2018067
51
34.6833639
0
ARC
8
DEFAULT_255_1_388
10
6.0138071
20
61.150956
40
0.2762035
50
34.124913
51
50.30709
0
ARC
8
DEFAULT_255_1_388
10
6.0640553
20
61.2110741
40
0.1978518
50
50.3850304
51
90.6705051
0
ARC
8
DEFAULT_255_1_388
10
6.0587947
20
61.1768074
40
0.2321235
50
89.2729817
51
111.9140267
0
ARC
8
DEFAULT_255_1_388
10
6.0566035
20
61.1926308
40
0.2166604
50
112.9381864
51
142.5320936
0
ARC
8
DEFAULT_255_1_388
10
6.1180524
20
61.1427392
40
0.2957902
50
142.1024021
51
166.3835244
0
ARC
8
DEFAULT_255_1_388
10
6.2509493
20
61.1084213
40
0.4330361
50
166.1100968
51
178.6653563
0
ARC
8
DEFAULT_255_1_388
10
6.3691419
20
61.1018061
40
0.5513642
50
178.2641888
51
180.010994
0
ARC
8
DEFAULT_255_1_388
10
6.2785921
20
61.0986136
40
0.4608248
50
179.6162225
51
191.8786013
0
ARC
8
DEFAULT_255_1_388
10
6.1413231
20
61.068259
40
0.3202502
50
191.6192934
51
215.2970746
0
ARC
8
DEFAULT_255_1_388
10
6.1173886
20
61.0539963
40
0.2924827
50
215.7258926
51
216.5355437
0
ARC
8
DEFAULT_255_1_388
10
6.0585506
20
61.0066919
40
0.2170661
50
215.7486606
51
239.9728403
0
ARC
8
DEFAULT_255_1_388
10
6.0506672
20
61.0009838
40
0.208217
50
241.065081
51
269.280972
0
ARC
8
DEFAULT_255_1_388
10
6.055383
20
61.0565327
40
0.2638514
50
268.4083352
51
270.0069622
0
LINE
8
DEFAULT_255_1_388
10
4.3630389
20
68.1519
11
3.9989024
21
68.1519
0
LINE
8
DEFAULT_255_1_388
10
3.9989024
20
68.1519
11
3.9989024
21
69.4674898
0
LINE
8
DEFAULT_255_1_388
10
3.9989024
20
69.4674898
11
4.3702674
21
69.4674898
0
LINE
8
DEFAULT_255_1_388
10
4.9503558
20
68.8539696
11
4.9503558
21
68.7699381
0
LINE
8
DEFAULT_255_1_388
10
4.3747852
20
69.3247267
11
4.1723868
21
69.3247267
0
LINE
8
DEFAULT_255_1_388
10
4.1723868
20
69.3247267
11
4.1723868
21
68.2937596
0
LINE
8
DEFAULT_255_1_388
10
4.1723868
20
68.2937596
11
4.3549068
21
68.2937596
0
LINE
8
DEFAULT_255_1_388
10
4.7786785
20
68.7735523
11
4.7786785
21
68.8503553
0
ARC
8
DEFAULT_255_1_388
10
4.3746469
20
68.8076436
40
0.6598608
50
75.4100343
51
90.3802731
0
ARC
8
DEFAULT_255_1_388
10
4.4004714
20
68.9152691
40
0.5492049
50
60.1455157
51
75.1889627
0
ARC
8
DEFAULT_255_1_388
10
4.4183306
20
68.9463914
40
0.5133226
50
26.525419
51
60.1451222
0
ARC
8
DEFAULT_255_1_388
10
4.2923092
20
68.8795642
40
0.6559324
50
7.4029944
51
26.832209
0
ARC
8
DEFAULT_255_1_388
10
4.1129489
20
68.8516229
40
0.8374103
50
0.1605597
51
7.7176135
0
ARC
8
DEFAULT_255_1_388
10
4.1313889
20
68.7656321
40
0.8189782
50
348.7289744
51
0.30125
0
ARC
8
DEFAULT_255_1_388
10
4.3177353
20
68.7286156
40
0.628991
50
333.0706936
51
348.7181455
0
ARC
8
DEFAULT_255_1_388
10
4.4264981
20
68.6695449
40
0.5052808
50
299.2531435
51
333.4571133
0
ARC
8
DEFAULT_255_1_388
10
4.3859012
20
68.7466629
40
0.5924066
50
278.1072193
51
299.0340218
0
ARC
8
DEFAULT_255_1_388
10
4.3571061
20
68.9162979
40
0.7644209
50
270.4446841
51
278.4508355
0
ARC
8
DEFAULT_255_1_388
10
4.3594545
20
68.81173
40
0.5179903
50
269.4969684
51
284.0204874
0
ARC
8
DEFAULT_255_1_388
10
4.3994263
20
68.6581415
40
0.3592968
50
283.7699076
51
318.1557121
0
ARC
8
DEFAULT_255_1_388
10
4.3614808
20
68.6865399
40
0.4065308
50
318.7417595
51
343.687252
0
ARC
8
DEFAULT_255_1_388
10
4.1585387
20
68.7499275
40
0.6191194
50
343.3324891
51
355.8548594
0
ARC
8
DEFAULT_255_1_388
10
3.9224424
20
68.7723719
40
0.856237
50
355.4988754
51
0.0789913
0
ARC
8
DEFAULT_255_1_388
10
4.0105224
20
68.855108
40
0.7681709
50
359.6455047
51
9.8607559
0
ARC
8
DEFAULT_255_1_388
10
4.2760947
20
68.9030664
40
0.498312
50
9.6573037
51
26.1931522
0
ARC
8
DEFAULT_255_1_388
10
4.3805022
20
68.9515587
40
0.3832303
50
26.5777895
51
40.1533752
0
ARC
8
DEFAULT_255_1_388
10
4.4092687
20
68.974002
40
0.3467742
50
40.3839958
51
80.1430923
0
ARC
8
DEFAULT_255_1_388
10
4.3724942
20
68.8109486
40
0.5137832
50
79.2153636
51
89.7445174
0
LINE
8
DEFAULT_255_1_388
10
5.3985237
20
69.4674898
11
5.3985237
21
68.1519
0
LINE
8
DEFAULT_255_1_388
10
5.3985237
20
68.1519
11
5.2250394
21
68.1519
0
LINE
8
DEFAULT_255_1_388
10
5.2250394
20
68.1519
11
5.2250394
21
69.4674898
0
LINE
8
DEFAULT_255_1_388
10
5.2250394
20
69.4674898
11
5.3985237
21
69.4674898
0
ARC
8
DEFAULT_255_1_388
10
6.1526543
20
69.121272
40
0.3175098
50
338.8762533
51
0.5167111
0
ARC
8
DEFAULT_255_1_388
10
6.1716137
20
69.11616
40
0.2979894
50
325.8415285
51
338.4793574
0
ARC
8
DEFAULT_255_1_388
10
6.127677
20
69.1466242
40
0.351452
50
296.7587686
51
325.7536481
0
ARC
8
DEFAULT_255_1_388
10
6.0948398
20
69.2020363
40
0.4157374
50
296.0927901
51
297.3613472
0
ARC
8
DEFAULT_255_1_388
10
6.1242594
20
68.4637593
40
0.395855
50
47.9007294
51
67.1948823
0
ARC
8
DEFAULT_255_1_388
10
6.1463236
20
68.4914599
40
0.360516
50
35.2363914
51
47.551141
0
ARC
8
DEFAULT_255_1_388
10
6.1757639
20
68.5111093
40
0.3251343
50
359.2759765
51
35.4014143
0
ARC
8
DEFAULT_255_1_388
10
6.0919566
20
68.5028787
40
0.4089365
50
343.1293083
51
0.5775513
0
ARC
8
DEFAULT_255_1_388
10
6.1734679
20
68.4804336
40
0.3244269
50
310.8496669
51
342.7449331
0
ARC
8
DEFAULT_255_1_388
10
6.1264554
20
68.5340913
40
0.3957651
50
281.5472888
51
310.9170406
0
ARC
8
DEFAULT_255_1_388
10
6.0863429
20
68.7087814
40
0.5749654
50
269.619248
51
281.9789564
0
ARC
8
DEFAULT_255_1_388
10
6.0782206
20
68.7088776
40
0.5750649
50
257.4585678
51
270.4285689
0
ARC
8
DEFAULT_255_1_388
10
6.0353726
20
68.5284741
40
0.389671
50
228.7554326
51
257.8484789
0
ARC
8
DEFAULT_255_1_388
10
6.0005212
20
68.4865228
40
0.335154
50
184.0104975
51
228.5071184
0
ARC
8
DEFAULT_255_1_388
10
6.1313604
20
68.506443
40
0.4671891
50
179.9315832
51
185.3253753
0
ARC
8
DEFAULT_255_1_388
10
5.9990117
20
68.5106592
40
0.33486
50
145.6796023
51
180.6259786
0
ARC
8
DEFAULT_255_1_388
10
6.0173883
20
68.4978271
40
0.3572723
50
115.5537685
51
145.6415986
0
ARC
8
DEFAULT_255_1_388
10
6.0556927
20
68.4292087
40
0.4357296
50
113.243307
51
116.2057839
0
ARC
8
DEFAULT_255_1_388
10
6.0385578
20
69.1489379
40
0.3549126
50
222.9549744
51
244.1370481
0
ARC
8
DEFAULT_255_1_388
10
6.0248222
20
69.1335378
40
0.3343711
50
213.3436887
51
222.6274467
0
ARC
8
DEFAULT_255_1_388
10
6.0032291
20
69.1188653
40
0.3082678
50
180.431584
51
213.271499
0
ARC
8
DEFAULT_255_1_388
10
6.066729
20
69.1241296
40
0.3718363
50
179.9991191
51
181.1690594
0
ARC
8
DEFAULT_255_1_388
10
6.1139746
20
69.1280072
40
0.4190996
50
164.6186169
51
180.529336
0
ARC
8
DEFAULT_255_1_388
10
6.0129395
20
69.155178
40
0.3144772
50
132.2455553
51
164.5090724
0
ARC
8
DEFAULT_255_1_388
10
6.0452373
20
69.118607
40
0.3632644
50
100.7053914
51
132.1386381
0
ARC
8
DEFAULT_255_1_388
10
6.0795434
20
68.9636118
40
0.5219578
50
89.6730358
51
101.2451698
0
ARC
8
DEFAULT_255_1_388
10
6.0865425
20
68.9832648
40
0.5023124
50
76.287748
51
90.4586006
0
ARC
8
DEFAULT_255_1_388
10
6.1209927
20
69.1207671
40
0.3605639
50
47.8240511
51
76.4266241
0
ARC
8
DEFAULT_255_1_388
10
6.1460312
20
69.1500599
40
0.3220463
50
6.9168387
51
47.6262497
0
ARC
8
DEFAULT_255_1_388
10
6.0125765
20
69.1254004
40
0.4575765
50
359.8415968
51
7.9697453
0
ARC
8
DEFAULT_255_1_388
10
6.0510034
20
68.5133519
40
0.2827228
50
359.445363
51
16.9256873
0
ARC
8
DEFAULT_255_1_388
10
6.1037468
20
68.5278781
40
0.2280396
50
17.2920767
51
45.4630727
0
ARC
8
DEFAULT_255_1_388
10
6.0976604
20
68.5226324
40
0.2360485
50
45.30305
51
83.1920945
0
ARC
8
DEFAULT_255_1_388
10
6.0815348
20
68.4324473
40
0.3275527
50
82.2612665
51
90.1434275
0
ARC
8
DEFAULT_255_1_388
10
6.0780625
20
68.4586869
40
0.3013237
50
89.4956434
51
104.8580688
0
ARC
8
DEFAULT_255_1_388
10
6.0581814
20
68.5340455
40
0.2233867
50
104.8856641
51
135.244616
0
ARC
8
DEFAULT_255_1_388
10
6.0637803
20
68.5290352
40
0.2308906
50
135.3399546
51
172.1044062
0
ARC
8
DEFAULT_255_1_388
10
6.1545328
20
68.5116667
40
0.3232034
50
171.2645637
51
180.186429
0
ARC
8
DEFAULT_255_1_388
10
6.1355332
20
68.5080426
40
0.304213
50
179.5154935
51
193.6464289
0
ARC
8
DEFAULT_255_1_388
10
6.0437008
20
68.4846473
40
0.209456
50
193.3540274
51
225.8258581
0
ARC
8
DEFAULT_255_1_388
10
6.0482881
20
68.4926076
40
0.2183738
50
226.4180634
51
255.8552336
0
ARC
8
DEFAULT_255_1_388
10
6.0771347
20
68.5979521
40
0.3275812
50
255.4654104
51
268.7987425
0
ARC
8
DEFAULT_255_1_388
10
6.0824524
20
68.6921545
40
0.4218877
50
268.3449238
51
270.0094605
0
ARC
8
DEFAULT_255_1_388
10
6.0850757
20
68.6153094
40
0.3450519
50
269.5759586
51
282.0820163
0
ARC
8
DEFAULT_255_1_388
10
6.1103793
20
68.5034363
40
0.2303642
50
281.752014
51
306.6056188
0
ARC
8
DEFAULT_255_1_388
10
6.1214601
20
68.4852802
40
0.2091906
50
307.1346085
51
314.027845
0
ARC
8
DEFAULT_255_1_388
10
6.1174113
20
68.4882459
40
0.2141385
50
314.2552483
51
350.1694025
0
ARC
8
DEFAULT_255_1_388
10
6.021635
20
68.5090175
40
0.312082
50
349.4140529
51
0.2933014
0
ARC
8
DEFAULT_255_1_388
10
6.0801627
20
69.0893924
40
0.2588377
50
89.477747
51
105.729729
0
ARC
8
DEFAULT_255_1_388
10
6.0648547
20
69.1462367
40
0.1999733
50
105.9233417
51
135.1660906
0
ARC
8
DEFAULT_255_1_388
10
6.0671578
20
69.1446412
40
0.2027322
50
135.3052302
51
168.9883645
0
ARC
8
DEFAULT_255_1_388
10
6.1602595
20
69.1232996
40
0.2982129
50
168.3801673
51
180.3602268
0
ARC
8
DEFAULT_255_1_388
10
6.1345711
20
69.1190622
40
0.2725291
50
179.5033122
51
194.9125571
0
ARC
8
DEFAULT_255_1_388
10
6.0687118
20
69.1017427
40
0.204431
50
194.9720816
51
224.194444
0
ARC
8
DEFAULT_255_1_388
10
6.0655484
20
69.0991635
40
0.2003651
50
224.2962453
51
262.015664
0
ARC
8
DEFAULT_255_1_388
10
6.0815488
20
69.1814315
40
0.2840925
50
261.1245923
51
270.1962896
0
ARC
8
DEFAULT_255_1_388
10
6.0848969
20
69.1603859
40
0.2630559
50
269.4827276
51
285.0987215
0
ARC
8
DEFAULT_255_1_388
10
6.1022405
20
69.0953175
40
0.1957162
50
285.1585357
51
315.9484501
0
ARC
8
DEFAULT_255_1_388
10
6.0922279
20
69.1045315
40
0.2093195
50
316.0413965
51
351.916092
0
ARC
8
DEFAULT_255_1_388
10
6.0097653
20
69.1204323
40
0.2932279
50
351.105835
51
0.1939062
0
ARC
8
DEFAULT_255_1_388
10
6.0393287
20
69.1238224
40
0.2636739
50
359.4789618
51
16.0678224
0
ARC
8
DEFAULT_255_1_388
10
6.0928759
20
69.1382721
40
0.2082215
50
16.3252067
51
44.7913869
0
ARC
8
DEFAULT_255_1_388
10
6.0908821
20
69.138332
40
0.2095992
50
44.3957814
51
88.2499162
0
ARC
8
DEFAULT_255_1_388
10
6.0826155
20
69.0695006
40
0.2787189
50
86.9833854
51
90.0192215
0
LINE
8
DEFAULT_255_1_388
10
4.3630389
20
76.0894
11
3.9989024
21
76.0894
0
LINE
8
DEFAULT_255_1_388
10
3.9989024
20
76.0894
11
3.9989024
21
77.4049898
0
LINE
8
DEFAULT_255_1_388
10
3.9989024
20
77.4049898
11
4.3702674
21
77.4049898
0
LINE
8
DEFAULT_255_1_388
10
4.9503558
20
76.7914696
11
4.9503558
21
76.7074381
0
LINE
8
DEFAULT_255_1_388
10
4.3747852
20
77.2622267
11
4.1723868
21
77.2622267
0
LINE
8
DEFAULT_255_1_388
10
4.1723868
20
77.2622267
11
4.1723868
21
76.2312596
0
LINE
8
DEFAULT_255_1_388
10
4.1723868
20
76.2312596
11
4.3549068
21
76.2312596
0
LINE
8
DEFAULT_255_1_388
10
4.7786785
20
76.7110523
11
4.7786785
21
76.7878553
0
ARC
8
DEFAULT_255_1_388
10
4.3746469
20
76.7451436
40
0.6598608
50
75.4100343
51
90.3802731
0
ARC
8
DEFAULT_255_1_388
10
4.4004714
20
76.8527691
40
0.5492049
50
60.1455157
51
75.1889627
0
ARC
8
DEFAULT_255_1_388
10
4.4183306
20
76.8838914
40
0.5133226
50
26.525419
51
60.1451222
0
ARC
8
DEFAULT_255_1_388
10
4.2923092
20
76.8170642
40
0.6559324
50
7.4029944
51
26.832209
0
ARC
8
DEFAULT_255_1_388
10
4.1129489
20
76.7891229
40
0.8374103
50
0.1605597
51
7.7176135
0
ARC
8
DEFAULT_255_1_388
10
4.1313889
20
76.7031321
40
0.8189782
50
348.7289744
51
0.30125
0
ARC
8
DEFAULT_255_1_388
10
4.3177353
20
76.6661156
40
0.628991
50
333.0706936
51
348.7181455
0
ARC
8
DEFAULT_255_1_388
10
4.4264981
20
76.6070449
40
0.5052808
50
299.2531435
51
333.4571133
0
ARC
8
DEFAULT_255_1_388
10
4.3859012
20
76.6841629
40
0.5924066
50
278.1072193
51
299.0340218
0
ARC
8
DEFAULT_255_1_388
10
4.3571061
20
76.8537979
40
0.7644209
50
270.4446841
51
278.4508355
0
ARC
8
DEFAULT_255_1_388
10
4.3594545
20
76.74923
40
0.5179903
50
269.4969684
51
284.0204874
0
ARC
8
DEFAULT_255_1_388
10
4.3994263
20
76.5956415
40
0.3592968
50
283.7699076
51
318.1557121
0
ARC
8
DEFAULT_255_1_388
10
4.3614808
20
76.6240399
40
0.4065308
50
318.7417595
51
343.687252
0
ARC
8
DEFAULT_255_1_388
10
4.1585387
20
76.6874275
40
0.6191194
50
343.3324891
51
355.8548594
0
ARC
8
DEFAULT_255_1_388
10
3.9224424
20
76.7098719
40
0.856237
50
355.4988754
51
0.0789913
0
ARC
8
DEFAULT_255_1_388
10
4.0105224
20
76.792608
40
0.7681709
50
359.6455047
51
9.8607559
0
ARC
8
DEFAULT_255_1_388
10
4.2760947
20
76.8405664
40
0.498312
50
9.6573037
51
26.1931522
0
ARC
8
DEFAULT_255_1_388
10
4.3805022
20
76.8890587
40
0.3832303
50
26.5777895
51
40.1533752
0
ARC
8
DEFAULT_255_1_388
10
4.4092687
20
76.911502
40
0.3467742
50
40.3839958
51
80.1430923
0
ARC
8
DEFAULT_255_1_388
10
4.3724942
20
76.7484486
40
0.5137832
50
79.2153636
51
89.7445174
0
LINE
8
DEFAULT_255_1_388
10
5.3985237
20
77.4049898
11
5.3985237
21
76.0894
0
LINE
8
DEFAULT_255_1_388
10
5.3985237
20
76.0894
11
5.2250394
21
76.0894
0
LINE
8
DEFAULT_255_1_388
10
5.2250394
20
76.0894
11
5.2250394
21
77.4049898
0
LINE
8
DEFAULT_255_1_388
10
5.2250394
20
77.4049898
11
5.3985237
21
77.4049898
0
LINE
8
DEFAULT_255_1_388
10
6.5216543
20
77.4049898
11
6.5216543
21
77.3110191
0
LINE
8
DEFAULT_255_1_388
10
6.5216543
20
77.3110191
11
5.976805
21
76.0894
0
LINE
8
DEFAULT_255_1_388
10
5.976805
20
76.0894
11
5.8015135
21
76.0894
0
LINE
8
DEFAULT_255_1_388
10
5.8015135
20
76.0894
11
6.3445557
21
77.267648
0
LINE
8
DEFAULT_255_1_388
10
6.3445557
20
77.267648
11
5.6325469
21
77.267648
0
LINE
8
DEFAULT_255_1_388
10
5.6325469
20
77.267648
11
5.6325469
21
77.4049898
0
LINE
8
DEFAULT_255_1_388
10
5.6325469
20
77.4049898
11
6.5216543
21
77.4049898
0
LINE
8
DEFAULT_255_1_388
10
4.3630389
20
84.0269
11
3.9989024
21
84.0269
0
LINE
8
DEFAULT_255_1_388
10
3.9989024
20
84.0269
11
3.9989024
21
85.3424898
0
LINE
8
DEFAULT_255_1_388
10
3.9989024
20
85.3424898
11
4.3702674
21
85.3424898
0
LINE
8
DEFAULT_255_1_388
10
4.9503558
20
84.7289696
11
4.9503558
21
84.6449381
0
LINE
8
DEFAULT_255_1_388
10
4.3747852
20
85.1997267
11
4.1723868
21
85.1997267
0
LINE
8
DEFAULT_255_1_388
10
4.1723868
20
85.1997267
11
4.1723868
21
84.1687596
0
LINE
8
DEFAULT_255_1_388
10
4.1723868
20
84.1687596
11
4.3549068
21
84.1687596
0
LINE
8
DEFAULT_255_1_388
10
4.7786785
20
84.6485523
11
4.7786785
21
84.7253553
0
ARC
8
DEFAULT_255_1_388
10
4.3746469
20
84.6826436
40
0.6598608
50
75.4100343
51
90.3802731
0
ARC
8
DEFAULT_255_1_388
10
4.4004714
20
84.7902691
40
0.5492049
50
60.1455157
51
75.1889627
0
ARC
8
DEFAULT_255_1_388
10
4.4183306
20
84.8213914
40
0.5133226
50
26.525419
51
60.1451222
0
ARC
8
DEFAULT_255_1_388
10
4.2923092
20
84.7545642
40
0.6559324
50
7.4029944
51
26.832209
0
ARC
8
DEFAULT_255_1_388
10
4.1129489
20
84.7266229
40
0.8374103
50
0.1605597
51
7.7176135
0
ARC
8
DEFAULT_255_1_388
10
4.1313889
20
84.6406321
40
0.8189782
50
348.7289744
51
0.30125
0
ARC
8
DEFAULT_255_1_388
10
4.3177353
20
84.6036156
40
0.628991
50
333.0706936
51
348.7181455
0
ARC
8
DEFAULT_255_1_388
10
4.4264981
20
84.5445449
40
0.5052808
50
299.2531435
51
333.4571133
0
ARC
8
DEFAULT_255_1_388
10
4.3859012
20
84.6216629
40
0.5924066
50
278.1072193
51
299.0340218
0
ARC
8
DEFAULT_255_1_388
10
4.3571061
20
84.7912979
40
0.7644209
50
270.4446841
51
278.4508355
0
ARC
8
DEFAULT_255_1_388
10
4.3594545
20
84.68673
40
0.5179903
50
269.4969684
51
284.0204874
0
ARC
8
DEFAULT_255_1_388
10
4.3994263
20
84.5331415
40
0.3592968
50
283.7699076
51
318.1557121
0
ARC
8
DEFAULT_255_1_388
10
4.3614808
20
84.5615399
40
0.4065308
50
318.7417595
51
343.687252
0
ARC
8
DEFAULT_255_1_388
10
4.1585387
20
84.6249275
40
0.6191194
50
343.3324891
51
355.8548594
0
ARC
8
DEFAULT_255_1_388
10
3.9224424
20
84.6473719
40
0.856237
50
355.4988754
51
0.0789913
0
ARC
8
DEFAULT_255_1_388
10
4.0105224
20
84.730108
40
0.7681709
50
359.6455047
51
9.8607559
0
ARC
8
DEFAULT_255_1_388
10
4.2760947
20
84.7780664
40
0.498312
50
9.6573037
51
26.1931522
0
ARC
8
DEFAULT_255_1_388
10
4.3805022
20
84.8265587
40
0.3832303
50
26.5777895
51
40.1533752
0
ARC
8
DEFAULT_255_1_388
10
4.4092687
20
84.849002
40
0.3467742
50
40.3839958
51
80.1430923
0
ARC
8
DEFAULT_255_1_388
10
4.3724942
20
84.6859486
40
0.5137832
50
79.2153636
51
89.7445174
0
LINE
8
DEFAULT_255_1_388
10
5.3985237
20
85.3424898
11
5.3985237
21
84.0269
0
LINE
8
DEFAULT_255_1_388
10
5.3985237
20
84.0269
11
5.2250394
21
84.0269
0
LINE
8
DEFAULT_255_1_388
10
5.2250394
20
84.0269
11
5.2250394
21
85.3424898
0
LINE
8
DEFAULT_255_1_388
10
5.2250394
20
85.3424898
11
5.3985237
21
85.3424898
0
LINE
8
DEFAULT_255_1_388
10
6.2984739
20
85.3433934
11
6.3282916
21
85.3433934
0
LINE
8
DEFAULT_255_1_388
10
6.3282916
20
85.3433934
11
6.3282916
21
85.2015338
0
LINE
8
DEFAULT_255_1_388
10
6.3282916
20
85.2015338
11
6.2975704
21
85.2015338
0
LINE
8
DEFAULT_255_1_388
10
5.682243
20
84.5274747
11
5.682243
21
84.5916278
0
LINE
8
DEFAULT_255_1_388
10
5.850306
20
84.5699422
11
5.850306
21
84.5084999
0
ARC
8
DEFAULT_255_1_388
10
6.3034595
20
84.6392826
40
0.562282
50
90.6001079
51
104.5146616
0
ARC
8
DEFAULT_255_1_388
10
6.2597555
20
84.80181
40
0.3939917
50
104.2855758
51
133.8630124
0
ARC
8
DEFAULT_255_1_388
10
6.2781807
20
84.7896243
40
0.4155734
50
134.5304124
51
161.6210222
0
ARC
8
DEFAULT_255_1_388
10
6.464174
20
84.7240421
40
0.6127682
50
161.2850533
51
174.2074364
0
ARC
8
DEFAULT_255_1_388
10
6.6231306
20
84.7021437
40
0.7731446
50
173.7817938
51
174.9251711
0
ARC
8
DEFAULT_255_1_388
10
6.11055
20
84.546627
40
0.3412588
50
95.8332067
51
138.995412
0
ARC
8
DEFAULT_255_1_388
10
6.135678
20
84.4027695
40
0.4870358
50
89.8755506
51
97.0540979
0
ARC
8
DEFAULT_255_1_388
10
6.1410169
20
84.4967841
40
0.3930432
50
71.6407016
51
90.6240821
0
ARC
8
DEFAULT_255_1_388
10
6.1579563
20
84.5591433
40
0.3285421
50
39.6368051
51
71.0190743
0
ARC
8
DEFAULT_255_1_388
10
6.086347
20
84.4972586
40
0.4231706
50
10.6588054
51
39.9044509
0
ARC
8
DEFAULT_255_1_388
10
5.9122016
20
84.4594223
40
0.60133
50
359.6827842
51
11.1326896
0
ARC
8
DEFAULT_255_1_388
10
5.9077352
20
84.4514715
40
0.6058047
50
347.2485908
51
0.4371098
0
ARC
8
DEFAULT_255_1_388
10
6.0953137
20
84.4063379
40
0.4128987
50
318.1408565
51
347.6118497
0
ARC
8
DEFAULT_255_1_388
10
6.1318734
20
84.3762903
40
0.3656244
50
275.6342406
51
317.824739
0
ARC
8
DEFAULT_255_1_388
10
6.1070255
20
84.5224827
40
0.513655
50
269.8872513
51
276.7916069
0
ARC
8
DEFAULT_255_1_388
10
6.1008448
20
84.4071181
40
0.398323
50
246.9139443
51
270.7436787
0
ARC
8
DEFAULT_255_1_388
10
6.1015643
20
84.3911044
40
0.3839368
50
218.1665534
51
245.8780431
0
ARC
8
DEFAULT_255_1_388
10
6.2005016
20
84.4738903
40
0.5128958
50
191.4115343
51
218.6077624
0
ARC
8
DEFAULT_255_1_388
10
6.4185332
20
84.5227777
40
0.7363054
50
179.6344971
51
191.7836758
0
ARC
8
DEFAULT_255_1_388
10
7.0465206
20
84.5991495
40
1.3642984
50
171.4523743
51
180.3158856
0
ARC
8
DEFAULT_255_1_388
10
6.5520933
20
84.6760895
40
0.8639311
50
157.9802296
51
171.6246761
0
ARC
8
DEFAULT_255_1_388
10
6.3030284
20
84.7754038
40
0.5958004
50
141.4299236
51
157.8541251
0
ARC
8
DEFAULT_255_1_388
10
6.2308367
20
84.8264746
40
0.5075416
50
102.871586
51
140.8564533
0
ARC
8
DEFAULT_255_1_388
10
6.303692
20
84.5519943
40
0.7914163
50
90.377773
51
103.5868422
0
ARC
8
DEFAULT_255_1_388
10
6.1081441
20
84.4839543
40
0.2667015
50
89.8751238
51
126.2072139
0
ARC
8
DEFAULT_255_1_388
10
6.1132912
20
84.4665847
40
0.2838229
50
124.9742447
51
144.8960197
0
ARC
8
DEFAULT_255_1_388
10
6.0935157
20
84.4826981
40
0.2583845
50
145.2974778
51
160.2660922
0
ARC
8
DEFAULT_255_1_388
10
6.4391646
20
84.5049151
40
0.5888695
50
179.6512124
51
190.285571
0
ARC
8
DEFAULT_255_1_388
10
6.2486125
20
84.4689968
40
0.3949683
50
190.0944895
51
207.5099647
0
ARC
8
DEFAULT_255_1_388
10
6.1849707
20
84.4387177
40
0.3245464
50
207.9585471
51
216.325377
0
ARC
8
DEFAULT_255_1_388
10
6.1467344
20
84.4072712
40
0.2751259
50
215.7661336
51
232.5457193
0
ARC
8
DEFAULT_255_1_388
10
6.103646
20
84.3525273
40
0.2054668
50
232.8005815
51
270.6605497
0
ARC
8
DEFAULT_255_1_388
10
6.1087884
20
84.3934853
40
0.2464268
50
269.3550767
51
288.474612
0
ARC
8
DEFAULT_255_1_388
10
6.1192391
20
84.3541721
40
0.2058436
50
289.1831976
51
322.9685307
0
ARC
8
DEFAULT_255_1_388
10
6.0504493
20
84.4084279
40
0.2934408
50
322.6007085
51
346.5183319
0
ARC
8
DEFAULT_255_1_388
10
5.9202249
20
84.4416434
40
0.4278249
50
346.2584622
51
358.7739592
0
ARC
8
DEFAULT_255_1_388
10
5.8050824
20
84.4478829
40
0.5430876
50
358.3757628
51
0.0082477
0
ARC
8
DEFAULT_255_1_388
10
5.8907643
20
84.4509856
40
0.4574157
50
359.6211417
51
11.28403
0
ARC
8
DEFAULT_255_1_388
10
6.0344249
20
84.4809535
40
0.3106708
50
11.0483152
51
31.8145585
0
ARC
8
DEFAULT_255_1_388
10
6.0691954
20
84.4998045
40
0.2711963
50
32.3028554
51
38.0820598
0
ARC
8
DEFAULT_255_1_388
10
6.1165187
20
84.5426717
40
0.2075566
50
36.8249851
51
85.741667
0
ARC
8
DEFAULT_255_1_388
10
6.10896
20
84.4863065
40
0.2643487
50
85.0150021
51
90.050843
0
LINE
8
DEFAULT_255_1_388
10
4.3630389
20
91.9644
11
3.9989024
21
91.9644
0
LINE
8
DEFAULT_255_1_388
10
3.9989024
20
91.9644
11
3.9989024
21
93.2799898
0
LINE
8
DEFAULT_255_1_388
10
3.9989024
20
93.2799898
11
4.3702674
21
93.2799898
0
LINE
8
DEFAULT_255_1_388
10
4.9503558
20
92.6664696
11
4.9503558
21
92.5824381
0
LINE
8
DEFAULT_255_1_388
10
4.3747852
20
93.1372267
11
4.1723868
21
93.1372267
0
LINE
8
DEFAULT_255_1_388
10
4.1723868
20
93.1372267
11
4.1723868
21
92.1062596
0
LINE
8
DEFAULT_255_1_388
10
4.1723868
20
92.1062596
11
4.3549068
21
92.1062596
0
LINE
8
DEFAULT_255_1_388
10
4.7786785
20
92.5860523
11
4.7786785
21
92.6628553
0
ARC
8
DEFAULT_255_1_388
10
4.3746469
20
92.6201436
40
0.6598608
50
75.4100343
51
90.3802731
0
ARC
8
DEFAULT_255_1_388
10
4.4004714
20
92.7277691
40
0.5492049
50
60.1455157
51
75.1889627
0
ARC
8
DEFAULT_255_1_388
10
4.4183306
20
92.7588914
40
0.5133226
50
26.525419
51
60.1451222
0
ARC
8
DEFAULT_255_1_388
10
4.2923092
20
92.6920642
40
0.6559324
50
7.4029944
51
26.832209
0
ARC
8
DEFAULT_255_1_388
10
4.1129489
20
92.6641229
40
0.8374103
50
0.1605597
51
7.7176135
0
ARC
8
DEFAULT_255_1_388
10
4.1313889
20
92.5781321
40
0.8189782
50
348.7289744
51
0.30125
0
ARC
8
DEFAULT_255_1_388
10
4.3177353
20
92.5411156
40
0.628991
50
333.0706936
51
348.7181455
0
ARC
8
DEFAULT_255_1_388
10
4.4264981
20
92.4820449
40
0.5052808
50
299.2531435
51
333.4571133
0
ARC
8
DEFAULT_255_1_388
10
4.3859012
20
92.5591629
40
0.5924066
50
278.1072193
51
299.0340218
0
ARC
8
DEFAULT_255_1_388
10
4.3571061
20
92.7287979
40
0.7644209
50
270.4446841
51
278.4508355
0
ARC
8
DEFAULT_255_1_388
10
4.3594545
20
92.62423
40
0.5179903
50
269.4969684
51
284.0204874
0
ARC
8
DEFAULT_255_1_388
10
4.3994263
20
92.4706415
40
0.3592968
50
283.7699076
51
318.1557121
0
ARC
8
DEFAULT_255_1_388
10
4.3614808
20
92.4990399
40
0.4065308
50
318.7417595
51
343.687252
0
ARC
8
DEFAULT_255_1_388
10
4.1585387
20
92.5624275
40
0.6191194
50
343.3324891
51
355.8548594
0
ARC
8
DEFAULT_255_1_388
10
3.9224424
20
92.5848719
40
0.856237
50
355.4988754
51
0.0789913
0
ARC
8
DEFAULT_255_1_388
10
4.0105224
20
92.667608
40
0.7681709
50
359.6455047
51
9.8607559
0
ARC
8
DEFAULT_255_1_388
10
4.2760947
20
92.7155664
40
0.498312
50
9.6573037
51
26.1931522
0
ARC
8
DEFAULT_255_1_388
10
4.3805022
20
92.7640587
40
0.3832303
50
26.5777895
51
40.1533752
0
ARC
8
DEFAULT_255_1_388
10
4.4092687
20
92.786502
40
0.3467742
50
40.3839958
51
80.1430923
0
ARC
8
DEFAULT_255_1_388
10
4.3724942
20
92.6234486
40
0.5137832
50
79.2153636
51
89.7445174
0
LINE
8
DEFAULT_255_1_388
10
5.3985237
20
93.2799898
11
5.3985237
21
91.9644
0
LINE
8
DEFAULT_255_1_388
10
5.3985237
20
91.9644
11
5.2250394
21
91.9644
0
LINE
8
DEFAULT_255_1_388
10
5.2250394
20
91.9644
11
5.2250394
21
93.2799898
0
LINE
8
DEFAULT_255_1_388
10
5.2250394
20
93.2799898
11
5.3985237
21
93.2799898
0
LINE
8
DEFAULT_255_1_388
10
5.8828343
20
92.5896666
11
5.7491067
21
92.6240021
0
LINE
8
DEFAULT_255_1_388
10
5.7491067
20
92.6240021
11
5.8159705
21
93.2799898
0
LINE
8
DEFAULT_255_1_388
10
5.8159705
20
93.2799898
11
6.4900296
21
93.2799898
0
LINE
8
DEFAULT_255_1_388
10
6.4900296
20
93.2799898
11
6.4900296
21
93.1254803
0
LINE
8
DEFAULT_255_1_388
10
6.4900296
20
93.1254803
11
5.9578301
21
93.1254803
0
LINE
8
DEFAULT_255_1_388
10
5.9578301
20
93.1254803
11
5.9180733
21
92.7667652
0
LINE
8
DEFAULT_255_1_388
10
5.7021214
20
92.3104652
11
5.8602452
21
92.3104652
0
LINE
8
DEFAULT_255_1_388
10
5.9271089
20
92.6258092
11
5.8828343
21
92.5896666
0
ARC
8
DEFAULT_255_1_388
10
6.1267346
20
92.4090241
40
0.4141476
50
93.7181681
51
120.253934
0
ARC
8
DEFAULT_255_1_388
10
6.1373399
20
92.3181284
40
0.5055616
50
89.9660471
51
94.2495185
0
ARC
8
DEFAULT_255_1_388
10
6.1419221
20
92.3844154
40
0.4392953
50
73.8045384
51
90.5585736
0
ARC
8
DEFAULT_255_1_388
10
6.1683478
20
92.480952
40
0.3392225
50
41.3071072
51
73.543002
0
ARC
8
DEFAULT_255_1_388
10
6.1215298
20
92.4406461
40
0.4009977
50
13.5075837
51
41.2174839
0
ARC
8
DEFAULT_255_1_388
10
5.9368396
20
92.3922907
40
0.5918864
50
1.1330171
51
13.8830737
0
ARC
8
DEFAULT_255_1_388
10
5.7772041
20
92.3837522
40
0.7516787
50
359.9925091
51
1.5431298
0
ARC
8
DEFAULT_255_1_388
10
5.9216656
20
92.3791027
40
0.6072343
50
347.8572712
51
0.4294349
0
ARC
8
DEFAULT_255_1_388
10
6.1185791
20
92.3344898
40
0.4053482
50
323.6727442
51
348.1674594
0
ARC
8
DEFAULT_255_1_388
10
6.1516756
20
92.3143175
40
0.3667495
50
316.8171818
51
323.1486802
0
ARC
8
DEFAULT_255_1_388
10
6.1585879
20
92.3101612
40
0.358869
50
281.839603
51
316.5458142
0
ARC
8
DEFAULT_255_1_388
10
6.1163167
20
92.4851363
40
0.5388223
50
269.5770964
51
282.4214641
0
ARC
8
DEFAULT_255_1_388
10
6.1083088
20
92.461093
40
0.5147801
50
256.2425863
51
270.4486481
0
ARC
8
DEFAULT_255_1_388
10
6.0746615
20
92.3261124
40
0.3756708
50
228.9024379
51
256.33135
0
ARC
8
DEFAULT_255_1_388
10
6.0663596
20
92.3130054
40
0.360344
50
193.7536029
51
228.5272638
0
ARC
8
DEFAULT_255_1_388
10
6.2056161
20
92.3538463
40
0.5053599
50
184.9244437
51
194.4976052
0
ARC
8
DEFAULT_255_1_388
10
6.2272802
20
92.3578722
40
0.3700839
50
187.3596909
51
198.6733728
0
ARC
8
DEFAULT_255_1_388
10
6.1092045
20
92.3169373
40
0.2451195
50
198.4453795
51
217.7945479
0
ARC
8
DEFAULT_255_1_388
10
6.0759218
20
92.2933563
40
0.2043754
50
218.2887146
51
228.5613203
0
ARC
8
DEFAULT_255_1_388
10
6.0869225
20
92.3081902
40
0.2227819
50
228.9652423
51
258.1237049
0
ARC
8
DEFAULT_255_1_388
10
6.1100662
20
92.4072964
40
0.3245374
50
257.7260585
51
270.4013717
0
ARC
8
DEFAULT_255_1_388
10
6.115116
20
92.3572255
40
0.2744726
50
269.4204315
51
286.420998
0
ARC
8
DEFAULT_255_1_388
10
6.1318216
20
92.2965705
40
0.2115721
50
286.7250065
51
320.6004665
0
ARC
8
DEFAULT_255_1_388
10
6.0887131
20
92.3315527
40
0.2670878
50
320.6712228
51
344.5440474
0
ARC
8
DEFAULT_255_1_388
10
5.9585845
20
92.3697394
40
0.4026927
50
344.241448
51
356.735803
0
ARC
8
DEFAULT_255_1_388
10
5.8182152
20
92.3813656
40
0.5435085
50
356.3547471
51
0.0507222
0
ARC
8
DEFAULT_255_1_388
10
5.9684417
20
92.3848812
40
0.3932934
50
359.5579289
51
12.9534322
0
ARC
8
DEFAULT_255_1_388
10
6.0871257
20
92.4136586
40
0.2711827
50
12.6489751
51
41.608121
0
ARC
8
DEFAULT_255_1_388
10
6.1130417
20
92.4356946
40
0.2371737
50
41.7851122
51
85.9892156
0
ARC
8
DEFAULT_255_1_388
10
6.0991727
20
92.3441738
40
0.3295244
50
84.6965848
51
90.0672125
0
ARC
8
DEFAULT_255_1_388
10
6.0965295
20
92.2690118
40
0.4046926
50
89.6804991
51
99.161352
0
ARC
8
DEFAULT_255_1_388
10
6.0734304
20
92.4070848
40
0.2647044
50
98.9836248
51
113.8905702
0
ARC
8
DEFAULT_255_1_388
10
6.0475979
20
92.4680118
40
0.1985386
50
114.195234
51
127.3641866
0
LINE
8
DEFAULT_255_1_388
10
4.4953389
20
99.9019
11
4.1312024
21
99.9019
0
LINE
8
DEFAULT_255_1_388
10
4.1312024
20
99.9019
11
4.1312024
21
101.2174898
0
LINE
8
DEFAULT_255_1_388
10
4.1312024
20
101.2174898
11
4.5025674
21
101.2174898
0
LINE
8
DEFAULT_255_1_388
10
5.0826558
20
100.6039696
11
5.0826558
21
100.5199381
0
LINE
8
DEFAULT_255_1_388
10
4.5070852
20
101.0747267
11
4.3046868
21
101.0747267
0
LINE
8
DEFAULT_255_1_388
10
4.3046868
20
101.0747267
11
4.3046868
21
100.0437596
0
LINE
8
DEFAULT_255_1_388
10
4.3046868
20
100.0437596
11
4.4872068
21
100.0437596
0
LINE
8
DEFAULT_255_1_388
10
4.9109785
20
100.5235523
11
4.9109785
21
100.6003553
0
ARC
8
DEFAULT_255_1_388
10
4.5069469
20
100.5576436
40
0.6598608
50
75.4100343
51
90.3802731
0
ARC
8
DEFAULT_255_1_388
10
4.5327714
20
100.6652691
40
0.5492049
50
60.1455157
51
75.1889627
0
ARC
8
DEFAULT_255_1_388
10
4.5506306
20
100.6963914
40
0.5133226
50
26.525419
51
60.1451222
0
ARC
8
DEFAULT_255_1_388
10
4.4246092
20
100.6295642
40
0.6559324
50
7.4029944
51
26.832209
0
ARC
8
DEFAULT_255_1_388
10
4.2452489
20
100.6016229
40
0.8374103
50
0.1605597
51
7.7176135
0
ARC
8
DEFAULT_255_1_388
10
4.2636889
20
100.5156321
40
0.8189782
50
348.7289744
51
0.30125
0
ARC
8
DEFAULT_255_1_388
10
4.4500353
20
100.4786156
40
0.628991
50
333.0706936
51
348.7181455
0
ARC
8
DEFAULT_255_1_388
10
4.5587981
20
100.4195449
40
0.5052808
50
299.2531435
51
333.4571133
0
ARC
8
DEFAULT_255_1_388
10
4.5182012
20
100.4966629
40
0.5924066
50
278.1072193
51
299.0340218
0
ARC
8
DEFAULT_255_1_388
10
4.4894061
20
100.6662979
40
0.7644209
50
270.4446841
51
278.4508355
0
ARC
8
DEFAULT_255_1_388
10
4.4917545
20
100.56173
40
0.5179903
50
269.4969684
51
284.0204874
0
ARC
8
DEFAULT_255_1_388
10
4.5317263
20
100.4081415
40
0.3592968
50
283.7699076
51
318.1557121
0
ARC
8
DEFAULT_255_1_388
10
4.4937808
20
100.4365399
40
0.4065308
50
318.7417595
51
343.687252
0
ARC
8
DEFAULT_255_1_388
10
4.2908387
20
100.4999275
40
0.6191194
50
343.3324891
51
355.8548594
0
ARC
8
DEFAULT_255_1_388
10
4.0547424
20
100.5223719
40
0.856237
50
355.4988754
51
0.0789913
0
ARC
8
DEFAULT_255_1_388
10
4.1428224
20
100.605108
40
0.7681709
50
359.6455047
51
9.8607559
0
ARC
8
DEFAULT_255_1_388
10
4.4083947
20
100.6530664
40
0.498312
50
9.6573037
51
26.1931522
0
ARC
8
DEFAULT_255_1_388
10
4.5128022
20
100.7015587
40
0.3832303
50
26.5777895
51
40.1533752
0
ARC
8
DEFAULT_255_1_388
10
4.5415687
20
100.724002
40
0.3467742
50
40.3839958
51
80.1430923
0
ARC
8
DEFAULT_255_1_388
10
4.5047942
20
100.5609486
40
0.5137832
50
79.2153636
51
89.7445174
0
LINE
8
DEFAULT_255_1_388
10
5.5308237
20
101.2174898
11
5.5308237
21
99.9019
0
LINE
8
DEFAULT_255_1_388
10
5.5308237
20
99.9019
11
5.3573394
21
99.9019
0
LINE
8
DEFAULT_255_1_388
10
5.3573394
20
99.9019
11
5.3573394
21
101.2174898
0
LINE
8
DEFAULT_255_1_388
10
5.3573394
20
101.2174898
11
5.5308237
21
101.2174898
0
LINE
8
DEFAULT_255_1_388
10
6.5102876
20
101.2174898
11
6.5102876
21
100.343743
0
LINE
8
DEFAULT_255_1_388
10
6.5102876
20
100.343743
11
6.6928076
21
100.343743
0
LINE
8
DEFAULT_255_1_388
10
6.6928076
20
100.343743
11
6.6928076
21
100.2073048
0
LINE
8
DEFAULT_255_1_388
10
6.6928076
20
100.2073048
11
6.5102876
21
100.2073048
0
LINE
8
DEFAULT_255_1_388
10
6.5102876
20
100.2073048
11
6.5102876
21
99.9019
0
LINE
8
DEFAULT_255_1_388
10
6.5102876
20
99.9019
11
6.3422246
21
99.9019
0
LINE
8
DEFAULT_255_1_388
10
6.3422246
20
99.9019
11
6.3422246
21
100.2073048
0
LINE
8
DEFAULT_255_1_388
10
6.3422246
20
100.2073048
11
5.7431614
21
100.2073048
0
LINE
8
DEFAULT_255_1_388
10
5.7431614
20
100.2073048
11
5.7431614
21
100.3057933
0
LINE
8
DEFAULT_255_1_388
10
5.7431614
20
100.3057933
11
6.3322854
21
101.2174898
0
LINE
8
DEFAULT_255_1_388
10
6.3322854
20
101.2174898
11
6.5102876
21
101.2174898
0
LINE
8
DEFAULT_255_1_388
10
6.3223462
20
100.9527455
11
5.9329099
21
100.343743
0
LINE
8
DEFAULT_255_1_388
10
5.9329099
20
100.343743
11
6.3422246
21
100.343743
0
LINE
8
DEFAULT_255_1_388
10
6.3422246
20
100.343743
11
6.3422246
21
100.988888
0
LINE
8
DEFAULT_255_1_388
10
6.3422246
20
100.988888
11
6.3223462
21
100.9527455
0
LINE
8
DEFAULT_255_1_388
10
4.3630389
20
107.8394
11
3.9989024
21
107.8394
0
LINE
8
DEFAULT_255_1_388
10
3.9989024
20
107.8394
11
3.9989024
21
109.1549898
0
LINE
8
DEFAULT_255_1_388
10
3.9989024
20
109.1549898
11
4.3702674
21
109.1549898
0
LINE
8
DEFAULT_255_1_388
10
4.9503558
20
108.5414696
11
4.9503558
21
108.4574381
0
LINE
8
DEFAULT_255_1_388
10
4.3747852
20
109.0122267
11
4.1723868
21
109.0122267
0
LINE
8
DEFAULT_255_1_388
10
4.1723868
20
109.0122267
11
4.1723868
21
107.9812596
0
LINE
8
DEFAULT_255_1_388
10
4.1723868
20
107.9812596
11
4.3549068
21
107.9812596
0
LINE
8
DEFAULT_255_1_388
10
4.7786785
20
108.4610523
11
4.7786785
21
108.5378553
0
ARC
8
DEFAULT_255_1_388
10
4.3746469
20
108.4951436
40
0.6598608
50
75.4100343
51
90.3802731
0
ARC
8
DEFAULT_255_1_388
10
4.4004714
20
108.6027691
40
0.5492049
50
60.1455157
51
75.1889627
0
ARC
8
DEFAULT_255_1_388
10
4.4183306
20
108.6338914
40
0.5133226
50
26.525419
51
60.1451222
0
ARC
8
DEFAULT_255_1_388
10
4.2923092
20
108.5670642
40
0.6559324
50
7.4029944
51
26.832209
0
ARC
8
DEFAULT_255_1_388
10
4.1129489
20
108.5391229
40
0.8374103
50
0.1605597
51
7.7176135
0
ARC
8
DEFAULT_255_1_388
10
4.1313889
20
108.4531321
40
0.8189782
50
348.7289744
51
0.30125
0
ARC
8
DEFAULT_255_1_388
10
4.3177353
20
108.4161156
40
0.628991
50
333.0706936
51
348.7181455
0
ARC
8
DEFAULT_255_1_388
10
4.4264981
20
108.3570449
40
0.5052808
50
299.2531435
51
333.4571133
0
ARC
8
DEFAULT_255_1_388
10
4.3859012
20
108.4341629
40
0.5924066
50
278.1072193
51
299.0340218
0
ARC
8
DEFAULT_255_1_388
10
4.3571061
20
108.6037979
40
0.7644209
50
270.4446841
51
278.4508355
0
ARC
8
DEFAULT_255_1_388
10
4.3594545
20
108.49923
40
0.5179903
50
269.4969684
51
284.0204874
0
ARC
8
DEFAULT_255_1_388
10
4.3994263
20
108.3456415
40
0.3592968
50
283.7699076
51
318.1557121
0
ARC
8
DEFAULT_255_1_388
10
4.3614808
20
108.3740399
40
0.4065308
50
318.7417595
51
343.687252
0
ARC
8
DEFAULT_255_1_388
10
4.1585387
20
108.4374275
40
0.6191194
50
343.3324891
51
355.8548594
0
ARC
8
DEFAULT_255_1_388
10
3.9224424
20
108.4598719
40
0.856237
50
355.4988754
51
0.0789913
0
ARC
8
DEFAULT_255_1_388
10
4.0105224
20
108.542608
40
0.7681709
50
359.6455047
51
9.8607559
0
ARC
8
DEFAULT_255_1_388
10
4.2760947
20
108.5905664
40
0.498312
50
9.6573037
51
26.1931522
0
ARC
8
DEFAULT_255_1_388
10
4.3805022
20
108.6390587
40
0.3832303
50
26.5777895
51
40.1533752
0
ARC
8
DEFAULT_255_1_388
10
4.4092687
20
108.661502
40
0.3467742
50
40.3839958
51
80.1430923
0
ARC
8
DEFAULT_255_1_388
10
4.3724942
20
108.4984486
40
0.5137832
50
79.2153636
51
89.7445174
0
LINE
8
DEFAULT_255_1_388
10
5.3985237
20
109.1549898
11
5.3985237
21
107.8394
0
LINE
8
DEFAULT_255_1_388
10
5.3985237
20
107.8394
11
5.2250394
21
107.8394
0
LINE
8
DEFAULT_255_1_388
10
5.2250394
20
107.8394
11
5.2250394
21
109.1549898
0
LINE
8
DEFAULT_255_1_388
10
5.2250394
20
109.1549898
11
5.3985237
21
109.1549898
0
LINE
8
DEFAULT_255_1_388
10
5.9153626
20
108.4420775
11
5.9153626
21
108.5785157
0
LINE
8
DEFAULT_255_1_388
10
5.9153626
20
108.5785157
11
6.0409581
21
108.5785157
0
LINE
8
DEFAULT_255_1_388
10
5.8268133
20
108.8098282
11
5.6596539
21
108.8098282
0
LINE
8
DEFAULT_255_1_388
10
5.6479075
20
108.1863688
11
5.8159705
21
108.1863688
0
LINE
8
DEFAULT_255_1_388
10
6.0409581
20
108.4420775
11
5.9153626
21
108.4420775
0
ARC
8
DEFAULT_255_1_388
10
6.0376807
20
108.9601922
40
0.3816905
50
270.491971
51
281.8953028
0
ARC
8
DEFAULT_255_1_388
10
6.0648234
20
108.8362199
40
0.2547877
50
281.6690378
51
301.2943765
0
ARC
8
DEFAULT_255_1_388
10
6.0839685
20
108.8011926
40
0.2149197
50
301.7834992
51
311.754567
0
ARC
8
DEFAULT_255_1_388
10
6.0942727
20
108.789765
40
0.1995326
50
311.7325027
51
354.2803031
0
ARC
8
DEFAULT_255_1_388
10
6.0125143
20
108.803828
40
0.2823461
50
353.0941646
51
0.1174696
0
ARC
8
DEFAULT_255_1_388
10
5.9606701
20
108.8091874
40
0.3342238
50
359.1804452
51
15.0452323
0
ARC
8
DEFAULT_255_1_388
10
6.1120759
20
108.8533546
40
0.1765747
50
13.957816
51
77.6713812
0
ARC
8
DEFAULT_255_1_388
10
6.0685995
20
108.6975464
40
0.3381982
50
76.111571
51
90.7028736
0
ARC
8
DEFAULT_255_1_388
10
6.0619407
20
108.728325
40
0.3074046
50
89.5321574
51
103.5319393
0
ARC
8
DEFAULT_255_1_388
10
6.039379
20
108.8182443
40
0.2147041
50
103.2930114
51
133.5619756
0
ARC
8
DEFAULT_255_1_388
10
6.0343732
20
108.8249351
40
0.2064084
50
133.8349761
51
173.5343225
0
ARC
8
DEFAULT_255_1_388
10
6.1157389
20
108.8105144
40
0.2889266
50
172.5097183
51
180.1360699
0
ARC
8
DEFAULT_255_1_388
10
6.0087153
20
108.814388
40
0.3490913
50
155.3483706
51
180.7484035
0
ARC
8
DEFAULT_255_1_388
10
6.0032129
20
108.8111519
40
0.3454798
50
131.5745177
51
154.4799474
0
ARC
8
DEFAULT_255_1_388
10
6.0384412
20
108.7755422
40
0.3955058
50
96.9874487
51
131.9690874
0
ARC
8
DEFAULT_255_1_388
10
6.0631304
20
108.6354407
40
0.537622
50
89.8592909
51
97.7827481
0
ARC
8
DEFAULT_255_1_388
10
6.0685413
20
108.605936
40
0.5671399
50
78.3654493
51
90.4132586
0
ARC
8
DEFAULT_255_1_388
10
6.1088054
20
108.7925918
40
0.3762034
50
56.6229818
51
78.6387103
0
ARC
8
DEFAULT_255_1_388
10
6.1329884
20
108.8348846
40
0.3275964
50
47.0254604
51
56.085558
0
ARC
8
DEFAULT_255_1_388
10
6.1352135
20
108.8393189
40
0.3228382
50
10.9207523
51
46.777927
0
ARC
8
DEFAULT_255_1_388
10
5.9817729
20
108.8038401
40
0.4802559
50
359.6364235
51
11.6087615
0
ARC
8
DEFAULT_255_1_388
10
6.1881894
20
108.8021404
40
0.273833
50
332.3549969
51
359.7179765
0
ARC
8
DEFAULT_255_1_388
10
6.1150295
20
108.8368285
40
0.3547505
50
325.2332381
51
332.8746682
0
ARC
8
DEFAULT_255_1_388
10
6.1321878
20
108.8248763
40
0.3338396
50
292.9803892
51
325.2391113
0
ARC
8
DEFAULT_255_1_388
10
6.1011074
20
108.8853679
40
0.4016959
50
292.542178
51
293.6931461
0
ARC
8
DEFAULT_255_1_388
10
6.1454645
20
108.1588036
40
0.372079
50
57.643292
51
72.8626085
0
ARC
8
DEFAULT_255_1_388
10
6.185348
20
108.2234273
40
0.2961455
50
36.7246661
51
57.4701329
0
ARC
8
DEFAULT_255_1_388
10
6.1840637
20
108.224847
40
0.2963321
50
8.054535
51
36.3561529
0
ARC
8
DEFAULT_255_1_388
10
6.0870309
20
108.2074073
40
0.3948682
50
359.8316595
51
8.5873361
0
ARC
8
DEFAULT_255_1_388
10
6.0447784
20
108.201997
40
0.4371398
50
343.9831631
51
0.557075
0
ARC
8
DEFAULT_255_1_388
10
6.1444833
20
108.1746963
40
0.3337749
50
311.6358204
51
343.7652116
0
ARC
8
DEFAULT_255_1_388
10
6.1019087
20
108.2226955
40
0.3979351
50
279.7829743
51
311.625622
0
ARC
8
DEFAULT_255_1_388
10
6.0680222
20
108.3843642
40
0.5630417
50
269.7285092
51
280.3857694
0
ARC
8
DEFAULT_255_1_388
10
6.0610535
20
108.3797241
40
0.5584119
50
256.6827433
51
270.4412869
0
ARC
8
DEFAULT_255_1_388
10
6.0229522
20
108.2239698
40
0.3980715
50
229.4223821
51
256.8554507
0
ARC
8
DEFAULT_255_1_388
10
5.9763075
20
108.1714683
40
0.3278564
50
181.8183354
51
229.6455015
0
ARC
8
DEFAULT_255_1_388
10
6.0932684
20
108.1861825
40
0.4453611
50
179.9760419
51
183.2330638
0
ARC
8
DEFAULT_255_1_388
10
6.0739237
20
108.1838781
40
0.2579652
50
179.4467996
51
196.2871626
0
ARC
8
DEFAULT_255_1_388
10
6.019069
20
108.1688709
40
0.2011057
50
196.5661293
51
227.7059371
0
ARC
8
DEFAULT_255_1_388
10
6.0375298
20
108.1895155
40
0.2287994
50
227.7653015
51
257.8763321
0
ARC
8
DEFAULT_255_1_388
10
6.0628381
20
108.2955961
40
0.3378385
50
257.4583525
51
270.4267406
0
ARC
8
DEFAULT_255_1_388
10
6.067963
20
108.328223
40
0.3704652
50
269.5965319
51
280.8788143
0
ARC
8
DEFAULT_255_1_388
10
6.0937858
20
108.1992529
40
0.2389415
50
280.6347277
51
299.8594068
0
ARC
8
DEFAULT_255_1_388
10
6.1152628
20
108.1584736
40
0.19289
50
300.3575552
51
314.5515667
0
ARC
8
DEFAULT_255_1_388
10
6.1059304
20
108.1653025
40
0.204312
50
315.0730962
51
345.0429362
0
ARC
8
DEFAULT_255_1_388
10
6.0020811
20
108.1955539
40
0.31246
50
344.598526
51
357.9270698
0
ARC
8
DEFAULT_255_1_388
10
5.9011116
20
108.2024705
40
0.4136265
50
357.4755098
51
0.0224936
0
ARC
8
DEFAULT_255_1_388
10
6.0163994
20
108.2052099
40
0.2983498
50
359.5051035
51
13.4236939
0
ARC
8
DEFAULT_255_1_388
10
6.1139084
20
108.2301637
40
0.1977186
50
12.9497905
51
48.7550905
0
ARC
8
DEFAULT_255_1_388
10
6.0934005
20
108.2021373
40
0.2323321
50
49.509109
51
72.1832965
0
ARC
8
DEFAULT_255_1_388
10
6.0531474
20
108.0826632
40
0.358397
50
71.9008458
51
84.3555134
0
ARC
8
DEFAULT_255_1_388
10
6.0349868
20
107.9294712
40
0.512641
50
84.019632
51
89.3326067
0
LINE
8
DEFAULT_255_1_388
10
4.3630389
20
115.7769
11
3.9989024
21
115.7769
0
LINE
8
DEFAULT_255_1_388
10
3.9989024
20
115.7769
11
3.9989024
21
117.0924898
0
LINE
8
DEFAULT_255_1_388
10
3.9989024
20
117.0924898
11
4.3702674
21
117.0924898
0
LINE
8
DEFAULT_255_1_388
10
4.9503558
20
116.4789696
11
4.9503558
21
116.3949381
0
LINE
8
DEFAULT_255_1_388
10
4.3747852
20
116.9497267
11
4.1723868
21
116.9497267
0
LINE
8
DEFAULT_255_1_388
10
4.1723868
20
116.9497267
11
4.1723868
21
115.9187596
0
LINE
8
DEFAULT_255_1_388
10
4.1723868
20
115.9187596
11
4.3549068
21
115.9187596
0
LINE
8
DEFAULT_255_1_388
10
4.7786785
20
116.3985523
11
4.7786785
21
116.4753553
0
ARC
8
DEFAULT_255_1_388
10
4.3746469
20
116.4326436
40
0.6598608
50
75.4100343
51
90.3802731
0
ARC
8
DEFAULT_255_1_388
10
4.4004714
20
116.5402691
40
0.5492049
50
60.1455157
51
75.1889627
0
ARC
8
DEFAULT_255_1_388
10
4.4183306
20
116.5713914
40
0.5133226
50
26.525419
51
60.1451222
0
ARC
8
DEFAULT_255_1_388
10
4.2923092
20
116.5045642
40
0.6559324
50
7.4029944
51
26.832209
0
ARC
8
DEFAULT_255_1_388
10
4.1129489
20
116.4766229
40
0.8374103
50
0.1605597
51
7.7176135
0
ARC
8
DEFAULT_255_1_388
10
4.1313889
20
116.3906321
40
0.8189782
50
348.7289744
51
0.30125
0
ARC
8
DEFAULT_255_1_388
10
4.3177353
20
116.3536156
40
0.628991
50
333.0706936
51
348.7181455
0
ARC
8
DEFAULT_255_1_388
10
4.4264981
20
116.2945449
40
0.5052808
50
299.2531435
51
333.4571133
0
ARC
8
DEFAULT_255_1_388
10
4.3859012
20
116.3716629
40
0.5924066
50
278.1072193
51
299.0340218
0
ARC
8
DEFAULT_255_1_388
10
4.3571061
20
116.5412979
40
0.7644209
50
270.4446841
51
278.4508355
0
ARC
8
DEFAULT_255_1_388
10
4.3594545
20
116.43673
40
0.5179903
50
269.4969684
51
284.0204874
0
ARC
8
DEFAULT_255_1_388
10
4.3994263
20
116.2831415
40
0.3592968
50
283.7699076
51
318.1557121
0
ARC
8
DEFAULT_255_1_388
10
4.3614808
20
116.3115399
40
0.4065308
50
318.7417595
51
343.687252
0
ARC
8
DEFAULT_255_1_388
10
4.1585387
20
116.3749275
40
0.6191194
50
343.3324891
51
355.8548594
0
ARC
8
DEFAULT_255_1_388
10
3.9224424
20
116.3973719
40
0.856237
50
355.4988754
51
0.0789913
0
ARC
8
DEFAULT_255_1_388
10
4.0105224
20
116.480108
40
0.7681709
50
359.6455047
51
9.8607559
0
ARC
8
DEFAULT_255_1_388
10
4.2760947
20
116.5280664
40
0.498312
50
9.6573037
51
26.1931522
0
ARC
8
DEFAULT_255_1_388
10
4.3805022
20
116.5765587
40
0.3832303
50
26.5777895
51
40.1533752
0
ARC
8
DEFAULT_255_1_388
10
4.4092687
20
116.599002
40
0.3467742
50
40.3839958
51
80.1430923
0
ARC
8
DEFAULT_255_1_388
10
4.3724942
20
116.4359486
40
0.5137832
50
79.2153636
51
89.7445174
0
LINE
8
DEFAULT_255_1_388
10
5.3985237
20
117.0924898
11
5.3985237
21
115.7769
0
LINE
8
DEFAULT_255_1_388
10
5.3985237
20
115.7769
11
5.2250394
21
115.7769
0
LINE
8
DEFAULT_255_1_388
10
5.2250394
20
115.7769
11
5.2250394
21
117.0924898
0
LINE
8
DEFAULT_255_1_388
10
5.2250394
20
117.0924898
11
5.3985237
21
117.0924898
0
LINE
8
DEFAULT_255_1_388
10
6.5343042
20
115.9133382
11
6.5343042
21
115.7769
0
LINE
8
DEFAULT_255_1_388
10
6.5343042
20
115.7769
11
5.6723038
21
115.7769
0
LINE
8
DEFAULT_255_1_388
10
5.6723038
20
115.7769
11
5.6723038
21
115.8970741
0
LINE
8
DEFAULT_255_1_388
10
5.6723038
20
115.8970741
11
6.1277002
21
116.4030702
0
LINE
8
DEFAULT_255_1_388
10
5.8141634
20
116.7048607
11
5.647004
21
116.7048607
0
LINE
8
DEFAULT_255_1_388
10
6.2261888
20
116.295546
11
5.8737986
21
115.9133382
0
LINE
8
DEFAULT_255_1_388
10
5.8737986
20
115.9133382
11
6.5343042
21
115.9133382
0
ARC
8
DEFAULT_255_1_388
10
4.6101062
20
117.7450983
40
2.0258655
50
318.5132526
51
320.7829045
0
ARC
8
DEFAULT_255_1_388
10
5.2049019
20
117.2609929
40
1.2589638
50
320.7372878
51
323.9739031
0
ARC
8
DEFAULT_255_1_388
10
5.6457951
20
116.9415554
40
0.7145141
50
323.8962701
51
328.64194
0
ARC
8
DEFAULT_255_1_388
10
5.8760208
20
116.7995545
40
0.4440242
50
328.8294576
51
331.7891185
0
ARC
8
DEFAULT_255_1_388
10
5.9882528
20
116.7416374
40
0.3177517
50
331.4254512
51
352.9365785
0
ARC
8
DEFAULT_255_1_388
10
6.0035528
20
116.738205
40
0.3021496
50
353.2257659
51
0.0166158
0
ARC
8
DEFAULT_255_1_388
10
6.0272289
20
116.7407894
40
0.2784847
50
359.486299
51
15.9343185
0
ARC
8
DEFAULT_255_1_388
10
6.0842556
20
116.7561269
40
0.2194403
50
16.1712913
51
43.5286088
0
ARC
8
DEFAULT_255_1_388
10
6.09295
20
116.7648191
40
0.2071504
50
43.4417391
51
83.1661095
0
ARC
8
DEFAULT_255_1_388
10
6.0778661
20
116.6819316
40
0.2912888
50
82.160179
51
90.1505708
0
ARC
8
DEFAULT_255_1_388
10
6.0743143
20
116.6215279
40
0.3517025
50
89.5460741
51
102.5418361
0
ARC
8
DEFAULT_255_1_388
10
6.0469863
20
116.7374933
40
0.2325748
50
102.1738499
51
129.206123
0
ARC
8
DEFAULT_255_1_388
10
6.0381316
20
116.7514664
40
0.2161591
50
129.72865
51
135.753947
0
ARC
8
DEFAULT_255_1_388
10
6.0517798
20
116.7405728
40
0.2335433
50
136.1757367
51
166.3673339
0
ARC
8
DEFAULT_255_1_388
10
6.1650487
20
116.7102148
40
0.3507873
50
165.9090694
51
178.8684636
0
ARC
8
DEFAULT_255_1_388
10
6.2626258
20
116.7049263
40
0.4484624
50
178.4391136
51
180.0083808
0
ARC
8
DEFAULT_255_1_388
10
6.104696
20
116.7093197
40
0.4577138
50
163.2878482
51
180.5581842
0
ARC
8
DEFAULT_255_1_388
10
6.0145001
20
116.7341393
40
0.3641968
50
133.4540601
51
162.947111
0
ARC
8
DEFAULT_255_1_388
10
6.0345883
20
116.7127789
40
0.3935189
50
100.7869829
51
133.4382499
0
ARC
8
DEFAULT_255_1_388
10
6.0737128
20
116.5385399
40
0.5720313
50
89.660664
51
101.3702276
0
ARC
8
DEFAULT_255_1_388
10
6.0811737
20
116.5454263
40
0.5651495
50
78.2172678
51
90.412935
0
ARC
8
DEFAULT_255_1_388
10
6.1211202
20
116.7281511
40
0.378122
50
55.9269121
51
78.4888449
0
ARC
8
DEFAULT_255_1_388
10
6.1431918
20
116.7662187
40
0.3342379
50
47.929771
51
55.4049217
0
ARC
8
DEFAULT_255_1_388
10
6.1546448
20
116.7778618
40
0.3179217
50
4.334829
51
48.0560205
0
ARC
8
DEFAULT_255_1_388
10
6.031425
20
116.7587487
40
0.442341
50
359.9251713
51
5.5971671
0
ARC
8
DEFAULT_255_1_388
10
6.0796404
20
116.7650728
40
0.3941854
50
337.8914027
51
358.9967534
0
ARC
8
DEFAULT_255_1_388
10
5.7743974
20
116.8828295
40
0.7213271
50
326.9132501
51
338.3508308
0
ARC
8
DEFAULT_255_1_388
10
5.3260086
20
117.1702105
40
1.2538973
50
319.6471833
51
327.0959558
0
ARC
8
DEFAULT_255_1_388
10
4.8946744
20
117.526005
40
1.8129975
50
317.2588228
51
319.9045804
0
LINE
8
DEFAULT_255_1_388
10
4.3555389
20
123.7144
11
3.9914024
21
123.7144
0
LINE
8
DEFAULT_255_1_388
10
3.9914024
20
123.7144
11
3.9914024
21
125.0299898
0
LINE
8
DEFAULT_255_1_388
10
3.9914024
20
125.0299898
11
4.3627674
21
125.0299898
0
LINE
8
DEFAULT_255_1_388
10
4.9428558
20
124.4164696
11
4.9428558
21
124.3324381
0
LINE
8
DEFAULT_255_1_388
10
4.3672852
20
124.8872267
11
4.1648868
21
124.8872267
0
LINE
8
DEFAULT_255_1_388
10
4.1648868
20
124.8872267
11
4.1648868
21
123.8562596
0
LINE
8
DEFAULT_255_1_388
10
4.1648868
20
123.8562596
11
4.3474068
21
123.8562596
0
LINE
8
DEFAULT_255_1_388
10
4.7711785
20
124.3360523
11
4.7711785
21
124.4128553
0
ARC
8
DEFAULT_255_1_388
10
4.3671469
20
124.3701436
40
0.6598608
50
75.4100343
51
90.3802731
0
ARC
8
DEFAULT_255_1_388
10
4.3929714
20
124.4777691
40
0.5492049
50
60.1455157
51
75.1889627
0
ARC
8
DEFAULT_255_1_388
10
4.4108306
20
124.5088914
40
0.5133226
50
26.525419
51
60.1451222
0
ARC
8
DEFAULT_255_1_388
10
4.2848092
20
124.4420642
40
0.6559324
50
7.4029944
51
26.832209
0
ARC
8
DEFAULT_255_1_388
10
4.1054489
20
124.4141229
40
0.8374103
50
0.1605597
51
7.7176135
0
ARC
8
DEFAULT_255_1_388
10
4.1238889
20
124.3281321
40
0.8189782
50
348.7289744
51
0.30125
0
ARC
8
DEFAULT_255_1_388
10
4.3102353
20
124.2911156
40
0.628991
50
333.0706936
51
348.7181455
0
ARC
8
DEFAULT_255_1_388
10
4.4189981
20
124.2320449
40
0.5052808
50
299.2531435
51
333.4571133
0
ARC
8
DEFAULT_255_1_388
10
4.3784012
20
124.3091629
40
0.5924066
50
278.1072193
51
299.0340218
0
ARC
8
DEFAULT_255_1_388
10
4.3496061
20
124.4787979
40
0.7644209
50
270.4446841
51
278.4508355
0
ARC
8
DEFAULT_255_1_388
10
4.3519545
20
124.37423
40
0.5179903
50
269.4969684
51
284.0204874
0
ARC
8
DEFAULT_255_1_388
10
4.3919263
20
124.2206415
40
0.3592968
50
283.7699076
51
318.1557121
0
ARC
8
DEFAULT_255_1_388
10
4.3539808
20
124.2490399
40
0.4065308
50
318.7417595
51
343.687252
0
ARC
8
DEFAULT_255_1_388
10
4.1510387
20
124.3124275
40
0.6191194
50
343.3324891
51
355.8548594
0
ARC
8
DEFAULT_255_1_388
10
3.9149424
20
124.3348719
40
0.856237
50
355.4988754
51
0.0789913
0
ARC
8
DEFAULT_255_1_388
10
4.0030224
20
124.417608
40
0.7681709
50
359.6455047
51
9.8607559
0
ARC
8
DEFAULT_255_1_388
10
4.2685947
20
124.4655664
40
0.498312
50
9.6573037
51
26.1931522
0
ARC
8
DEFAULT_255_1_388
10
4.3730022
20
124.5140587
40
0.3832303
50
26.5777895
51
40.1533752
0
ARC
8
DEFAULT_255_1_388
10
4.4017687
20
124.536502
40
0.3467742
50
40.3839958
51
80.1430923
0
ARC
8
DEFAULT_255_1_388
10
4.3649942
20
124.3734486
40
0.5137832
50
79.2153636
51
89.7445174
0
LINE
8
DEFAULT_255_1_388
10
5.3910237
20
125.0299898
11
5.3910237
21
123.7144
0
LINE
8
DEFAULT_255_1_388
10
5.3910237
20
123.7144
11
5.2175394
21
123.7144
0
LINE
8
DEFAULT_255_1_388
10
5.2175394
20
123.7144
11
5.2175394
21
125.0299898
0
LINE
8
DEFAULT_255_1_388
10
5.2175394
20
125.0299898
11
5.3910237
21
125.0299898
0
LINE
8
DEFAULT_255_1_388
10
6.2141709
20
125.0363148
11
6.2141709
21
123.7144
0
LINE
8
DEFAULT_255_1_388
10
6.2141709
20
123.7144
11
6.046108
21
123.7144
0
LINE
8
DEFAULT_255_1_388
10
6.046108
20
123.7144
11
6.046108
21
124.828495
0
LINE
8
DEFAULT_255_1_388
10
6.046108
20
124.828495
11
5.7090784
21
124.7047066
0
LINE
8
DEFAULT_255_1_388
10
5.7090784
20
124.7047066
11
5.7090784
21
124.8565055
0
LINE
8
DEFAULT_255_1_388
10
5.7090784
20
124.8565055
11
6.1879676
21
125.0363148
0
LINE
8
DEFAULT_255_1_388
10
6.1879676
20
125.0363148
11
6.2141709
21
125.0363148
0
LINE
8
DEFAULT_255_1_388
10
4.3630389
20
131.6519
11
3.9989024
21
131.6519
0
LINE
8
DEFAULT_255_1_388
10
3.9989024
20
131.6519
11
3.9989024
21
132.9674898
0
LINE
8
DEFAULT_255_1_388
10
3.9989024
20
132.9674898
11
4.3702674
21
132.9674898
0
LINE
8
DEFAULT_255_1_388
10
4.9503558
20
132.3539696
11
4.9503558
21
132.2699381
0
LINE
8
DEFAULT_255_1_388
10
4.3747852
20
132.8247267
11
4.1723868
21
132.8247267
0
LINE
8
DEFAULT_255_1_388
10
4.1723868
20
132.8247267
11
4.1723868
21
131.7937596
0
LINE
8
DEFAULT_255_1_388
10
4.1723868
20
131.7937596
11
4.3549068
21
131.7937596
0
LINE
8
DEFAULT_255_1_388
10
4.7786785
20
132.2735523
11
4.7786785
21
132.3503553
0
ARC
8
DEFAULT_255_1_388
10
4.3746469
20
132.3076436
40
0.6598608
50
75.4100343
51
90.3802731
0
ARC
8
DEFAULT_255_1_388
10
4.4004714
20
132.4152691
40
0.5492049
50
60.1455157
51
75.1889627
0
ARC
8
DEFAULT_255_1_388
10
4.4183306
20
132.4463914
40
0.5133226
50
26.525419
51
60.1451222
0
ARC
8
DEFAULT_255_1_388
10
4.2923092
20
132.3795642
40
0.6559324
50
7.4029944
51
26.832209
0
ARC
8
DEFAULT_255_1_388
10
4.1129489
20
132.3516229
40
0.8374103
50
0.1605597
51
7.7176135
0
ARC
8
DEFAULT_255_1_388
10
4.1313889
20
132.2656321
40
0.8189782
50
348.7289744
51
0.30125
0
ARC
8
DEFAULT_255_1_388
10
4.3177353
20
132.2286156
40
0.628991
50
333.0706936
51
348.7181455
0
ARC
8
DEFAULT_255_1_388
10
4.4264981
20
132.1695449
40
0.5052808
50
299.2531435
51
333.4571133
0
ARC
8
DEFAULT_255_1_388
10
4.3859012
20
132.2466629
40
0.5924066
50
278.1072193
51
299.0340218
0
ARC
8
DEFAULT_255_1_388
10
4.3571061
20
132.4162979
40
0.7644209
50
270.4446841
51
278.4508355
0
ARC
8
DEFAULT_255_1_388
10
4.3594545
20
132.31173
40
0.5179903
50
269.4969684
51
284.0204874
0
ARC
8
DEFAULT_255_1_388
10
4.3994263
20
132.1581415
40
0.3592968
50
283.7699076
51
318.1557121
0
ARC
8
DEFAULT_255_1_388
10
4.3614808
20
132.1865399
40
0.4065308
50
318.7417595
51
343.687252
0
ARC
8
DEFAULT_255_1_388
10
4.1585387
20
132.2499275
40
0.6191194
50
343.3324891
51
355.8548594
0
ARC
8
DEFAULT_255_1_388
10
3.9224424
20
132.2723719
40
0.856237
50
355.4988754
51
0.0789913
0
ARC
8
DEFAULT_255_1_388
10
4.0105224
20
132.355108
40
0.7681709
50
359.6455047
51
9.8607559
0
ARC
8
DEFAULT_255_1_388
10
4.2760947
20
132.4030664
40
0.498312
50
9.6573037
51
26.1931522
0
ARC
8
DEFAULT_255_1_388
10
4.3805022
20
132.4515587
40
0.3832303
50
26.5777895
51
40.1533752
0
ARC
8
DEFAULT_255_1_388
10
4.4092687
20
132.474002
40
0.3467742
50
40.3839958
51
80.1430923
0
ARC
8
DEFAULT_255_1_388
10
4.3724942
20
132.3109486
40
0.5137832
50
79.2153636
51
89.7445174
0
LINE
8
DEFAULT_255_1_388
10
5.3985237
20
132.9674898
11
5.3985237
21
131.6519
0
LINE
8
DEFAULT_255_1_388
10
5.3985237
20
131.6519
11
5.2250394
21
131.6519
0
LINE
8
DEFAULT_255_1_388
10
5.2250394
20
131.6519
11
5.2250394
21
132.9674898
0
LINE
8
DEFAULT_255_1_388
10
5.2250394
20
132.9674898
11
5.3985237
21
132.9674898
0
LINE
8
DEFAULT_255_1_388
10
6.4972581
20
132.429869
11
6.4972581
21
132.2130135
0
LINE
8
DEFAULT_255_1_388
10
5.6668824
20
132.1904244
11
5.6668824
21
132.4136048
0
LINE
8
DEFAULT_255_1_388
10
6.3300987
20
132.1678353
11
6.3300987
21
132.4416153
0
LINE
8
DEFAULT_255_1_388
10
5.8340418
20
132.4542652
11
5.8340418
21
132.1868102
0
ARC
8
DEFAULT_255_1_388
10
5.1194915
20
132.2075118
40
1.3777776
50
353.8440855
51
0.2287917
0
ARC
8
DEFAULT_255_1_388
10
5.6413932
20
132.1492414
40
0.852639
50
344.4934746
51
353.9763743
0
ARC
8
DEFAULT_255_1_388
10
5.978074
20
132.0535191
40
0.5026273
50
329.2803599
51
344.7473406
0
ARC
8
DEFAULT_255_1_388
10
6.0896235
20
131.9923038
40
0.3754848
50
324.9361395
51
328.6153007
0
ARC
8
DEFAULT_255_1_388
10
6.1321885
20
131.9625586
40
0.3235566
50
280.5801797
51
324.9173226
0
ARC
8
DEFAULT_255_1_388
10
6.0870514
20
132.1505236
40
0.5167077
50
269.5979457
51
281.6732777
0
ARC
8
DEFAULT_255_1_388
10
6.0789417
20
132.1370113
40
0.5032026
50
256.6228565
51
270.5105488
0
ARC
8
DEFAULT_255_1_388
10
6.033716
20
131.9628345
40
0.3233092
50
215.8618351
51
257.2787793
0
ARC
8
DEFAULT_255_1_388
10
6.1485867
20
132.0399106
40
0.4615831
50
197.9695203
51
215.2622745
0
ARC
8
DEFAULT_255_1_388
10
6.4281543
20
132.1342641
40
0.7566307
50
187.8816486
51
198.2346584
0
ARC
8
DEFAULT_255_1_388
10
6.8734781
20
132.1985453
40
1.2065653
50
180.8977266
51
188.0054894
0
ARC
8
DEFAULT_255_1_388
10
7.1784995
20
132.21004
40
1.5117443
50
180.7434591
51
181.152202
0
ARC
8
DEFAULT_255_1_388
10
7.0109991
20
132.4190371
40
1.3441277
50
173.7674302
51
180.2315596
0
ARC
8
DEFAULT_255_1_388
10
6.5027859
20
132.4764779
40
0.8326847
50
164.3058537
51
173.9000553
0
ARC
8
DEFAULT_255_1_388
10
6.175186
20
132.5708652
40
0.4917711
50
148.7922028
51
164.5682288
0
ARC
8
DEFAULT_255_1_388
10
6.0682597
20
132.6305457
40
0.3694204
50
144.5883979
51
148.1161588
0
ARC
8
DEFAULT_255_1_388
10
6.0295342
20
132.6575667
40
0.322202
50
101.6440149
51
144.5142619
0
ARC
8
DEFAULT_255_1_388
10
6.0773534
20
132.4675337
40
0.5180451
50
89.528284
51
102.5820197
0
ARC
8
DEFAULT_255_1_388
10
6.0862526
20
132.4631376
40
0.5224441
50
77.0437914
51
90.508231
0
ARC
8
DEFAULT_255_1_388
10
6.131478
20
132.6479272
40
0.3322297
50
48.2777708
51
77.4996087
0
ARC
8
DEFAULT_255_1_388
10
6.139652
20
132.6624557
40
0.315966
50
36.3141586
51
47.6307332
0
ARC
8
DEFAULT_255_1_388
10
6.0419242
20
132.5966159
40
0.4337313
50
18.2931065
51
35.6770203
0
ARC
8
DEFAULT_255_1_388
10
5.7558083
20
132.4984107
40
0.7362203
50
8.0246996
51
18.5605636
0
ARC
8
DEFAULT_255_1_388
10
5.2874439
20
132.4292432
40
1.2096583
50
1.127539
51
8.1718423
0
ARC
8
DEFAULT_255_1_388
10
4.9225572
20
132.4149374
40
1.5747719
50
0.5432713
51
1.38669
0
ARC
8
DEFAULT_255_1_388
10
5.1282951
20
132.4456163
40
1.2018103
50
359.8092569
51
4.9408001
0
ARC
8
DEFAULT_255_1_388
10
5.6019532
20
132.48789
40
0.7262727
50
4.8364937
51
12.2906017
0
ARC
8
DEFAULT_255_1_388
10
5.9118997
20
132.5569485
40
0.4087324
50
12.0806994
51
23.8171225
0
ARC
8
DEFAULT_255_1_388
10
6.0439393
20
132.6128508
40
0.2653719
50
24.2874621
51
31.3934353
0
ARC
8
DEFAULT_255_1_388
10
6.1029829
20
132.6514822
40
0.1948607
50
30.7407708
51
82.4658033
0
ARC
8
DEFAULT_255_1_388
10
6.0827489
20
132.5521017
40
0.2961198
50
81.1057101
51
90.2187368
0
ARC
8
DEFAULT_255_1_388
10
6.0787301
20
132.5811421
40
0.2670929
50
89.380395
51
105.6763916
0
ARC
8
DEFAULT_255_1_388
10
6.0581023
20
132.656132
40
0.1893189
50
105.7980655
51
149.7387869
0
ARC
8
DEFAULT_255_1_388
10
6.1778163
20
132.5841719
40
0.3289892
50
149.4208441
51
163.628295
0
ARC
8
DEFAULT_255_1_388
10
6.4130393
20
132.5124345
40
0.5749004
50
163.3764549
51
172.141138
0
ARC
8
DEFAULT_255_1_388
10
6.7843114
20
132.4592582
40
0.9499585
50
172.0258462
51
178.0705453
0
ARC
8
DEFAULT_255_1_388
10
7.1264667
20
132.4430682
40
1.2924734
50
177.8639301
51
179.5036263
0
ARC
8
DEFAULT_255_1_388
10
7.0045686
20
132.1827151
40
1.170534
50
179.7995545
51
185.246089
0
ARC
8
DEFAULT_255_1_388
10
6.5497279
20
132.1396404
40
0.7136613
50
185.1411911
51
193.0082205
0
ARC
8
DEFAULT_255_1_388
10
6.252354
20
132.0693441
40
0.4080987
50
192.7897338
51
205.2507384
0
ARC
8
DEFAULT_255_1_388
10
6.134575
20
132.0167538
40
0.2791522
50
205.8001921
51
211.2545876
0
ARC
8
DEFAULT_255_1_388
10
6.0757289
20
131.9773132
40
0.2084074
50
210.3789935
51
238.4007996
0
ARC
8
DEFAULT_255_1_388
10
6.0735375
20
131.9825786
40
0.2117943
50
239.6521916
51
265.9793852
0
ARC
8
DEFAULT_255_1_388
10
6.0831224
20
132.0582358
40
0.2879689
50
265.1324455
51
270.0603288
0
ARC
8
DEFAULT_255_1_388
10
6.0863601
20
132.0217418
40
0.2514919
50
269.3314378
51
287.2180039
0
ARC
8
DEFAULT_255_1_388
10
6.1018683
20
131.9651291
40
0.1928357
50
287.7957942
51
329.0808983
0
ARC
8
DEFAULT_255_1_388
10
5.994144
20
132.0323651
40
0.319808
50
328.6635261
51
343.3325043
0
ARC
8
DEFAULT_255_1_388
10
5.7496899
20
132.1085195
40
0.5758408
50
343.0498092
51
351.9392499
0
ARC
8
DEFAULT_255_1_388
10
5.359622
20
132.1660205
40
0.9701202
50
351.8071632
51
357.7957897
0
ARC
8
DEFAULT_255_1_388
10
4.9961697
20
132.1848724
40
1.3340376
50
357.5870923
51
359.2682493
0
LINE
8
DEFAULT_255_1_388
10
23.1190856
20
140.367369
11
23.1190856
21
140.1505135
0
LINE
8
DEFAULT_255_1_388
10
22.2887099
20
140.1279244
11
22.2887099
21
140.3511048
0
LINE
8
DEFAULT_255_1_388
10
22.9519262
20
140.1053353
11
22.9519262
21
140.3791153
0
LINE
8
DEFAULT_255_1_388
10
22.4558693
20
140.3917652
11
22.4558693
21
140.1243102
0
ARC
8
DEFAULT_255_1_388
10
21.741319
20
140.1450118
40
1.3777776
50
353.8440855
51
0.2287917
0
ARC
8
DEFAULT_255_1_388
10
22.2632208
20
140.0867414
40
0.852639
50
344.4934746
51
353.9763743
0
ARC
8
DEFAULT_255_1_388
10
22.5999015
20
139.9910191
40
0.5026273
50
329.2803599
51
344.7473406
0
ARC
8
DEFAULT_255_1_388
10
22.7114511
20
139.9298038
40
0.3754848
50
324.9361395
51
328.6153007
0
ARC
8
DEFAULT_255_1_388
10
22.7540161
20
139.9000586
40
0.3235566
50
280.5801797
51
324.9173226
0
ARC
8
DEFAULT_255_1_388
10
22.7088789
20
140.0880236
40
0.5167077
50
269.5979457
51
281.6732777
0
ARC
8
DEFAULT_255_1_388
10
22.7007693
20
140.0745113
40
0.5032026
50
256.6228565
51
270.5105488
0
ARC
8
DEFAULT_255_1_388
10
22.6555435
20
139.9003345
40
0.3233092
50
215.8618351
51
257.2787793
0
ARC
8
DEFAULT_255_1_388
10
22.7704142
20
139.9774106
40
0.4615831
50
197.9695203
51
215.2622745
0
ARC
8
DEFAULT_255_1_388
10
23.0499818
20
140.0717641
40
0.7566307
50
187.8816486
51
198.2346584
0
ARC
8
DEFAULT_255_1_388
10
23.4953056
20
140.1360453
40
1.2065653
50
180.8977266
51
188.0054894
0
ARC
8
DEFAULT_255_1_388
10
23.800327
20
140.14754
40
1.5117443
50
180.7434591
51
181.152202
0
ARC
8
DEFAULT_255_1_388
10
23.6328266
20
140.3565371
40
1.3441277
50
173.7674302
51
180.2315596
0
ARC
8
DEFAULT_255_1_388
10
23.1246135
20
140.4139779
40
0.8326847
50
164.3058537
51
173.9000553
0
ARC
8
DEFAULT_255_1_388
10
22.7970135
20
140.5083652
40
0.4917711
50
148.7922028
51
164.5682288
0
ARC
8
DEFAULT_255_1_388
10
22.6900872
20
140.5680457
40
0.3694204
50
144.5883979
51
148.1161588
0
ARC
8
DEFAULT_255_1_388
10
22.6513618
20
140.5950667
40
0.322202
50
101.6440149
51
144.5142619
0
ARC
8
DEFAULT_255_1_388
10
22.699181
20
140.4050337
40
0.5180451
50
89.528284
51
102.5820197
0
ARC
8
DEFAULT_255_1_388
10
22.7080802
20
140.4006376
40
0.5224441
50
77.0437914
51
90.508231
0
ARC
8
DEFAULT_255_1_388
10
22.7533055
20
140.5854272
40
0.3322297
50
48.2777708
51
77.4996087
0
ARC
8
DEFAULT_255_1_388
10
22.7614795
20
140.5999557
40
0.315966
50
36.3141586
51
47.6307332
0
ARC
8
DEFAULT_255_1_388
10
22.6637518
20
140.5341159
40
0.4337313
50
18.2931065
51
35.6770203
0
ARC
8
DEFAULT_255_1_388
10
22.3776358
20
140.4359107
40
0.7362203
50
8.0246996
51
18.5605636
0
ARC
8
DEFAULT_255_1_388
10
21.9092714
20
140.3667432
40
1.2096583
50
1.127539
51
8.1718423
0
ARC
8
DEFAULT_255_1_388
10
21.5443847
20
140.3524374
40
1.5747719
50
0.5432713
51
1.38669
0
ARC
8
DEFAULT_255_1_388
10
21.7501226
20
140.3831163
40
1.2018103
50
359.8092569
51
4.9408001
0
ARC
8
DEFAULT_255_1_388
10
22.2237807
20
140.42539
40
0.7262727
50
4.8364937
51
12.2906017
0
ARC
8
DEFAULT_255_1_388
10
22.5337272
20
140.4944485
40
0.4087324
50
12.0806994
51
23.8171225
0
ARC
8
DEFAULT_255_1_388
10
22.6657668
20
140.5503508
40
0.2653719
50
24.2874621
51
31.3934353
0
ARC
8
DEFAULT_255_1_388
10
22.7248104
20
140.5889822
40
0.1948607
50
30.7407708
51
82.4658033
0
ARC
8
DEFAULT_255_1_388
10
22.7045765
20
140.4896017
40
0.2961198
50
81.1057101
51
90.2187368
0
ARC
8
DEFAULT_255_1_388
10
22.7005577
20
140.5186421
40
0.2670929
50
89.380395
51
105.6763916
0
ARC
8
DEFAULT_255_1_388
10
22.6799299
20
140.593632
40
0.1893189
50
105.7980655
51
149.7387869
0
ARC
8
DEFAULT_255_1_388
10
22.7996439
20
140.5216719
40
0.3289892
50
149.4208441
51
163.628295
0
ARC
8
DEFAULT_255_1_388
10
23.0348668
20
140.4499345
40
0.5749004
50
163.3764549
51
172.141138
0
ARC
8
DEFAULT_255_1_388
10
23.406139
20
140.3967582
40
0.9499585
50
172.0258462
51
178.0705453
0
ARC
8
DEFAULT_255_1_388
10
23.7482943
20
140.3805682
40
1.2924734
50
177.8639301
51
179.5036263
0
ARC
8
DEFAULT_255_1_388
10
23.6263961
20
140.1202151
40
1.170534
50
179.7995545
51
185.246089
0
ARC
8
DEFAULT_255_1_388
10
23.1715554
20
140.0771404
40
0.7136613
50
185.1411911
51
193.0082205
0
ARC
8
DEFAULT_255_1_388
10
22.8741815
20
140.0068441
40
0.4080987
50
192.7897338
51
205.2507384
0
ARC
8
DEFAULT_255_1_388
10
22.7564025
20
139.9542538
40
0.2791522
50
205.8001921
51
211.2545876
0
ARC
8
DEFAULT_255_1_388
10
22.6975564
20
139.9148132
40
0.2084074
50
210.3789935
51
238.4007996
0
ARC
8
DEFAULT_255_1_388
10
22.695365
20
139.9200786
40
0.2117943
50
239.6521916
51
265.9793852
0
ARC
8
DEFAULT_255_1_388
10
22.7049499
20
139.9957358
40
0.2879689
50
265.1324455
51
270.0603288
0
ARC
8
DEFAULT_255_1_388
10
22.7081876
20
139.9592418
40
0.2514919
50
269.3314378
51
287.2180039
0
ARC
8
DEFAULT_255_1_388
10
22.7236958
20
139.9026291
40
0.1928357
50
287.7957942
51
329.0808983
0
ARC
8
DEFAULT_255_1_388
10
22.6159715
20
139.9698651
40
0.319808
50
328.6635261
51
343.3325043
0
ARC
8
DEFAULT_255_1_388
10
22.3715174
20
140.0460195
40
0.5758408
50
343.0498092
51
351.9392499
0
ARC
8
DEFAULT_255_1_388
10
21.9814496
20
140.1035205
40
0.9701202
50
351.8071632
51
357.7957897
0
ARC
8
DEFAULT_255_1_388
10
21.6179973
20
140.1223724
40
1.3340376
50
357.5870923
51
359.2682493
0
LINE
8
DEFAULT_255_1_388
10
23.4380439
20
140.9049898
11
23.8121196
21
139.8198089
0
LINE
8
DEFAULT_255_1_388
10
23.8121196
20
139.8198089
11
24.1880024
21
140.9049898
0
LINE
8
DEFAULT_255_1_388
10
24.1880024
20
140.9049898
11
24.3777509
21
140.9049898
0
LINE
8
DEFAULT_255_1_388
10
24.3777509
20
140.9049898
11
23.8898261
21
139.5894
0
LINE
8
DEFAULT_255_1_388
10
23.8898261
20
139.5894
11
23.7362202
21
139.5894
0
LINE
8
DEFAULT_255_1_388
10
23.7362202
20
139.5894
11
23.2491989
21
140.9049898
0
LINE
8
DEFAULT_255_1_388
10
23.2491989
20
140.9049898
11
23.4380439
21
140.9049898
0
LINE
8
DEFAULT_255_1_388
10
21.8374637
20
60.2144
11
21.7118682
21
60.5577545
0
LINE
8
DEFAULT_255_1_388
10
21.7118682
20
60.5577545
11
21.1606939
21
60.5577545
0
LINE
8
DEFAULT_255_1_388
10
21.1606939
20
60.5577545
11
21.0369056
21
60.2144
0
LINE
8
DEFAULT_255_1_388
10
21.0369056
20
60.2144
11
20.8579998
21
60.2144
0
LINE
8
DEFAULT_255_1_388
10
20.8579998
20
60.2144
11
21.3603816
21
61.5299898
0
LINE
8
DEFAULT_255_1_388
10
21.3603816
20
61.5299898
11
21.5121805
21
61.5299898
0
LINE
8
DEFAULT_255_1_388
10
21.5121805
20
61.5299898
11
22.0154659
21
60.2144
0
LINE
8
DEFAULT_255_1_388
10
22.0154659
20
60.2144
11
21.8374637
21
60.2144
0
LINE
8
DEFAULT_255_1_388
10
21.4362811
20
61.3158451
11
21.2131006
21
60.7005177
0
LINE
8
DEFAULT_255_1_388
10
21.2131006
20
60.7005177
11
21.660365
21
60.7005177
0
LINE
8
DEFAULT_255_1_388
10
21.660365
20
60.7005177
11
21.4362811
21
61.3158451
0
LINE
8
DEFAULT_255_1_388
10
23.1946175
20
60.9128553
11
23.1946175
21
60.8297274
0
LINE
8
DEFAULT_255_1_388
10
22.1365435
20
60.8179811
11
22.1365435
21
60.9128553
0
LINE
8
DEFAULT_255_1_388
10
23.0220367
20
60.8170775
11
23.0220367
21
60.9146625
0
LINE
8
DEFAULT_255_1_388
10
22.3091243
20
60.9264088
11
22.3091243
21
60.8297274
0
ARC
8
DEFAULT_255_1_388
10
22.2223913
20
60.8252726
40
0.9722364
50
350.4878118
51
0.2625322
0
ARC
8
DEFAULT_255_1_388
10
22.4803873
20
60.7808994
40
0.7104556
50
336.0277991
51
350.5787241
0
ARC
8
DEFAULT_255_1_388
10
22.631698
20
60.7125243
40
0.544417
50
319.887443
51
336.1331163
0
ARC
8
DEFAULT_255_1_388
10
22.6994792
20
60.6582733
40
0.4576311
50
302.4806296
51
319.6144102
0
ARC
8
DEFAULT_255_1_388
10
22.6865413
20
60.6832067
40
0.4856183
50
275.8196423
51
302.1885521
0
ARC
8
DEFAULT_255_1_388
10
22.6678275
20
60.8117466
40
0.6154183
50
269.9169897
51
276.339506
0
ARC
8
DEFAULT_255_1_388
10
22.6627875
20
60.734568
40
0.5382553
50
252.5221437
51
270.441579
0
ARC
8
DEFAULT_255_1_388
10
22.6466126
20
60.6739046
40
0.4755426
50
237.5349961
51
252.1858334
0
ARC
8
DEFAULT_255_1_388
10
22.6566502
20
60.686712
40
0.4917393
50
209.0632754
51
237.3492577
0
ARC
8
DEFAULT_255_1_388
10
22.7545828
20
60.7482104
40
0.6072464
50
205.118533
51
209.6465345
0
ARC
8
DEFAULT_255_1_388
10
22.844183
20
60.7862174
40
0.7045164
50
188.7216633
51
204.8239753
0
ARC
8
DEFAULT_255_1_388
10
23.0688605
20
60.8240387
40
0.9323368
50
180.3722704
51
188.9253909
0
ARC
8
DEFAULT_255_1_388
10
23.0658167
20
60.9173416
40
0.929284
50
169.5253055
51
180.2766048
0
ARC
8
DEFAULT_255_1_388
10
22.8517966
20
60.9567024
40
0.7116745
50
155.8314601
51
169.5088611
0
ARC
8
DEFAULT_255_1_388
10
22.7077429
20
61.0235312
40
0.5528904
50
139.6259579
51
156.0379072
0
ARC
8
DEFAULT_255_1_388
10
22.6413963
20
61.0769143
40
0.4677708
50
122.6414784
51
139.3431662
0
ARC
8
DEFAULT_255_1_388
10
22.6527217
20
61.0562787
40
0.4912586
50
93.0224537
51
122.4556091
0
ARC
8
DEFAULT_255_1_388
10
22.6648738
20
60.9476776
40
0.6003837
50
89.9756766
51
93.6340839
0
ARC
8
DEFAULT_255_1_388
10
22.6692336
20
60.9925879
40
0.5554884
50
73.7463329
51
90.4234008
0
ARC
8
DEFAULT_255_1_388
10
22.6889809
20
61.0690772
40
0.4765353
50
57.663051
51
73.4516911
0
ARC
8
DEFAULT_255_1_388
10
22.6880847
20
61.0715108
40
0.4749629
50
29.1441355
51
57.4146687
0
ARC
8
DEFAULT_255_1_388
10
22.5828658
20
61.0058046
40
0.5988917
50
24.0985653
51
29.732054
0
ARC
8
DEFAULT_255_1_388
10
22.466629
20
60.9576154
40
0.7246823
50
8.6654943
51
23.8241215
0
ARC
8
DEFAULT_255_1_388
10
22.2152708
20
60.9166037
40
0.9793537
50
359.7807044
51
8.8218476
0
ARC
8
DEFAULT_255_1_388
10
22.0862413
20
60.9194731
40
0.9358078
50
359.7054632
51
8.0359751
0
ARC
8
DEFAULT_255_1_388
10
22.4237464
20
60.9686252
40
0.5947474
50
7.8926278
51
20.2962188
0
ARC
8
DEFAULT_255_1_388
10
22.6068314
20
61.0361367
40
0.3996117
50
20.3231056
51
36.4990255
0
ARC
8
DEFAULT_255_1_388
10
22.6839612
20
61.0955399
40
0.3022818
50
36.1436715
51
85.6627846
0
ARC
8
DEFAULT_255_1_388
10
22.6656867
20
60.9785881
40
0.4203853
50
84.3845912
51
90.076054
0
ARC
8
DEFAULT_255_1_388
10
22.6609222
20
61.0528416
40
0.346157
50
89.3037228
51
109.9046209
0
ARC
8
DEFAULT_255_1_388
10
22.6505055
20
61.0958379
40
0.3022217
50
110.8229774
51
143.917961
0
ARC
8
DEFAULT_255_1_388
10
22.7555414
20
61.0156455
40
0.434348
50
143.5289166
51
163.2980252
0
ARC
8
DEFAULT_255_1_388
10
22.9701701
20
60.9481685
40
0.659321
50
163.0418884
51
174.3139873
0
ARC
8
DEFAULT_255_1_388
10
23.2406666
20
60.9169378
40
0.9315905
50
174.050934
51
179.4174954
0
ARC
8
DEFAULT_255_1_388
10
23.183861
20
60.8250382
40
0.8747493
50
179.6928582
51
188.7908948
0
ARC
8
DEFAULT_255_1_388
10
22.884241
20
60.7771086
40
0.5713262
50
188.6328449
51
202.5630732
0
ARC
8
DEFAULT_255_1_388
10
22.7431247
20
60.7204142
40
0.4192612
50
202.8078931
51
216.1195888
0
ARC
8
DEFAULT_255_1_388
10
22.6520764
20
60.6471479
40
0.3025752
50
215.0755613
51
264.6379773
0
ARC
8
DEFAULT_255_1_388
10
22.6663601
20
60.7406376
40
0.3970284
50
263.8464302
51
270.0830805
0
ARC
8
DEFAULT_255_1_388
10
22.6710146
20
60.7115808
40
0.3679937
50
269.3649295
51
287.5149684
0
ARC
8
DEFAULT_255_1_388
10
22.6910587
20
60.6387714
40
0.2925408
50
288.0629019
51
323.8115617
0
ARC
8
DEFAULT_255_1_388
10
22.5930563
20
60.7118754
40
0.4148018
50
323.6546541
51
342.6591359
0
ARC
8
DEFAULT_255_1_388
10
22.3645221
20
60.786228
40
0.6551163
50
342.4092446
51
353.6451501
0
ARC
8
DEFAULT_255_1_388
10
22.0460014
20
60.8258565
40
0.9760748
50
353.4027553
51
359.4846611
0
LINE
8
DEFAULT_255_1_388
10
23.9608401
20
61.5363148
11
23.9608401
21
60.2144
0
LINE
8
DEFAULT_255_1_388
10
23.9608401
20
60.2144
11
23.7927771
21
60.2144
0
LINE
8
DEFAULT_255_1_388
10
23.7927771
20
60.2144
11
23.7927771
21
61.328495
0
LINE
8
DEFAULT_255_1_388
10
23.7927771
20
61.328495
11
23.4557476
21
61.2047066
0
LINE
8
DEFAULT_255_1_388
10
23.4557476
20
61.2047066
11
23.4557476
21
61.3565055
0
LINE
8
DEFAULT_255_1_388
10
23.4557476
20
61.3565055
11
23.9346368
21
61.5363148
0
LINE
8
DEFAULT_255_1_388
10
23.9346368
20
61.5363148
11
23.9608401
21
61.5363148
0
LINE
8
DEFAULT_255_1_388
10
21.8295637
20
68.1519
11
21.7039682
21
68.4952545
0
LINE
8
DEFAULT_255_1_388
10
21.7039682
20
68.4952545
11
21.1527939
21
68.4952545
0
LINE
8
DEFAULT_255_1_388
10
21.1527939
20
68.4952545
11
21.0290056
21
68.1519
0
LINE
8
DEFAULT_255_1_388
10
21.0290056
20
68.1519
11
20.8500998
21
68.1519
0
LINE
8
DEFAULT_255_1_388
10
20.8500998
20
68.1519
11
21.3524816
21
69.4674898
0
LINE
8
DEFAULT_255_1_388
10
21.3524816
20
69.4674898
11
21.5042805
21
69.4674898
0
LINE
8
DEFAULT_255_1_388
10
21.5042805
20
69.4674898
11
22.0075659
21
68.1519
0
LINE
8
DEFAULT_255_1_388
10
22.0075659
20
68.1519
11
21.8295637
21
68.1519
0
LINE
8
DEFAULT_255_1_388
10
21.4283811
20
69.2533451
11
21.2052006
21
68.6380177
0
LINE
8
DEFAULT_255_1_388
10
21.2052006
20
68.6380177
11
21.652465
21
68.6380177
0
LINE
8
DEFAULT_255_1_388
10
21.652465
20
68.6380177
11
21.4283811
21
69.2533451
0
LINE
8
DEFAULT_255_1_388
10
23.1867175
20
68.8503553
11
23.1867175
21
68.7672274
0
LINE
8
DEFAULT_255_1_388
10
22.1286435
20
68.7554811
11
22.1286435
21
68.8503553
0
LINE
8
DEFAULT_255_1_388
10
23.0141367
20
68.7545775
11
23.0141367
21
68.8521625
0
LINE
8
DEFAULT_255_1_388
10
22.3012243
20
68.8639088
11
22.3012243
21
68.7672274
0
ARC
8
DEFAULT_255_1_388
10
22.2144913
20
68.7627726
40
0.9722364
50
350.4878118
51
0.2625322
0
ARC
8
DEFAULT_255_1_388
10
22.4724873
20
68.7183994
40
0.7104556
50
336.0277991
51
350.5787241
0
ARC
8
DEFAULT_255_1_388
10
22.623798
20
68.6500243
40
0.544417
50
319.887443
51
336.1331163
0
ARC
8
DEFAULT_255_1_388
10
22.6915792
20
68.5957733
40
0.4576311
50
302.4806296
51
319.6144102
0
ARC
8
DEFAULT_255_1_388
10
22.6786413
20
68.6207067
40
0.4856183
50
275.8196423
51
302.1885521
0
ARC
8
DEFAULT_255_1_388
10
22.6599275
20
68.7492466
40
0.6154183
50
269.9169897
51
276.339506
0
ARC
8
DEFAULT_255_1_388
10
22.6548875
20
68.672068
40
0.5382553
50
252.5221437
51
270.441579
0
ARC
8
DEFAULT_255_1_388
10
22.6387126
20
68.6114046
40
0.4755426
50
237.5349961
51
252.1858334
0
ARC
8
DEFAULT_255_1_388
10
22.6487502
20
68.624212
40
0.4917393
50
209.0632754
51
237.3492577
0
ARC
8
DEFAULT_255_1_388
10
22.7466828
20
68.6857104
40
0.6072464
50
205.118533
51
209.6465345
0
ARC
8
DEFAULT_255_1_388
10
22.836283
20
68.7237174
40
0.7045164
50
188.7216633
51
204.8239753
0
ARC
8
DEFAULT_255_1_388
10
23.0609605
20
68.7615387
40
0.9323368
50
180.3722704
51
188.9253909
0
ARC
8
DEFAULT_255_1_388
10
23.0579167
20
68.8548416
40
0.929284
50
169.5253055
51
180.2766048
0
ARC
8
DEFAULT_255_1_388
10
22.8438966
20
68.8942024
40
0.7116745
50
155.8314601
51
169.5088611
0
ARC
8
DEFAULT_255_1_388
10
22.6998429
20
68.9610312
40
0.5528904
50
139.6259579
51
156.0379072
0
ARC
8
DEFAULT_255_1_388
10
22.6334963
20
69.0144143
40
0.4677708
50
122.6414784
51
139.3431662
0
ARC
8
DEFAULT_255_1_388
10
22.6448217
20
68.9937787
40
0.4912586
50
93.0224537
51
122.4556091
0
ARC
8
DEFAULT_255_1_388
10
22.6569738
20
68.8851776
40
0.6003837
50
89.9756766
51
93.6340839
0
ARC
8
DEFAULT_255_1_388
10
22.6613336
20
68.9300879
40
0.5554884
50
73.7463329
51
90.4234008
0
ARC
8
DEFAULT_255_1_388
10
22.6810809
20
69.0065772
40
0.4765353
50
57.663051
51
73.4516911
0
ARC
8
DEFAULT_255_1_388
10
22.6801847
20
69.0090108
40
0.4749629
50
29.1441355
51
57.4146687
0
ARC
8
DEFAULT_255_1_388
10
22.5749658
20
68.9433046
40
0.5988917
50
24.0985653
51
29.732054
0
ARC
8
DEFAULT_255_1_388
10
22.458729
20
68.8951154
40
0.7246823
50
8.6654943
51
23.8241215
0
ARC
8
DEFAULT_255_1_388
10
22.2073708
20
68.8541037
40
0.9793537
50
359.7807044
51
8.8218476
0
ARC
8
DEFAULT_255_1_388
10
22.0783413
20
68.8569731
40
0.9358078
50
359.7054632
51
8.0359751
0
ARC
8
DEFAULT_255_1_388
10
22.4158464
20
68.9061252
40
0.5947474
50
7.8926278
51
20.2962188
0
ARC
8
DEFAULT_255_1_388
10
22.5989314
20
68.9736367
40
0.3996117
50
20.3231056
51
36.4990255
0
ARC
8
DEFAULT_255_1_388
10
22.6760612
20
69.0330399
40
0.3022818
50
36.1436715
51
85.6627846
0
ARC
8
DEFAULT_255_1_388
10
22.6577867
20
68.9160881
40
0.4203853
50
84.3845912
51
90.076054
0
ARC
8
DEFAULT_255_1_388
10
22.6530222
20
68.9903416
40
0.346157
50
89.3037228
51
109.9046209
0
ARC
8
DEFAULT_255_1_388
10
22.6426055
20
69.0333379
40
0.3022217
50
110.8229774
51
143.917961
0
ARC
8
DEFAULT_255_1_388
10
22.7476414
20
68.9531455
40
0.434348
50
143.5289166
51
163.2980252
0
ARC
8
DEFAULT_255_1_388
10
22.9622701
20
68.8856685
40
0.659321
50
163.0418884
51
174.3139873
0
ARC
8
DEFAULT_255_1_388
10
23.2327666
20
68.8544378
40
0.9315905
50
174.050934
51
179.4174954
0
ARC
8
DEFAULT_255_1_388
10
23.175961
20
68.7625382
40
0.8747493
50
179.6928582
51
188.7908948
0
ARC
8
DEFAULT_255_1_388
10
22.876341
20
68.7146086
40
0.5713262
50
188.6328449
51
202.5630732
0
ARC
8
DEFAULT_255_1_388
10
22.7352247
20
68.6579142
40
0.4192612
50
202.8078931
51
216.1195888
0
ARC
8
DEFAULT_255_1_388
10
22.6441764
20
68.5846479
40
0.3025752
50
215.0755613
51
264.6379773
0
ARC
8
DEFAULT_255_1_388
10
22.6584601
20
68.6781376
40
0.3970284
50
263.8464302
51
270.0830805
0
ARC
8
DEFAULT_255_1_388
10
22.6631146
20
68.6490808
40
0.3679937
50
269.3649295
51
287.5149684
0
ARC
8
DEFAULT_255_1_388
10
22.6831587
20
68.5762714
40
0.2925408
50
288.0629019
51
323.8115617
0
ARC
8
DEFAULT_255_1_388
10
22.5851563
20
68.6493754
40
0.4148018
50
323.6546541
51
342.6591359
0
ARC
8
DEFAULT_255_1_388
10
22.3566221
20
68.723728
40
0.6551163
50
342.4092446
51
353.6451501
0
ARC
8
DEFAULT_255_1_388
10
22.0381014
20
68.7633565
40
0.9760748
50
353.4027553
51
359.4846611
0
LINE
8
DEFAULT_255_1_388
10
24.2285273
20
68.929869
11
24.2285273
21
68.7130135
0
LINE
8
DEFAULT_255_1_388
10
23.3981516
20
68.6904244
11
23.3981516
21
68.9136048
0
LINE
8
DEFAULT_255_1_388
10
24.0613679
20
68.6678353
11
24.0613679
21
68.9416153
0
LINE
8
DEFAULT_255_1_388
10
23.565311
20
68.9542652
11
23.565311
21
68.6868102
0
ARC
8
DEFAULT_255_1_388
10
22.8507607
20
68.7075118
40
1.3777776
50
353.8440855
51
0.2287917
0
ARC
8
DEFAULT_255_1_388
10
23.3726624
20
68.6492414
40
0.852639
50
344.4934746
51
353.9763743
0
ARC
8
DEFAULT_255_1_388
10
23.7093432
20
68.5535191
40
0.5026273
50
329.2803599
51
344.7473406
0
ARC
8
DEFAULT_255_1_388
10
23.8208927
20
68.4923038
40
0.3754848
50
324.9361395
51
328.6153007
0
ARC
8
DEFAULT_255_1_388
10
23.8634577
20
68.4625586
40
0.3235566
50
280.5801797
51
324.9173226
0
ARC
8
DEFAULT_255_1_388
10
23.8183206
20
68.6505236
40
0.5167077
50
269.5979457
51
281.6732777
0
ARC
8
DEFAULT_255_1_388
10
23.8102109
20
68.6370113
40
0.5032026
50
256.6228565
51
270.5105488
0
ARC
8
DEFAULT_255_1_388
10
23.7649852
20
68.4628345
40
0.3233092
50
215.8618351
51
257.2787793
0
ARC
8
DEFAULT_255_1_388
10
23.8798559
20
68.5399106
40
0.4615831
50
197.9695203
51
215.2622745
0
ARC
8
DEFAULT_255_1_388
10
24.1594235
20
68.6342641
40
0.7566307
50
187.8816486
51
198.2346584
0
ARC
8
DEFAULT_255_1_388
10
24.6047473
20
68.6985453
40
1.2065653
50
180.8977266
51
188.0054894
0
ARC
8
DEFAULT_255_1_388
10
24.9097687
20
68.71004
40
1.5117443
50
180.7434591
51
181.152202
0
ARC
8
DEFAULT_255_1_388
10
24.7422682
20
68.9190371
40
1.3441277
50
173.7674302
51
180.2315596
0
ARC
8
DEFAULT_255_1_388
10
24.2340551
20
68.9764779
40
0.8326847
50
164.3058537
51
173.9000553
0
ARC
8
DEFAULT_255_1_388
10
23.9064551
20
69.0708652
40
0.4917711
50
148.7922028
51
164.5682288
0
ARC
8
DEFAULT_255_1_388
10
23.7995289
20
69.1305457
40
0.3694204
50
144.5883979
51
148.1161588
0
ARC
8
DEFAULT_255_1_388
10
23.7608034
20
69.1575667
40
0.322202
50
101.6440149
51
144.5142619
0
ARC
8
DEFAULT_255_1_388
10
23.8086226
20
68.9675337
40
0.5180451
50
89.528284
51
102.5820197
0
ARC
8
DEFAULT_255_1_388
10
23.8175218
20
68.9631376
40
0.5224441
50
77.0437914
51
90.508231
0
ARC
8
DEFAULT_255_1_388
10
23.8627472
20
69.1479272
40
0.3322297
50
48.2777708
51
77.4996087
0
ARC
8
DEFAULT_255_1_388
10
23.8709212
20
69.1624557
40
0.315966
50
36.3141586
51
47.6307332
0
ARC
8
DEFAULT_255_1_388
10
23.7731934
20
69.0966159
40
0.4337313
50
18.2931065
51
35.6770203
0
ARC
8
DEFAULT_255_1_388
10
23.4870775
20
68.9984107
40
0.7362203
50
8.0246996
51
18.5605636
0
ARC
8
DEFAULT_255_1_388
10
23.018713
20
68.9292432
40
1.2096583
50
1.127539
51
8.1718423
0
ARC
8
DEFAULT_255_1_388
10
22.6538264
20
68.9149374
40
1.5747719
50
0.5432713
51
1.38669
0
ARC
8
DEFAULT_255_1_388
10
22.8595643
20
68.9456163
40
1.2018103
50
359.8092569
51
4.9408001
0
ARC
8
DEFAULT_255_1_388
10
23.3332224
20
68.98789
40
0.7262727
50
4.8364937
51
12.2906017
0
ARC
8
DEFAULT_255_1_388
10
23.6431689
20
69.0569485
40
0.4087324
50
12.0806994
51
23.8171225
0
ARC
8
DEFAULT_255_1_388
10
23.7752085
20
69.1128508
40
0.2653719
50
24.2874621
51
31.3934353
0
ARC
8
DEFAULT_255_1_388
10
23.834252
20
69.1514822
40
0.1948607
50
30.7407708
51
82.4658033
0
ARC
8
DEFAULT_255_1_388
10
23.8140181
20
69.0521017
40
0.2961198
50
81.1057101
51
90.2187368
0
ARC
8
DEFAULT_255_1_388
10
23.8099993
20
69.0811421
40
0.2670929
50
89.380395
51
105.6763916
0
ARC
8
DEFAULT_255_1_388
10
23.7893715
20
69.156132
40
0.1893189
50
105.7980655
51
149.7387869
0
ARC
8
DEFAULT_255_1_388
10
23.9090855
20
69.0841719
40
0.3289892
50
149.4208441
51
163.628295
0
ARC
8
DEFAULT_255_1_388
10
24.1443085
20
69.0124345
40
0.5749004
50
163.3764549
51
172.141138
0
ARC
8
DEFAULT_255_1_388
10
24.5155806
20
68.9592582
40
0.9499585
50
172.0258462
51
178.0705453
0
ARC
8
DEFAULT_255_1_388
10
24.8577359
20
68.9430682
40
1.2924734
50
177.8639301
51
179.5036263
0
ARC
8
DEFAULT_255_1_388
10
24.7358378
20
68.6827151
40
1.170534
50
179.7995545
51
185.246089
0
ARC
8
DEFAULT_255_1_388
10
24.2809971
20
68.6396404
40
0.7136613
50
185.1411911
51
193.0082205
0
ARC
8
DEFAULT_255_1_388
10
23.9836232
20
68.5693441
40
0.4080987
50
192.7897338
51
205.2507384
0
ARC
8
DEFAULT_255_1_388
10
23.8658442
20
68.5167538
40
0.2791522
50
205.8001921
51
211.2545876
0
ARC
8
DEFAULT_255_1_388
10
23.8069981
20
68.4773132
40
0.2084074
50
210.3789935
51
238.4007996
0
ARC
8
DEFAULT_255_1_388
10
23.8048067
20
68.4825786
40
0.2117943
50
239.6521916
51
265.9793852
0
ARC
8
DEFAULT_255_1_388
10
23.8143916
20
68.5582358
40
0.2879689
50
265.1324455
51
270.0603288
0
ARC
8
DEFAULT_255_1_388
10
23.8176293
20
68.5217418
40
0.2514919
50
269.3314378
51
287.2180039
0
ARC
8
DEFAULT_255_1_388
10
23.8331375
20
68.4651291
40
0.1928357
50
287.7957942
51
329.0808983
0
ARC
8
DEFAULT_255_1_388
10
23.7254132
20
68.5323651
40
0.319808
50
328.6635261
51
343.3325043
0
ARC
8
DEFAULT_255_1_388
10
23.4809591
20
68.6085195
40
0.5758408
50
343.0498092
51
351.9392499
0
ARC
8
DEFAULT_255_1_388
10
23.0908912
20
68.6660205
40
0.9701202
50
351.8071632
51
357.7957897
0
ARC
8
DEFAULT_255_1_388
10
22.7274389
20
68.6848724
40
1.3340376
50
357.5870923
51
359.2682493
0
LINE
8
DEFAULT_255_1_388
10
22.5882637
20
76.0894
11
22.4626682
21
76.4327545
0
LINE
8
DEFAULT_255_1_388
10
22.4626682
20
76.4327545
11
21.9114939
21
76.4327545
0
LINE
8
DEFAULT_255_1_388
10
21.9114939
20
76.4327545
11
21.7877056
21
76.0894
0
LINE
8
DEFAULT_255_1_388
10
21.7877056
20
76.0894
11
21.6087998
21
76.0894
0
LINE
8
DEFAULT_255_1_388
10
21.6087998
20
76.0894
11
22.1111816
21
77.4049898
0
LINE
8
DEFAULT_255_1_388
10
22.1111816
20
77.4049898
11
22.2629805
21
77.4049898
0
LINE
8
DEFAULT_255_1_388
10
22.2629805
20
77.4049898
11
22.7662659
21
76.0894
0
LINE
8
DEFAULT_255_1_388
10
22.7662659
20
76.0894
11
22.5882637
21
76.0894
0
LINE
8
DEFAULT_255_1_388
10
22.1870811
20
77.1908451
11
21.9639006
21
76.5755177
0
LINE
8
DEFAULT_255_1_388
10
21.9639006
20
76.5755177
11
22.411165
21
76.5755177
0
LINE
8
DEFAULT_255_1_388
10
22.411165
20
76.5755177
11
22.1870811
21
77.1908451
0
LINE
8
DEFAULT_255_1_388
10
23.1294988
20
77.4049898
11
23.1294988
21
76.0894
0
LINE
8
DEFAULT_255_1_388
10
23.1294988
20
76.0894
11
22.9560144
21
76.0894
0
LINE
8
DEFAULT_255_1_388
10
22.9560144
20
76.0894
11
22.9560144
21
77.4049898
0
LINE
8
DEFAULT_255_1_388
10
22.9560144
20
77.4049898
11
23.1294988
21
77.4049898
0
LINE
8
DEFAULT_255_1_388
10
24.2526294
20
77.4049898
11
24.2526294
21
77.3110191
0
LINE
8
DEFAULT_255_1_388
10
24.2526294
20
77.3110191
11
23.70778
21
76.0894
0
LINE
8
DEFAULT_255_1_388
10
23.70778
20
76.0894
11
23.5324885
21
76.0894
0
LINE
8
DEFAULT_255_1_388
10
23.5324885
20
76.0894
11
24.0755308
21
77.267648
0
LINE
8
DEFAULT_255_1_388
10
24.0755308
20
77.267648
11
23.363522
21
77.267648
0
LINE
8
DEFAULT_255_1_388
10
23.363522
20
77.267648
11
23.363522
21
77.4049898
0
LINE
8
DEFAULT_255_1_388
10
23.363522
20
77.4049898
11
24.2526294
21
77.4049898
0
LINE
8
DEFAULT_255_1_388
10
22.5882637
20
84.0269
11
22.4626682
21
84.3702545
0
LINE
8
DEFAULT_255_1_388
10
22.4626682
20
84.3702545
11
21.9114939
21
84.3702545
0
LINE
8
DEFAULT_255_1_388
10
21.9114939
20
84.3702545
11
21.7877056
21
84.0269
0
LINE
8
DEFAULT_255_1_388
10
21.7877056
20
84.0269
11
21.6087998
21
84.0269
0
LINE
8
DEFAULT_255_1_388
10
21.6087998
20
84.0269
11
22.1111816
21
85.3424898
0
LINE
8
DEFAULT_255_1_388
10
22.1111816
20
85.3424898
11
22.2629805
21
85.3424898
0
LINE
8
DEFAULT_255_1_388
10
22.2629805
20
85.3424898
11
22.7662659
21
84.0269
0
LINE
8
DEFAULT_255_1_388
10
22.7662659
20
84.0269
11
22.5882637
21
84.0269
0
LINE
8
DEFAULT_255_1_388
10
22.1870811
20
85.1283451
11
21.9639006
21
84.5130177
0
LINE
8
DEFAULT_255_1_388
10
21.9639006
20
84.5130177
11
22.411165
21
84.5130177
0
LINE
8
DEFAULT_255_1_388
10
22.411165
20
84.5130177
11
22.1870811
21
85.1283451
0
LINE
8
DEFAULT_255_1_388
10
23.1294988
20
85.3424898
11
23.1294988
21
84.0269
0
LINE
8
DEFAULT_255_1_388
10
23.1294988
20
84.0269
11
22.9560144
21
84.0269
0
LINE
8
DEFAULT_255_1_388
10
22.9560144
20
84.0269
11
22.9560144
21
85.3424898
0
LINE
8
DEFAULT_255_1_388
10
22.9560144
20
85.3424898
11
23.1294988
21
85.3424898
0
LINE
8
DEFAULT_255_1_388
10
24.029449
20
85.3433934
11
24.0592666
21
85.3433934
0
LINE
8
DEFAULT_255_1_388
10
24.0592666
20
85.3433934
11
24.0592666
21
85.2015338
0
LINE
8
DEFAULT_255_1_388
10
24.0592666
20
85.2015338
11
24.0285454
21
85.2015338
0
LINE
8
DEFAULT_255_1_388
10
23.413218
20
84.5274747
11
23.413218
21
84.5916278
0
LINE
8
DEFAULT_255_1_388
10
23.581281
20
84.5699422
11
23.581281
21
84.5084999
0
ARC
8
DEFAULT_255_1_388
10
24.0344346
20
84.6392826
40
0.562282
50
90.6001079
51
104.5146616
0
ARC
8
DEFAULT_255_1_388
10
23.9907305
20
84.80181
40
0.3939917
50
104.2855758
51
133.8630124
0
ARC
8
DEFAULT_255_1_388
10
24.0091558
20
84.7896243
40
0.4155734
50
134.5304124
51
161.6210222
0
ARC
8
DEFAULT_255_1_388
10
24.195149
20
84.7240421
40
0.6127682
50
161.2850533
51
174.2074364
0
ARC
8
DEFAULT_255_1_388
10
24.3541057
20
84.7021437
40
0.7731446
50
173.7817938
51
174.9251711
0
ARC
8
DEFAULT_255_1_388
10
23.841525
20
84.546627
40
0.3412588
50
95.8332067
51
138.995412
0
ARC
8
DEFAULT_255_1_388
10
23.8666531
20
84.4027695
40
0.4870358
50
89.8755506
51
97.0540979
0
ARC
8
DEFAULT_255_1_388
10
23.871992
20
84.4967841
40
0.3930432
50
71.6407016
51
90.6240821
0
ARC
8
DEFAULT_255_1_388
10
23.8889313
20
84.5591433
40
0.3285421
50
39.6368051
51
71.0190743
0
ARC
8
DEFAULT_255_1_388
10
23.8173221
20
84.4972586
40
0.4231706
50
10.6588054
51
39.9044509
0
ARC
8
DEFAULT_255_1_388
10
23.6431767
20
84.4594223
40
0.60133
50
359.6827842
51
11.1326896
0
ARC
8
DEFAULT_255_1_388
10
23.6387102
20
84.4514715
40
0.6058047
50
347.2485908
51
0.4371098
0
ARC
8
DEFAULT_255_1_388
10
23.8262888
20
84.4063379
40
0.4128987
50
318.1408565
51
347.6118497
0
ARC
8
DEFAULT_255_1_388
10
23.8628484
20
84.3762903
40
0.3656244
50
275.6342406
51
317.824739
0
ARC
8
DEFAULT_255_1_388
10
23.8380005
20
84.5224827
40
0.513655
50
269.8872513
51
276.7916069
0
ARC
8
DEFAULT_255_1_388
10
23.8318198
20
84.4071181
40
0.398323
50
246.9139443
51
270.7436787
0
ARC
8
DEFAULT_255_1_388
10
23.8325394
20
84.3911044
40
0.3839368
50
218.1665534
51
245.8780431
0
ARC
8
DEFAULT_255_1_388
10
23.9314766
20
84.4738903
40
0.5128958
50
191.4115343
51
218.6077624
0
ARC
8
DEFAULT_255_1_388
10
24.1495082
20
84.5227777
40
0.7363054
50
179.6344971
51
191.7836758
0
ARC
8
DEFAULT_255_1_388
10
24.7774957
20
84.5991495
40
1.3642984
50
171.4523743
51
180.3158856
0
ARC
8
DEFAULT_255_1_388
10
24.2830684
20
84.6760895
40
0.8639311
50
157.9802296
51
171.6246761
0
ARC
8
DEFAULT_255_1_388
10
24.0340034
20
84.7754038
40
0.5958004
50
141.4299236
51
157.8541251
0
ARC
8
DEFAULT_255_1_388
10
23.9618118
20
84.8264746
40
0.5075416
50
102.871586
51
140.8564533
0
ARC
8
DEFAULT_255_1_388
10
24.034667
20
84.5519943
40
0.7914163
50
90.377773
51
103.5868422
0
ARC
8
DEFAULT_255_1_388
10
23.8391192
20
84.4839543
40
0.2667015
50
89.8751238
51
126.2072139
0
ARC
8
DEFAULT_255_1_388
10
23.8442663
20
84.4665847
40
0.2838229
50
124.9742447
51
144.8960197
0
ARC
8
DEFAULT_255_1_388
10
23.8244908
20
84.4826981
40
0.2583845
50
145.2974778
51
160.2660922
0
ARC
8
DEFAULT_255_1_388
10
24.1701396
20
84.5049151
40
0.5888695
50
179.6512124
51
190.285571
0
ARC
8
DEFAULT_255_1_388
10
23.9795876
20
84.4689968
40
0.3949683
50
190.0944895
51
207.5099647
0
ARC
8
DEFAULT_255_1_388
10
23.9159457
20
84.4387177
40
0.3245464
50
207.9585471
51
216.325377
0
ARC
8
DEFAULT_255_1_388
10
23.8777095
20
84.4072712
40
0.2751259
50
215.7661336
51
232.5457193
0
ARC
8
DEFAULT_255_1_388
10
23.834621
20
84.3525273
40
0.2054668
50
232.8005815
51
270.6605497
0
ARC
8
DEFAULT_255_1_388
10
23.8397635
20
84.3934853
40
0.2464268
50
269.3550767
51
288.474612
0
ARC
8
DEFAULT_255_1_388
10
23.8502142
20
84.3541721
40
0.2058436
50
289.1831976
51
322.9685307
0
ARC
8
DEFAULT_255_1_388
10
23.7814243
20
84.4084279
40
0.2934408
50
322.6007085
51
346.5183319
0
ARC
8
DEFAULT_255_1_388
10
23.6511999
20
84.4416434
40
0.4278249
50
346.2584622
51
358.7739592
0
ARC
8
DEFAULT_255_1_388
10
23.5360575
20
84.4478829
40
0.5430876
50
358.3757628
51
0.0082477
0
ARC
8
DEFAULT_255_1_388
10
23.6217393
20
84.4509856
40
0.4574157
50
359.6211417
51
11.28403
0
ARC
8
DEFAULT_255_1_388
10
23.7653999
20
84.4809535
40
0.3106708
50
11.0483152
51
31.8145585
0
ARC
8
DEFAULT_255_1_388
10
23.8001705
20
84.4998045
40
0.2711963
50
32.3028554
51
38.0820598
0
ARC
8
DEFAULT_255_1_388
10
23.8474938
20
84.5426717
40
0.2075566
50
36.8249851
51
85.741667
0
ARC
8
DEFAULT_255_1_388
10
23.839935
20
84.4863065
40
0.2643487
50
85.0150021
51
90.050843
0
LINE
8
DEFAULT_255_1_388
10
22.5882637
20
91.9644
11
22.4626682
21
92.3077545
0
LINE
8
DEFAULT_255_1_388
10
22.4626682
20
92.3077545
11
21.9114939
21
92.3077545
0
LINE
8
DEFAULT_255_1_388
10
21.9114939
20
92.3077545
11
21.7877056
21
91.9644
0
LINE
8
DEFAULT_255_1_388
10
21.7877056
20
91.9644
11
21.6087998
21
91.9644
0
LINE
8
DEFAULT_255_1_388
10
21.6087998
20
91.9644
11
22.1111816
21
93.2799898
0
LINE
8
DEFAULT_255_1_388
10
22.1111816
20
93.2799898
11
22.2629805
21
93.2799898
0
LINE
8
DEFAULT_255_1_388
10
22.2629805
20
93.2799898
11
22.7662659
21
91.9644
0
LINE
8
DEFAULT_255_1_388
10
22.7662659
20
91.9644
11
22.5882637
21
91.9644
0
LINE
8
DEFAULT_255_1_388
10
22.1870811
20
93.0658451
11
21.9639006
21
92.4505177
0
LINE
8
DEFAULT_255_1_388
10
21.9639006
20
92.4505177
11
22.411165
21
92.4505177
0
LINE
8
DEFAULT_255_1_388
10
22.411165
20
92.4505177
11
22.1870811
21
93.0658451
0
LINE
8
DEFAULT_255_1_388
10
23.1294988
20
93.2799898
11
23.1294988
21
91.9644
0
LINE
8
DEFAULT_255_1_388
10
23.1294988
20
91.9644
11
22.9560144
21
91.9644
0
LINE
8
DEFAULT_255_1_388
10
22.9560144
20
91.9644
11
22.9560144
21
93.2799898
0
LINE
8
DEFAULT_255_1_388
10
22.9560144
20
93.2799898
11
23.1294988
21
93.2799898
0
LINE
8
DEFAULT_255_1_388
10
23.6138093
20
92.5896666
11
23.4800818
21
92.6240021
0
LINE
8
DEFAULT_255_1_388
10
23.4800818
20
92.6240021
11
23.5469456
21
93.2799898
0
LINE
8
DEFAULT_255_1_388
10
23.5469456
20
93.2799898
11
24.2210046
21
93.2799898
0
LINE
8
DEFAULT_255_1_388
10
24.2210046
20
93.2799898
11
24.2210046
21
93.1254803
0
LINE
8
DEFAULT_255_1_388
10
24.2210046
20
93.1254803
11
23.6888052
21
93.1254803
0
LINE
8
DEFAULT_255_1_388
10
23.6888052
20
93.1254803
11
23.6490483
21
92.7667652
0
LINE
8
DEFAULT_255_1_388
10
23.4330964
20
92.3104652
11
23.5912202
21
92.3104652
0
LINE
8
DEFAULT_255_1_388
10
23.658084
20
92.6258092
11
23.6138093
21
92.5896666
0
ARC
8
DEFAULT_255_1_388
10
23.8577097
20
92.4090241
40
0.4141476
50
93.7181681
51
120.253934
0
ARC
8
DEFAULT_255_1_388
10
23.8683149
20
92.3181284
40
0.5055616
50
89.9660471
51
94.2495185
0
ARC
8
DEFAULT_255_1_388
10
23.8728971
20
92.3844154
40
0.4392953
50
73.8045384
51
90.5585736
0
ARC
8
DEFAULT_255_1_388
10
23.8993229
20
92.480952
40
0.3392225
50
41.3071072
51
73.543002
0
ARC
8
DEFAULT_255_1_388
10
23.8525049
20
92.4406461
40
0.4009977
50
13.5075837
51
41.2174839
0
ARC
8
DEFAULT_255_1_388
10
23.6678146
20
92.3922907
40
0.5918864
50
1.1330171
51
13.8830737
0
ARC
8
DEFAULT_255_1_388
10
23.5081792
20
92.3837522
40
0.7516787
50
359.9925091
51
1.5431298
0
ARC
8
DEFAULT_255_1_388
10
23.6526407
20
92.3791027
40
0.6072343
50
347.8572712
51
0.4294349
0
ARC
8
DEFAULT_255_1_388
10
23.8495542
20
92.3344898
40
0.4053482
50
323.6727442
51
348.1674594
0
ARC
8
DEFAULT_255_1_388
10
23.8826506
20
92.3143175
40
0.3667495
50
316.8171818
51
323.1486802
0
ARC
8
DEFAULT_255_1_388
10
23.889563
20
92.3101612
40
0.358869
50
281.839603
51
316.5458142
0
ARC
8
DEFAULT_255_1_388
10
23.8472917
20
92.4851363
40
0.5388223
50
269.5770964
51
282.4214641
0
ARC
8
DEFAULT_255_1_388
10
23.8392838
20
92.461093
40
0.5147801
50
256.2425863
51
270.4486481
0
ARC
8
DEFAULT_255_1_388
10
23.8056366
20
92.3261124
40
0.3756708
50
228.9024379
51
256.33135
0
ARC
8
DEFAULT_255_1_388
10
23.7973346
20
92.3130054
40
0.360344
50
193.7536029
51
228.5272638
0
ARC
8
DEFAULT_255_1_388
10
23.9365911
20
92.3538463
40
0.5053599
50
184.9244437
51
194.4976052
0
ARC
8
DEFAULT_255_1_388
10
23.9582552
20
92.3578722
40
0.3700839
50
187.3596909
51
198.6733728
0
ARC
8
DEFAULT_255_1_388
10
23.8401796
20
92.3169373
40
0.2451195
50
198.4453795
51
217.7945479
0
ARC
8
DEFAULT_255_1_388
10
23.8068968
20
92.2933563
40
0.2043754
50
218.2887146
51
228.5613203
0
ARC
8
DEFAULT_255_1_388
10
23.8178975
20
92.3081902
40
0.2227819
50
228.9652423
51
258.1237049
0
ARC
8
DEFAULT_255_1_388
10
23.8410412
20
92.4072964
40
0.3245374
50
257.7260585
51
270.4013717
0
ARC
8
DEFAULT_255_1_388
10
23.846091
20
92.3572255
40
0.2744726
50
269.4204315
51
286.420998
0
ARC
8
DEFAULT_255_1_388
10
23.8627966
20
92.2965705
40
0.2115721
50
286.7250065
51
320.6004665
0
ARC
8
DEFAULT_255_1_388
10
23.8196882
20
92.3315527
40
0.2670878
50
320.6712228
51
344.5440474
0
ARC
8
DEFAULT_255_1_388
10
23.6895596
20
92.3697394
40
0.4026927
50
344.241448
51
356.735803
0
ARC
8
DEFAULT_255_1_388
10
23.5491903
20
92.3813656
40
0.5435085
50
356.3547471
51
0.0507222
0
ARC
8
DEFAULT_255_1_388
10
23.6994168
20
92.3848812
40
0.3932934
50
359.5579289
51
12.9534322
0
ARC
8
DEFAULT_255_1_388
10
23.8181008
20
92.4136586
40
0.2711827
50
12.6489751
51
41.608121
0
ARC
8
DEFAULT_255_1_388
10
23.8440168
20
92.4356946
40
0.2371737
50
41.7851122
51
85.9892156
0
ARC
8
DEFAULT_255_1_388
10
23.8301478
20
92.3441738
40
0.3295244
50
84.6965848
51
90.0672125
0
ARC
8
DEFAULT_255_1_388
10
23.8275045
20
92.2690118
40
0.4046926
50
89.6804991
51
99.161352
0
ARC
8
DEFAULT_255_1_388
10
23.8044055
20
92.4070848
40
0.2647044
50
98.9836248
51
113.8905702
0
ARC
8
DEFAULT_255_1_388
10
23.7785729
20
92.4680118
40
0.1985386
50
114.195234
51
127.3641866
0
LINE
8
DEFAULT_255_1_388
10
22.4559637
20
99.9019
11
22.3303682
21
100.2452545
0
LINE
8
DEFAULT_255_1_388
10
22.3303682
20
100.2452545
11
21.7791939
21
100.2452545
0
LINE
8
DEFAULT_255_1_388
10
21.7791939
20
100.2452545
11
21.6554056
21
99.9019
0
LINE
8
DEFAULT_255_1_388
10
21.6554056
20
99.9019
11
21.4764998
21
99.9019
0
LINE
8
DEFAULT_255_1_388
10
21.4764998
20
99.9019
11
21.9788816
21
101.2174898
0
LINE
8
DEFAULT_255_1_388
10
21.9788816
20
101.2174898
11
22.1306805
21
101.2174898
0
LINE
8
DEFAULT_255_1_388
10
22.1306805
20
101.2174898
11
22.6339659
21
99.9019
0
LINE
8
DEFAULT_255_1_388
10
22.6339659
20
99.9019
11
22.4559637
21
99.9019
0
LINE
8
DEFAULT_255_1_388
10
22.0547811
20
101.0033451
11
21.8316006
21
100.3880177
0
LINE
8
DEFAULT_255_1_388
10
21.8316006
20
100.3880177
11
22.278865
21
100.3880177
0
LINE
8
DEFAULT_255_1_388
10
22.278865
20
100.3880177
11
22.0547811
21
101.0033451
0
LINE
8
DEFAULT_255_1_388
10
22.9971988
20
101.2174898
11
22.9971988
21
99.9019
0
LINE
8
DEFAULT_255_1_388
10
22.9971988
20
99.9019
11
22.8237144
21
99.9019
0
LINE
8
DEFAULT_255_1_388
10
22.8237144
20
99.9019
11
22.8237144
21
101.2174898
0
LINE
8
DEFAULT_255_1_388
10
22.8237144
20
101.2174898
11
22.9971988
21
101.2174898
0
LINE
8
DEFAULT_255_1_388
10
23.9766626
20
101.2174898
11
23.9766626
21
100.343743
0
LINE
8
DEFAULT_255_1_388
10
23.9766626
20
100.343743
11
24.1591827
21
100.343743
0
LINE
8
DEFAULT_255_1_388
10
24.1591827
20
100.343743
11
24.1591827
21
100.2073048
0
LINE
8
DEFAULT_255_1_388
10
24.1591827
20
100.2073048
11
23.9766626
21
100.2073048
0
LINE
8
DEFAULT_255_1_388
10
23.9766626
20
100.2073048
11
23.9766626
21
99.9019
0
LINE
8
DEFAULT_255_1_388
10
23.9766626
20
99.9019
11
23.8085997
21
99.9019
0
LINE
8
DEFAULT_255_1_388
10
23.8085997
20
99.9019
11
23.8085997
21
100.2073048
0
LINE
8
DEFAULT_255_1_388
10
23.8085997
20
100.2073048
11
23.2095364
21
100.2073048
0
LINE
8
DEFAULT_255_1_388
10
23.2095364
20
100.2073048
11
23.2095364
21
100.3057933
0
LINE
8
DEFAULT_255_1_388
10
23.2095364
20
100.3057933
11
23.7986604
21
101.2174898
0
LINE
8
DEFAULT_255_1_388
10
23.7986604
20
101.2174898
11
23.9766626
21
101.2174898
0
LINE
8
DEFAULT_255_1_388
10
23.7887212
20
100.9527455
11
23.399285
21
100.343743
0
LINE
8
DEFAULT_255_1_388
10
23.399285
20
100.343743
11
23.8085997
21
100.343743
0
LINE
8
DEFAULT_255_1_388
10
23.8085997
20
100.343743
11
23.8085997
21
100.988888
0
LINE
8
DEFAULT_255_1_388
10
23.8085997
20
100.988888
11
23.7887212
21
100.9527455
0
LINE
8
DEFAULT_255_1_388
10
22.5882637
20
107.8394
11
22.4626682
21
108.1827545
0
LINE
8
DEFAULT_255_1_388
10
22.4626682
20
108.1827545
11
21.9114939
21
108.1827545
0
LINE
8
DEFAULT_255_1_388
10
21.9114939
20
108.1827545
11
21.7877056
21
107.8394
0
LINE
8
DEFAULT_255_1_388
10
21.7877056
20
107.8394
11
21.6087998
21
107.8394
0
LINE
8
DEFAULT_255_1_388
10
21.6087998
20
107.8394
11
22.1111816
21
109.1549898
0
LINE
8
DEFAULT_255_1_388
10
22.1111816
20
109.1549898
11
22.2629805
21
109.1549898
0
LINE
8
DEFAULT_255_1_388
10
22.2629805
20
109.1549898
11
22.7662659
21
107.8394
0
LINE
8
DEFAULT_255_1_388
10
22.7662659
20
107.8394
11
22.5882637
21
107.8394
0
LINE
8
DEFAULT_255_1_388
10
22.1870811
20
108.9408451
11
21.9639006
21
108.3255177
0
LINE
8
DEFAULT_255_1_388
10
21.9639006
20
108.3255177
11
22.411165
21
108.3255177
0
LINE
8
DEFAULT_255_1_388
10
22.411165
20
108.3255177
11
22.1870811
21
108.9408451
0
LINE
8
DEFAULT_255_1_388
10
23.1294988
20
109.1549898
11
23.1294988
21
107.8394
0
LINE
8
DEFAULT_255_1_388
10
23.1294988
20
107.8394
11
22.9560144
21
107.8394
0
LINE
8
DEFAULT_255_1_388
10
22.9560144
20
107.8394
11
22.9560144
21
109.1549898
0
LINE
8
DEFAULT_255_1_388
10
22.9560144
20
109.1549898
11
23.1294988
21
109.1549898
0
LINE
8
DEFAULT_255_1_388
10
23.6463376
20
108.4420775
11
23.6463376
21
108.5785157
0
LINE
8
DEFAULT_255_1_388
10
23.6463376
20
108.5785157
11
23.7719331
21
108.5785157
0
LINE
8
DEFAULT_255_1_388
10
23.5577883
20
108.8098282
11
23.3906289
21
108.8098282
0
LINE
8
DEFAULT_255_1_388
10
23.3788826
20
108.1863688
11
23.5469456
21
108.1863688
0
LINE
8
DEFAULT_255_1_388
10
23.7719331
20
108.4420775
11
23.6463376
21
108.4420775
0
ARC
8
DEFAULT_255_1_388
10
23.7686558
20
108.9601922
40
0.3816905
50
270.491971
51
281.8953028
0
ARC
8
DEFAULT_255_1_388
10
23.7957985
20
108.8362199
40
0.2547877
50
281.6690378
51
301.2943765
0
ARC
8
DEFAULT_255_1_388
10
23.8149436
20
108.8011926
40
0.2149197
50
301.7834992
51
311.754567
0
ARC
8
DEFAULT_255_1_388
10
23.8252477
20
108.789765
40
0.1995326
50
311.7325027
51
354.2803031
0
ARC
8
DEFAULT_255_1_388
10
23.7434893
20
108.803828
40
0.2823461
50
353.0941646
51
0.1174696
0
ARC
8
DEFAULT_255_1_388
10
23.6916451
20
108.8091874
40
0.3342238
50
359.1804452
51
15.0452323
0
ARC
8
DEFAULT_255_1_388
10
23.8430509
20
108.8533546
40
0.1765747
50
13.957816
51
77.6713812
0
ARC
8
DEFAULT_255_1_388
10
23.7995745
20
108.6975464
40
0.3381982
50
76.111571
51
90.7028736
0
ARC
8
DEFAULT_255_1_388
10
23.7929157
20
108.728325
40
0.3074046
50
89.5321574
51
103.5319393
0
ARC
8
DEFAULT_255_1_388
10
23.7703541
20
108.8182443
40
0.2147041
50
103.2930114
51
133.5619756
0
ARC
8
DEFAULT_255_1_388
10
23.7653482
20
108.8249351
40
0.2064084
50
133.8349761
51
173.5343225
0
ARC
8
DEFAULT_255_1_388
10
23.846714
20
108.8105144
40
0.2889266
50
172.5097183
51
180.1360699
0
ARC
8
DEFAULT_255_1_388
10
23.7396904
20
108.814388
40
0.3490913
50
155.3483706
51
180.7484035
0
ARC
8
DEFAULT_255_1_388
10
23.734188
20
108.8111519
40
0.3454798
50
131.5745177
51
154.4799474
0
ARC
8
DEFAULT_255_1_388
10
23.7694162
20
108.7755422
40
0.3955058
50
96.9874487
51
131.9690874
0
ARC
8
DEFAULT_255_1_388
10
23.7941055
20
108.6354407
40
0.537622
50
89.8592909
51
97.7827481
0
ARC
8
DEFAULT_255_1_388
10
23.7995164
20
108.605936
40
0.5671399
50
78.3654493
51
90.4132586
0
ARC
8
DEFAULT_255_1_388
10
23.8397805
20
108.7925918
40
0.3762034
50
56.6229818
51
78.6387103
0
ARC
8
DEFAULT_255_1_388
10
23.8639634
20
108.8348846
40
0.3275964
50
47.0254604
51
56.085558
0
ARC
8
DEFAULT_255_1_388
10
23.8661885
20
108.8393189
40
0.3228382
50
10.9207523
51
46.777927
0
ARC
8
DEFAULT_255_1_388
10
23.7127479
20
108.8038401
40
0.4802559
50
359.6364235
51
11.6087615
0
ARC
8
DEFAULT_255_1_388
10
23.9191645
20
108.8021404
40
0.273833
50
332.3549969
51
359.7179765
0
ARC
8
DEFAULT_255_1_388
10
23.8460045
20
108.8368285
40
0.3547505
50
325.2332381
51
332.8746682
0
ARC
8
DEFAULT_255_1_388
10
23.8631628
20
108.8248763
40
0.3338396
50
292.9803892
51
325.2391113
0
ARC
8
DEFAULT_255_1_388
10
23.8320824
20
108.8853679
40
0.4016959
50
292.542178
51
293.6931461
0
ARC
8
DEFAULT_255_1_388
10
23.8764396
20
108.1588036
40
0.372079
50
57.643292
51
72.8626085
0
ARC
8
DEFAULT_255_1_388
10
23.9163231
20
108.2234273
40
0.2961455
50
36.7246661
51
57.4701329
0
ARC
8
DEFAULT_255_1_388
10
23.9150387
20
108.224847
40
0.2963321
50
8.054535
51
36.3561529
0
ARC
8
DEFAULT_255_1_388
10
23.818006
20
108.2074073
40
0.3948682
50
359.8316595
51
8.5873361
0
ARC
8
DEFAULT_255_1_388
10
23.7757534
20
108.201997
40
0.4371398
50
343.9831631
51
0.557075
0
ARC
8
DEFAULT_255_1_388
10
23.8754584
20
108.1746963
40
0.3337749
50
311.6358204
51
343.7652116
0
ARC
8
DEFAULT_255_1_388
10
23.8328837
20
108.2226955
40
0.3979351
50
279.7829743
51
311.625622
0
ARC
8
DEFAULT_255_1_388
10
23.7989973
20
108.3843642
40
0.5630417
50
269.7285092
51
280.3857694
0
ARC
8
DEFAULT_255_1_388
10
23.7920286
20
108.3797241
40
0.5584119
50
256.6827433
51
270.4412869
0
ARC
8
DEFAULT_255_1_388
10
23.7539272
20
108.2239698
40
0.3980715
50
229.4223821
51
256.8554507
0
ARC
8
DEFAULT_255_1_388
10
23.7072825
20
108.1714683
40
0.3278564
50
181.8183354
51
229.6455015
0
ARC
8
DEFAULT_255_1_388
10
23.8242435
20
108.1861825
40
0.4453611
50
179.9760419
51
183.2330638
0
ARC
8
DEFAULT_255_1_388
10
23.8048987
20
108.1838781
40
0.2579652
50
179.4467996
51
196.2871626
0
ARC
8
DEFAULT_255_1_388
10
23.7500441
20
108.1688709
40
0.2011057
50
196.5661293
51
227.7059371
0
ARC
8
DEFAULT_255_1_388
10
23.7685048
20
108.1895155
40
0.2287994
50
227.7653015
51
257.8763321
0
ARC
8
DEFAULT_255_1_388
10
23.7938131
20
108.2955961
40
0.3378385
50
257.4583525
51
270.4267406
0
ARC
8
DEFAULT_255_1_388
10
23.7989381
20
108.328223
40
0.3704652
50
269.5965319
51
280.8788143
0
ARC
8
DEFAULT_255_1_388
10
23.8247609
20
108.1992529
40
0.2389415
50
280.6347277
51
299.8594068
0
ARC
8
DEFAULT_255_1_388
10
23.8462379
20
108.1584736
40
0.19289
50
300.3575552
51
314.5515667
0
ARC
8
DEFAULT_255_1_388
10
23.8369054
20
108.1653025
40
0.204312
50
315.0730962
51
345.0429362
0
ARC
8
DEFAULT_255_1_388
10
23.7330562
20
108.1955539
40
0.31246
50
344.598526
51
357.9270698
0
ARC
8
DEFAULT_255_1_388
10
23.6320867
20
108.2024705
40
0.4136265
50
357.4755098
51
0.0224936
0
ARC
8
DEFAULT_255_1_388
10
23.7473744
20
108.2052099
40
0.2983498
50
359.5051035
51
13.4236939
0
ARC
8
DEFAULT_255_1_388
10
23.8448834
20
108.2301637
40
0.1977186
50
12.9497905
51
48.7550905
0
ARC
8
DEFAULT_255_1_388
10
23.8243756
20
108.2021373
40
0.2323321
50
49.509109
51
72.1832965
0
ARC
8
DEFAULT_255_1_388
10
23.7841224
20
108.0826632
40
0.358397
50
71.9008458
51
84.3555134
0
ARC
8
DEFAULT_255_1_388
10
23.7659619
20
107.9294712
40
0.512641
50
84.019632
51
89.3326067
0
LINE
8
DEFAULT_255_1_388
10
22.5882637
20
115.7769
11
22.4626682
21
116.1202545
0
LINE
8
DEFAULT_255_1_388
10
22.4626682
20
116.1202545
11
21.9114939
21
116.1202545
0
LINE
8
DEFAULT_255_1_388
10
21.9114939
20
116.1202545
11
21.7877056
21
115.7769
0
LINE
8
DEFAULT_255_1_388
10
21.7877056
20
115.7769
11
21.6087998
21
115.7769
0
LINE
8
DEFAULT_255_1_388
10
21.6087998
20
115.7769
11
22.1111816
21
117.0924898
0
LINE
8
DEFAULT_255_1_388
10
22.1111816
20
117.0924898
11
22.2629805
21
117.0924898
0
LINE
8
DEFAULT_255_1_388
10
22.2629805
20
117.0924898
11
22.7662659
21
115.7769
0
LINE
8
DEFAULT_255_1_388
10
22.7662659
20
115.7769
11
22.5882637
21
115.7769
0
LINE
8
DEFAULT_255_1_388
10
22.1870811
20
116.8783451
11
21.9639006
21
116.2630177
0
LINE
8
DEFAULT_255_1_388
10
21.9639006
20
116.2630177
11
22.411165
21
116.2630177
0
LINE
8
DEFAULT_255_1_388
10
22.411165
20
116.2630177
11
22.1870811
21
116.8783451
0
LINE
8
DEFAULT_255_1_388
10
23.1294988
20
117.0924898
11
23.1294988
21
115.7769
0
LINE
8
DEFAULT_255_1_388
10
23.1294988
20
115.7769
11
22.9560144
21
115.7769
0
LINE
8
DEFAULT_255_1_388
10
22.9560144
20
115.7769
11
22.9560144
21
117.0924898
0
LINE
8
DEFAULT_255_1_388
10
22.9560144
20
117.0924898
11
23.1294988
21
117.0924898
0
LINE
8
DEFAULT_255_1_388
10
24.2652793
20
115.9133382
11
24.2652793
21
115.7769
0
LINE
8
DEFAULT_255_1_388
10
24.2652793
20
115.7769
11
23.4032788
21
115.7769
0
LINE
8
DEFAULT_255_1_388
10
23.4032788
20
115.7769
11
23.4032788
21
115.8970741
0
LINE
8
DEFAULT_255_1_388
10
23.4032788
20
115.8970741
11
23.8586753
21
116.4030702
0
LINE
8
DEFAULT_255_1_388
10
23.5451384
20
116.7048607
11
23.377979
21
116.7048607
0
LINE
8
DEFAULT_255_1_388
10
23.9571638
20
116.295546
11
23.6047737
21
115.9133382
0
LINE
8
DEFAULT_255_1_388
10
23.6047737
20
115.9133382
11
24.2652793
21
115.9133382
0
ARC
8
DEFAULT_255_1_388
10
22.3410812
20
117.7450983
40
2.0258655
50
318.5132526
51
320.7829045
0
ARC
8
DEFAULT_255_1_388
10
22.9358769
20
117.2609929
40
1.2589638
50
320.7372878
51
323.9739031
0
ARC
8
DEFAULT_255_1_388
10
23.3767701
20
116.9415554
40
0.7145141
50
323.8962701
51
328.64194
0
ARC
8
DEFAULT_255_1_388
10
23.6069959
20
116.7995545
40
0.4440242
50
328.8294576
51
331.7891185
0
ARC
8
DEFAULT_255_1_388
10
23.7192279
20
116.7416374
40
0.3177517
50
331.4254512
51
352.9365785
0
ARC
8
DEFAULT_255_1_388
10
23.7345279
20
116.738205
40
0.3021496
50
353.2257659
51
0.0166158
0
ARC
8
DEFAULT_255_1_388
10
23.7582039
20
116.7407894
40
0.2784847
50
359.486299
51
15.9343185
0
ARC
8
DEFAULT_255_1_388
10
23.8152306
20
116.7561269
40
0.2194403
50
16.1712913
51
43.5286088
0
ARC
8
DEFAULT_255_1_388
10
23.8239251
20
116.7648191
40
0.2071504
50
43.4417391
51
83.1661095
0
ARC
8
DEFAULT_255_1_388
10
23.8088412
20
116.6819316
40
0.2912888
50
82.160179
51
90.1505708
0
ARC
8
DEFAULT_255_1_388
10
23.8052893
20
116.6215279
40
0.3517025
50
89.5460741
51
102.5418361
0
ARC
8
DEFAULT_255_1_388
10
23.7779613
20
116.7374933
40
0.2325748
50
102.1738499
51
129.206123
0
ARC
8
DEFAULT_255_1_388
10
23.7691067
20
116.7514664
40
0.2161591
50
129.72865
51
135.753947
0
ARC
8
DEFAULT_255_1_388
10
23.7827549
20
116.7405728
40
0.2335433
50
136.1757367
51
166.3673339
0
ARC
8
DEFAULT_255_1_388
10
23.8960237
20
116.7102148
40
0.3507873
50
165.9090694
51
178.8684636
0
ARC
8
DEFAULT_255_1_388
10
23.9936009
20
116.7049263
40
0.4484624
50
178.4391136
51
180.0083808
0
ARC
8
DEFAULT_255_1_388
10
23.835671
20
116.7093197
40
0.4577138
50
163.2878482
51
180.5581842
0
ARC
8
DEFAULT_255_1_388
10
23.7454752
20
116.7341393
40
0.3641968
50
133.4540601
51
162.947111
0
ARC
8
DEFAULT_255_1_388
10
23.7655633
20
116.7127789
40
0.3935189
50
100.7869829
51
133.4382499
0
ARC
8
DEFAULT_255_1_388
10
23.8046878
20
116.5385399
40
0.5720313
50
89.660664
51
101.3702276
0
ARC
8
DEFAULT_255_1_388
10
23.8121487
20
116.5454263
40
0.5651495
50
78.2172678
51
90.412935
0
ARC
8
DEFAULT_255_1_388
10
23.8520953
20
116.7281511
40
0.378122
50
55.9269121
51
78.4888449
0
ARC
8
DEFAULT_255_1_388
10
23.8741668
20
116.7662187
40
0.3342379
50
47.929771
51
55.4049217
0
ARC
8
DEFAULT_255_1_388
10
23.8856198
20
116.7778618
40
0.3179217
50
4.334829
51
48.0560205
0
ARC
8
DEFAULT_255_1_388
10
23.7624
20
116.7587487
40
0.442341
50
359.9251713
51
5.5971671
0
ARC
8
DEFAULT_255_1_388
10
23.8106155
20
116.7650728
40
0.3941854
50
337.8914027
51
358.9967534
0
ARC
8
DEFAULT_255_1_388
10
23.5053725
20
116.8828295
40
0.7213271
50
326.9132501
51
338.3508308
0
ARC
8
DEFAULT_255_1_388
10
23.0569837
20
117.1702105
40
1.2538973
50
319.6471833
51
327.0959558
0
ARC
8
DEFAULT_255_1_388
10
22.6256495
20
117.526005
40
1.8129975
50
317.2588228
51
319.9045804
0
LINE
8
DEFAULT_255_1_388
10
22.5967637
20
123.7144
11
22.4711682
21
124.0577545
0
LINE
8
DEFAULT_255_1_388
10
22.4711682
20
124.0577545
11
21.9199939
21
124.0577545
0
LINE
8
DEFAULT_255_1_388
10
21.9199939
20
124.0577545
11
21.7962056
21
123.7144
0
LINE
8
DEFAULT_255_1_388
10
21.7962056
20
123.7144
11
21.6172998
21
123.7144
0
LINE
8
DEFAULT_255_1_388
10
21.6172998
20
123.7144
11
22.1196816
21
125.0299898
0
LINE
8
DEFAULT_255_1_388
10
22.1196816
20
125.0299898
11
22.2714805
21
125.0299898
0
LINE
8
DEFAULT_255_1_388
10
22.2714805
20
125.0299898
11
22.7747659
21
123.7144
0
LINE
8
DEFAULT_255_1_388
10
22.7747659
20
123.7144
11
22.5967637
21
123.7144
0
LINE
8
DEFAULT_255_1_388
10
22.1955811
20
124.8158451
11
21.9724006
21
124.2005177
0
LINE
8
DEFAULT_255_1_388
10
21.9724006
20
124.2005177
11
22.419665
21
124.2005177
0
LINE
8
DEFAULT_255_1_388
10
22.419665
20
124.2005177
11
22.1955811
21
124.8158451
0
LINE
8
DEFAULT_255_1_388
10
23.1379988
20
125.0299898
11
23.1379988
21
123.7144
0
LINE
8
DEFAULT_255_1_388
10
23.1379988
20
123.7144
11
22.9645144
21
123.7144
0
LINE
8
DEFAULT_255_1_388
10
22.9645144
20
123.7144
11
22.9645144
21
125.0299898
0
LINE
8
DEFAULT_255_1_388
10
22.9645144
20
125.0299898
11
23.1379988
21
125.0299898
0
LINE
8
DEFAULT_255_1_388
10
23.961146
20
125.0363148
11
23.961146
21
123.7144
0
LINE
8
DEFAULT_255_1_388
10
23.961146
20
123.7144
11
23.793083
21
123.7144
0
LINE
8
DEFAULT_255_1_388
10
23.793083
20
123.7144
11
23.793083
21
124.828495
0
LINE
8
DEFAULT_255_1_388
10
23.793083
20
124.828495
11
23.4560535
21
124.7047066
0
LINE
8
DEFAULT_255_1_388
10
23.4560535
20
124.7047066
11
23.4560535
21
124.8565055
0
LINE
8
DEFAULT_255_1_388
10
23.4560535
20
124.8565055
11
23.9349426
21
125.0363148
0
LINE
8
DEFAULT_255_1_388
10
23.9349426
20
125.0363148
11
23.961146
21
125.0363148
0
LINE
8
DEFAULT_255_1_388
10
22.5882637
20
131.6519
11
22.4626682
21
131.9952545
0
LINE
8
DEFAULT_255_1_388
10
22.4626682
20
131.9952545
11
21.9114939
21
131.9952545
0
LINE
8
DEFAULT_255_1_388
10
21.9114939
20
131.9952545
11
21.7877056
21
131.6519
0
LINE
8
DEFAULT_255_1_388
10
21.7877056
20
131.6519
11
21.6087998
21
131.6519
0
LINE
8
DEFAULT_255_1_388
10
21.6087998
20
131.6519
11
22.1111816
21
132.9674898
0
LINE
8
DEFAULT_255_1_388
10
22.1111816
20
132.9674898
11
22.2629805
21
132.9674898
0
LINE
8
DEFAULT_255_1_388
10
22.2629805
20
132.9674898
11
22.7662659
21
131.6519
0
LINE
8
DEFAULT_255_1_388
10
22.7662659
20
131.6519
11
22.5882637
21
131.6519
0
LINE
8
DEFAULT_255_1_388
10
22.1870811
20
132.7533451
11
21.9639006
21
132.1380177
0
LINE
8
DEFAULT_255_1_388
10
21.9639006
20
132.1380177
11
22.411165
21
132.1380177
0
LINE
8
DEFAULT_255_1_388
10
22.411165
20
132.1380177
11
22.1870811
21
132.7533451
0
LINE
8
DEFAULT_255_1_388
10
23.1294988
20
132.9674898
11
23.1294988
21
131.6519
0
LINE
8
DEFAULT_255_1_388
10
23.1294988
20
131.6519
11
22.9560144
21
131.6519
0
LINE
8
DEFAULT_255_1_388
10
22.9560144
20
131.6519
11
22.9560144
21
132.9674898
0
LINE
8
DEFAULT_255_1_388
10
22.9560144
20
132.9674898
11
23.1294988
21
132.9674898
0
LINE
8
DEFAULT_255_1_388
10
24.2282332
20
132.429869
11
24.2282332
21
132.2130135
0
LINE
8
DEFAULT_255_1_388
10
23.3978574
20
132.1904244
11
23.3978574
21
132.4136048
0
LINE
8
DEFAULT_255_1_388
10
24.0610737
20
132.1678353
11
24.0610737
21
132.4416153
0
LINE
8
DEFAULT_255_1_388
10
23.5650168
20
132.4542652
11
23.5650168
21
132.1868102
0
ARC
8
DEFAULT_255_1_388
10
22.8504666
20
132.2075118
40
1.3777776
50
353.8440855
51
0.2287917
0
ARC
8
DEFAULT_255_1_388
10
23.3723683
20
132.1492414
40
0.852639
50
344.4934746
51
353.9763743
0
ARC
8
DEFAULT_255_1_388
10
23.709049
20
132.0535191
40
0.5026273
50
329.2803599
51
344.7473406
0
ARC
8
DEFAULT_255_1_388
10
23.8205986
20
131.9923038
40
0.3754848
50
324.9361395
51
328.6153007
0
ARC
8
DEFAULT_255_1_388
10
23.8631636
20
131.9625586
40
0.3235566
50
280.5801797
51
324.9173226
0
ARC
8
DEFAULT_255_1_388
10
23.8180264
20
132.1505236
40
0.5167077
50
269.5979457
51
281.6732777
0
ARC
8
DEFAULT_255_1_388
10
23.8099168
20
132.1370113
40
0.5032026
50
256.6228565
51
270.5105488
0
ARC
8
DEFAULT_255_1_388
10
23.7646911
20
131.9628345
40
0.3233092
50
215.8618351
51
257.2787793
0
ARC
8
DEFAULT_255_1_388
10
23.8795618
20
132.0399106
40
0.4615831
50
197.9695203
51
215.2622745
0
ARC
8
DEFAULT_255_1_388
10
24.1591293
20
132.1342641
40
0.7566307
50
187.8816486
51
198.2346584
0
ARC
8
DEFAULT_255_1_388
10
24.6044531
20
132.1985453
40
1.2065653
50
180.8977266
51
188.0054894
0
ARC
8
DEFAULT_255_1_388
10
24.9094745
20
132.21004
40
1.5117443
50
180.7434591
51
181.152202
0
ARC
8
DEFAULT_255_1_388
10
24.7419741
20
132.4190371
40
1.3441277
50
173.7674302
51
180.2315596
0
ARC
8
DEFAULT_255_1_388
10
24.233761
20
132.4764779
40
0.8326847
50
164.3058537
51
173.9000553
0
ARC
8
DEFAULT_255_1_388
10
23.906161
20
132.5708652
40
0.4917711
50
148.7922028
51
164.5682288
0
ARC
8
DEFAULT_255_1_388
10
23.7992347
20
132.6305457
40
0.3694204
50
144.5883979
51
148.1161588
0
ARC
8
DEFAULT_255_1_388
10
23.7605093
20
132.6575667
40
0.322202
50
101.6440149
51
144.5142619
0
ARC
8
DEFAULT_255_1_388
10
23.8083285
20
132.4675337
40
0.5180451
50
89.528284
51
102.5820197
0
ARC
8
DEFAULT_255_1_388
10
23.8172277
20
132.4631376
40
0.5224441
50
77.0437914
51
90.508231
0
ARC
8
DEFAULT_255_1_388
10
23.8624531
20
132.6479272
40
0.3322297
50
48.2777708
51
77.4996087
0
ARC
8
DEFAULT_255_1_388
10
23.870627
20
132.6624557
40
0.315966
50
36.3141586
51
47.6307332
0
ARC
8
DEFAULT_255_1_388
10
23.7728993
20
132.5966159
40
0.4337313
50
18.2931065
51
35.6770203
0
ARC
8
DEFAULT_255_1_388
10
23.4867834
20
132.4984107
40
0.7362203
50
8.0246996
51
18.5605636
0
ARC
8
DEFAULT_255_1_388
10
23.0184189
20
132.4292432
40
1.2096583
50
1.127539
51
8.1718423
0
ARC
8
DEFAULT_255_1_388
10
22.6535322
20
132.4149374
40
1.5747719
50
0.5432713
51
1.38669
0
ARC
8
DEFAULT_255_1_388
10
22.8592701
20
132.4456163
40
1.2018103
50
359.8092569
51
4.9408001
0
ARC
8
DEFAULT_255_1_388
10
23.3329282
20
132.48789
40
0.7262727
50
4.8364937
51
12.2906017
0
ARC
8
DEFAULT_255_1_388
10
23.6428747
20
132.5569485
40
0.4087324
50
12.0806994
51
23.8171225
0
ARC
8
DEFAULT_255_1_388
10
23.7749143
20
132.6128508
40
0.2653719
50
24.2874621
51
31.3934353
0
ARC
8
DEFAULT_255_1_388
10
23.8339579
20
132.6514822
40
0.1948607
50
30.7407708
51
82.4658033
0
ARC
8
DEFAULT_255_1_388
10
23.813724
20
132.5521017
40
0.2961198
50
81.1057101
51
90.2187368
0
ARC
8
DEFAULT_255_1_388
10
23.8097052
20
132.5811421
40
0.2670929
50
89.380395
51
105.6763916
0
ARC
8
DEFAULT_255_1_388
10
23.7890774
20
132.656132
40
0.1893189
50
105.7980655
51
149.7387869
0
ARC
8
DEFAULT_255_1_388
10
23.9087914
20
132.5841719
40
0.3289892
50
149.4208441
51
163.628295
0
ARC
8
DEFAULT_255_1_388
10
24.1440144
20
132.5124345
40
0.5749004
50
163.3764549
51
172.141138
0
ARC
8
DEFAULT_255_1_388
10
24.5152865
20
132.4592582
40
0.9499585
50
172.0258462
51
178.0705453
0
ARC
8
DEFAULT_255_1_388
10
24.8574418
20
132.4430682
40
1.2924734
50
177.8639301
51
179.5036263
0
ARC
8
DEFAULT_255_1_388
10
24.7355436
20
132.1827151
40
1.170534
50
179.7995545
51
185.246089
0
ARC
8
DEFAULT_255_1_388
10
24.280703
20
132.1396404
40
0.7136613
50
185.1411911
51
193.0082205
0
ARC
8
DEFAULT_255_1_388
10
23.983329
20
132.0693441
40
0.4080987
50
192.7897338
51
205.2507384
0
ARC
8
DEFAULT_255_1_388
10
23.86555
20
132.0167538
40
0.2791522
50
205.8001921
51
211.2545876
0
ARC
8
DEFAULT_255_1_388
10
23.8067039
20
131.9773132
40
0.2084074
50
210.3789935
51
238.4007996
0
ARC
8
DEFAULT_255_1_388
10
23.8045125
20
131.9825786
40
0.2117943
50
239.6521916
51
265.9793852
0
ARC
8
DEFAULT_255_1_388
10
23.8140974
20
132.0582358
40
0.2879689
50
265.1324455
51
270.0603288
0
ARC
8
DEFAULT_255_1_388
10
23.8173351
20
132.0217418
40
0.2514919
50
269.3314378
51
287.2180039
0
ARC
8
DEFAULT_255_1_388
10
23.8328433
20
131.9651291
40
0.1928357
50
287.7957942
51
329.0808983
0
ARC
8
DEFAULT_255_1_388
10
23.7251191
20
132.0323651
40
0.319808
50
328.6635261
51
343.3325043
0
ARC
8
DEFAULT_255_1_388
10
23.4806649
20
132.1085195
40
0.5758408
50
343.0498092
51
351.9392499
0
ARC
8
DEFAULT_255_1_388
10
23.0905971
20
132.1660205
40
0.9701202
50
351.8071632
51
357.7957897
0
ARC
8
DEFAULT_255_1_388
10
22.7271448
20
132.1848724
40
1.3340376
50
357.5870923
51
359.2682493
0
ENDSEC
0
EOF