0
SECTION
2
HEADER
9
$MEASUREMENT
70
1
0
ENDSEC
0
SECTION
2
TABLES
0
TABLE
2
LTYPE
0
LTYPE
72
65
70
64
2
CONTINUOUS
3
______
73
0
40
0
0
ENDTAB
0
TABLE
2
LAYER
0
LAYER
2
DEFAULT_255_2_778
70
0
62
255
6
CONTINUOUS
0
LAYER
2
DEFAULT_255_1_234
70
0
62
255
6
CONTINUOUS
0
LAYER
2
DEFAULT_255_2_778_1
70
0
62
255
6
CONTINUOUS
0
ENDTAB
0
ENDSEC
0
SECTION
2
ENTITIES
0
ARC
8
DEFAULT_255_2_778
10
3.5700693
20
147.242652
40
0.7914215
50
129.1312896
51
180.1450914
0
ARC
8
DEFAULT_255_2_778
10
3.5703345
20
147.2431391
40
0.7912112
50
89.854026
51
129.1684493
0
ARC
8
DEFAULT_255_2_778
10
25.7993937
20
147.2428257
40
0.7915249
50
39.4792447
51
90.147911
0
ARC
8
DEFAULT_255_2_778
10
25.7999935
20
147.2426723
40
0.7911595
50
359.8533901
51
39.5154338
0
ARC
8
DEFAULT_255_2_778
10
25.7996693
20
-1.9864002
40
0.7914836
50
309.4761667
51
0.1482649
0
ARC
8
DEFAULT_255_2_778
10
25.799398
20
-1.9868313
40
0.7913235
50
269.8517415
51
309.511178
0
ARC
8
DEFAULT_255_2_778
10
3.570342
20
-1.9867731
40
0.7913815
50
219.1282118
51
270.1454017
0
ARC
8
DEFAULT_255_2_778
10
3.5700247
20
-1.9863907
40
0.7913769
50
179.8524075
51
219.1641908
0
LINE
8
DEFAULT_255_2_778
10
3.5723503
20
148.0343479
11
25.7973503
21
148.0343479
0
LINE
8
DEFAULT_255_2_778
10
26.5911503
20
147.2406479
11
26.5911503
21
-1.9843521
0
LINE
8
DEFAULT_255_2_778
10
25.7973503
20
-2.7781521
11
3.5723503
21
-2.7781521
0
LINE
8
DEFAULT_255_2_778
10
2.7786503
20
-1.9843521
11
2.7786503
21
147.2406479
0
LINE
8
DEFAULT_255_1_234
10
12.1623154
20
-0.6513
11
11.8386364
21
-0.6513
0
LINE
8
DEFAULT_255_1_234
10
11.8386364
20
-0.6513
11
11.8386364
21
0.5181211
0
LINE
8
DEFAULT_255_1_234
10
11.8386364
20
0.5181211
11
12.1687408
21
0.5181211
0
LINE
8
DEFAULT_255_1_234
10
12.6843784
20
-0.0272339
11
12.6843784
21
-0.1019291
0
LINE
8
DEFAULT_255_1_234
10
12.1727567
20
0.3912196
11
11.9928458
21
0.3912196
0
LINE
8
DEFAULT_255_1_234
10
11.9928458
20
0.3912196
11
11.9928458
21
-0.5252017
0
LINE
8
DEFAULT_255_1_234
10
11.9928458
20
-0.5252017
11
12.1550869
21
-0.5252017
0
LINE
8
DEFAULT_255_1_234
10
12.5317754
20
-0.0987164
11
12.5317754
21
-0.0304466
0
ARC
8
DEFAULT_255_1_234
10
12.1726351
20
-0.0684106
40
0.5865446
50
75.4101064
51
90.3804066
0
ARC
8
DEFAULT_255_1_234
10
12.1955864
20
0.0272492
40
0.4881916
50
60.145586
51
75.1888407
0
ARC
8
DEFAULT_255_1_234
10
12.211464
20
0.0549199
40
0.4562893
50
26.5253612
51
60.1450928
0
ARC
8
DEFAULT_255_1_234
10
12.0994389
20
-0.0044842
40
0.5830602
50
7.4030428
51
26.8320788
0
ARC
8
DEFAULT_255_1_234
10
11.9400146
20
-0.0293196
40
0.7443669
50
0.1605367
51
7.7176192
0
ARC
8
DEFAULT_255_1_234
10
11.956405
20
-0.1057566
40
0.7279835
50
348.7289388
51
0.3012466
0
ARC
8
DEFAULT_255_1_234
10
12.1220481
20
-0.1386614
40
0.559104
50
333.0706509
51
348.7181832
0
ARC
8
DEFAULT_255_1_234
10
12.2187238
20
-0.1911681
40
0.4491417
50
299.2531685
51
333.4571258
0
ARC
8
DEFAULT_255_1_234
10
12.1826378
20
-0.1226172
40
0.5265881
50
278.107187
51
299.0339503
0
ARC
8
DEFAULT_255_1_234
10
12.1570457
20
0.0281216
40
0.679442
50
270.4443897
51
278.4511052
0
ARC
8
DEFAULT_255_1_234
10
12.1591287
20
-0.0647787
40
0.4604407
50
269.4970433
51
284.0205042
0
ARC
8
DEFAULT_255_1_234
10
12.1946588
20
-0.2013022
40
0.3193797
50
283.7700273
51
318.1555492
0
ARC
8
DEFAULT_255_1_234
10
12.1609346
20
-0.1760633
40
0.3613588
50
318.7415601
51
343.6873628
0
ARC
8
DEFAULT_255_1_234
10
11.9805369
20
-0.1197168
40
0.5503313
50
343.3325091
51
355.8548958
0
ARC
8
DEFAULT_255_1_234
10
11.7707054
20
-0.0997681
40
0.7610708
50
355.4988528
51
0.0791727
0
ARC
8
DEFAULT_255_1_234
10
11.8489676
20
-0.026222
40
0.6828208
50
359.6455037
51
9.8607896
0
ARC
8
DEFAULT_255_1_234
10
12.0850374
20
0.0164099
40
0.4429406
50
9.6571907
51
26.1932807
0
ARC
8
DEFAULT_255_1_234
10
12.1778363
20
0.0595118
40
0.3406537
50
26.5777228
51
40.1532208
0
ARC
8
DEFAULT_255_1_234
10
12.2034089
20
0.0794619
40
0.308246
50
40.3840491
51
80.1431104
0
ARC
8
DEFAULT_255_1_234
10
12.1707207
20
-0.0654667
40
0.4566909
50
79.2152159
51
89.7445637
0
LINE
8
DEFAULT_255_1_234
10
13.6578251
20
-0.6513
11
13.5461839
21
-0.3460939
0
LINE
8
DEFAULT_255_1_234
10
13.5461839
20
-0.3460939
11
13.0562479
21
-0.3460939
0
LINE
8
DEFAULT_255_1_234
10
13.0562479
20
-0.3460939
11
12.9462131
21
-0.6513
0
LINE
8
DEFAULT_255_1_234
10
12.9462131
20
-0.6513
11
12.7871847
21
-0.6513
0
LINE
8
DEFAULT_255_1_234
10
12.7871847
20
-0.6513
11
13.2337493
21
0.5181211
0
LINE
8
DEFAULT_255_1_234
10
13.2337493
20
0.5181211
11
13.3686825
21
0.5181211
0
LINE
8
DEFAULT_255_1_234
10
13.3686825
20
0.5181211
11
13.8160503
21
-0.6513
0
LINE
8
DEFAULT_255_1_234
10
13.8160503
20
-0.6513
11
13.6578251
21
-0.6513
0
LINE
8
DEFAULT_255_1_234
10
13.3012159
20
0.3277689
11
13.102832
21
-0.2191925
0
LINE
8
DEFAULT_255_1_234
10
13.102832
20
-0.2191925
11
13.500403
21
-0.2191925
0
LINE
8
DEFAULT_255_1_234
10
13.500403
20
-0.2191925
11
13.3012159
21
0.3277689
0
LINE
8
DEFAULT_255_1_234
10
14.1220596
20
-0.0955037
11
14.0031898
21
-0.0649831
0
LINE
8
DEFAULT_255_1_234
10
14.0031898
20
-0.0649831
11
14.0626247
21
0.5181211
0
LINE
8
DEFAULT_255_1_234
10
14.0626247
20
0.5181211
11
14.6617924
21
0.5181211
0
LINE
8
DEFAULT_255_1_234
10
14.6617924
20
0.5181211
11
14.6617924
21
0.3807784
0
LINE
8
DEFAULT_255_1_234
10
14.6617924
20
0.3807784
11
14.188723
21
0.3807784
0
LINE
8
DEFAULT_255_1_234
10
14.188723
20
0.3807784
11
14.1533833
21
0.0619184
0
LINE
8
DEFAULT_255_1_234
10
13.9614248
20
-0.3436844
11
14.1019802
21
-0.3436844
0
LINE
8
DEFAULT_255_1_234
10
14.1614151
20
-0.0633768
11
14.1220596
21
-0.0955037
0
ARC
8
DEFAULT_255_1_234
10
14.3388617
20
-0.256077
40
0.3681349
50
93.7182161
51
120.2538958
0
ARC
8
DEFAULT_255_1_234
10
14.348288
20
-0.3368606
40
0.449379
50
89.9660152
51
94.2496022
0
ARC
8
DEFAULT_255_1_234
10
14.3523614
20
-0.2779451
40
0.390482
50
73.8043271
51
90.5585896
0
ARC
8
DEFAULT_255_1_234
10
14.3758511
20
-0.1921398
40
0.3015334
50
41.3071453
51
73.5430202
0
ARC
8
DEFAULT_255_1_234
10
14.3342339
20
-0.2279676
40
0.3564457
50
13.5075983
51
41.2174222
0
ARC
8
DEFAULT_255_1_234
10
14.1700542
20
-0.2709514
40
0.5261351
50
1.1331335
51
13.8829381
0
ARC
8
DEFAULT_255_1_234
10
14.0288911
20
-0.2785335
40
0.6674378
50
359.9919444
51
1.544251
0
ARC
8
DEFAULT_255_1_234
10
14.1565738
20
-0.282672
40
0.5397702
50
347.8572367
51
0.4293338
0
ARC
8
DEFAULT_255_1_234
10
14.3316055
20
-0.3223264
40
0.3603188
50
323.673004
51
348.1672506
0
ARC
8
DEFAULT_255_1_234
10
14.3610563
20
-0.3402832
40
0.3259678
50
316.8171152
51
323.1492751
0
ARC
8
DEFAULT_255_1_234
10
14.3671752
20
-0.343954
40
0.3189975
50
281.8396411
51
316.5457803
0
ARC
8
DEFAULT_255_1_234
10
14.3296016
20
-0.1884238
40
0.4789527
50
269.5770101
51
282.4214771
0
ARC
8
DEFAULT_255_1_234
10
14.3224828
20
-0.2097875
40
0.45759
50
256.2427136
51
270.4486331
0
ARC
8
DEFAULT_255_1_234
10
14.292573
20
-0.3297771
40
0.3339303
50
228.9023911
51
256.3314342
0
ARC
8
DEFAULT_255_1_234
10
14.2851963
20
-0.3414254
40
0.32031
50
193.753695
51
228.5271154
0
ARC
8
DEFAULT_255_1_234
10
14.4089917
20
-0.30512
40
0.4492253
50
184.924711
51
194.497588
0
ARC
8
DEFAULT_255_1_234
10
14.4282483
20
-0.3015409
40
0.3289787
50
187.3600538
51
198.6732863
0
ARC
8
DEFAULT_255_1_234
10
14.3232777
20
-0.3379326
40
0.217884
50
198.4451669
51
217.794479
0
ARC
8
DEFAULT_255_1_234
10
14.2936953
20
-0.3588915
40
0.1816698
50
218.2887171
51
228.5612368
0
ARC
8
DEFAULT_255_1_234
10
14.303474
20
-0.3457037
40
0.1980329
50
228.9654866
51
258.1234728
0
ARC
8
DEFAULT_255_1_234
10
14.324045
20
-0.2576167
40
0.2884748
50
257.7258293
51
270.401361
0
ARC
8
DEFAULT_255_1_234
10
14.3285336
20
-0.3021179
40
0.2439788
50
269.4204404
51
286.4209037
0
ARC
8
DEFAULT_255_1_234
10
14.3433823
20
-0.3560343
40
0.1880666
50
286.7251356
51
320.600362
0
ARC
8
DEFAULT_255_1_234
10
14.3050648
20
-0.3249405
40
0.2374121
50
320.6712579
51
344.5441685
0
ARC
8
DEFAULT_255_1_234
10
14.1893975
20
-0.2909955
40
0.3579479
50
344.2412205
51
356.7357071
0
ARC
8
DEFAULT_255_1_234
10
14.0645123
20
-0.2806556
40
0.4832297
50
356.3548756
51
0.0500261
0
ARC
8
DEFAULT_255_1_234
10
14.1981632
20
-0.277535
40
0.3495889
50
359.5576869
51
12.953486
0
ARC
8
DEFAULT_255_1_234
10
14.303653
20
-0.2519566
40
0.2410532
50
12.6490276
51
41.6081334
0
ARC
8
DEFAULT_255_1_234
10
14.3266901
20
-0.2323679
40
0.2108218
50
41.7850273
51
85.9892764
0
ARC
8
DEFAULT_255_1_234
10
14.3143637
20
-0.3136538
40
0.2928454
50
84.6957577
51
90.0676183
0
ARC
8
DEFAULT_255_1_234
10
14.3120121
20
-0.3805284
40
0.3597255
50
89.6804936
51
99.1614436
0
ARC
8
DEFAULT_255_1_234
10
14.2914753
20
-0.2577869
40
0.235281
50
98.9830931
51
113.8908934
0
ARC
8
DEFAULT_255_1_234
10
14.2685163
20
-0.2036413
40
0.176479
50
114.1950727
51
127.3641004
0
LINE
8
DEFAULT_255_1_234
10
15.5918677
20
0.0402327
11
15.5918677
21
-0.1525291
0
LINE
8
DEFAULT_255_1_234
10
14.8537509
20
-0.1726084
11
14.8537509
21
0.0257755
0
LINE
8
DEFAULT_255_1_234
10
15.4432805
20
-0.1926877
11
15.4432805
21
0.0506739
0
LINE
8
DEFAULT_255_1_234
10
15.0023381
20
0.0619184
11
15.0023381
21
-0.1758211
0
ARC
8
DEFAULT_255_1_234
10
14.3671566
20
-0.1574195
40
1.2247208
50
353.8441951
51
0.2287902
0
ARC
8
DEFAULT_255_1_234
10
14.831107
20
-0.2092194
40
0.7578929
50
344.4934747
51
353.9765454
0
ARC
8
DEFAULT_255_1_234
10
15.130366
20
-0.2943019
40
0.4467846
50
329.2803592
51
344.7472793
0
ARC
8
DEFAULT_255_1_234
10
15.2296485
20
-0.3487982
40
0.3336173
50
324.9352394
51
328.6160465
0
ARC
8
DEFAULT_255_1_234
10
15.2673594
20
-0.3751573
40
0.2876076
50
280.580143
51
324.9173126
0
ARC
8
DEFAULT_255_1_234
10
15.2272386
20
-0.2080901
40
0.4592847
50
269.5977311
51
281.6734359
0
ARC
8
DEFAULT_255_1_234
10
15.2200292
20
-0.2200827
40
0.4472986
50
256.6228859
51
270.51044
0
ARC
8
DEFAULT_255_1_234
10
15.179827
20
-0.3749123
40
0.2873874
50
215.8618325
51
257.2788573
0
ARC
8
DEFAULT_255_1_234
10
15.2819301
20
-0.3064023
40
0.4102928
50
197.9693508
51
215.2623606
0
ARC
8
DEFAULT_255_1_234
10
15.5304417
20
-0.2225291
40
0.6725652
50
187.8816417
51
198.2346507
0
ARC
8
DEFAULT_255_1_234
10
15.9262625
20
-0.1653921
40
1.0724845
50
180.8976217
51
188.0055519
0
ARC
8
DEFAULT_255_1_234
10
16.2062813
20
-0.1550223
40
1.3526448
50
180.7449369
51
181.1510016
0
ARC
8
DEFAULT_255_1_234
10
16.0485542
20
0.0306042
40
1.1948131
50
173.7675579
51
180.231553
0
ARC
8
DEFAULT_255_1_234
10
15.5967689
20
0.0816666
40
0.7401564
50
164.3058563
51
173.9002247
0
ARC
8
DEFAULT_255_1_234
10
15.3055758
20
0.1655656
40
0.4371288
50
148.7922025
51
164.568378
0
ARC
8
DEFAULT_255_1_234
10
15.210421
20
0.2186929
40
0.3282386
50
144.5883898
51
148.1176286
0
ARC
8
DEFAULT_255_1_234
10
15.1761108
20
0.2426315
40
0.2864044
50
101.6440918
51
144.514236
0
ARC
8
DEFAULT_255_1_234
10
15.2186175
20
0.0737069
40
0.4604934
50
89.5284041
51
102.5819763
0
ARC
8
DEFAULT_255_1_234
10
15.2265263
20
0.0698018
40
0.464401
50
77.0437873
51
90.5081339
0
ARC
8
DEFAULT_255_1_234
10
15.2667264
20
0.2340615
40
0.2953195
50
48.2778575
51
77.4994676
0
ARC
8
DEFAULT_255_1_234
10
15.2739896
20
0.2469746
40
0.2808655
50
36.3142134
51
47.6305865
0
ARC
8
DEFAULT_255_1_234
10
15.1871203
20
0.1884515
40
0.3855453
50
18.2931786
51
35.6769206
0
ARC
8
DEFAULT_255_1_234
10
14.9327961
20
0.1011593
40
0.654423
50
8.024666
51
18.5605216
0
ARC
8
DEFAULT_255_1_234
10
14.5164881
20
0.0396792
40
1.0752407
50
1.1274072
51
8.1718305
0
ARC
8
DEFAULT_255_1_234
10
14.1929072
20
0.0269885
40
1.3990231
50
0.5424119
51
1.3863029
0
ARC
8
DEFAULT_255_1_234
10
14.375045
20
0.0542342
40
1.0682415
50
359.8090433
51
4.9407866
0
ARC
8
DEFAULT_255_1_234
10
14.7960464
20
0.0918113
40
0.6455691
50
4.8362157
51
12.2904523
0
ARC
8
DEFAULT_255_1_234
10
15.0715579
20
0.1531965
40
0.3633074
50
12.0805627
51
23.8173984
0
ARC
8
DEFAULT_255_1_234
10
15.1889284
20
0.2028919
40
0.2358723
50
24.2871213
51
31.3935614
0
ARC
8
DEFAULT_255_1_234
10
15.2413981
20
0.2372233
40
0.1732111
50
30.7407893
51
82.4657128
0
ARC
8
DEFAULT_255_1_234
10
15.2234115
20
0.1488691
40
0.263235
50
81.1060089
51
90.2184952
0
ARC
8
DEFAULT_255_1_234
10
15.2198414
20
0.1746924
40
0.2374236
50
89.3806855
51
105.6762551
0
ARC
8
DEFAULT_255_1_234
10
15.2015045
20
0.2413567
40
0.1682847
50
105.7981136
51
149.7388061
0
ARC
8
DEFAULT_255_1_234
10
15.3079123
20
0.177395
40
0.2924306
50
149.4208916
51
163.6286378
0
ARC
8
DEFAULT_255_1_234
10
15.5170011
20
0.113625
40
0.5110213
50
163.3763315
51
172.1410975
0
ARC
8
DEFAULT_255_1_234
10
15.847073
20
0.0663518
40
0.8444586
50
172.0259487
51
178.0703232
0
ARC
8
DEFAULT_255_1_234
10
16.150082
20
0.0519906
40
1.1477868
50
177.8631668
51
179.5044149
0
ARC
8
DEFAULT_255_1_234
10
16.0428224
20
-0.1794611
40
1.0404907
50
179.7995573
51
185.2460446
0
ARC
8
DEFAULT_255_1_234
10
15.6385264
20
-0.2177487
40
0.6343885
50
185.1411642
51
193.0079639
0
ARC
8
DEFAULT_255_1_234
10
15.3741736
20
-0.2802359
40
0.3627568
50
192.7897626
51
205.2507664
0
ARC
8
DEFAULT_255_1_234
10
15.2695283
20
-0.3269585
40
0.2481908
50
205.8005384
51
211.2537509
0
ARC
8
DEFAULT_255_1_234
10
15.2171724
20
-0.362042
40
0.1852521
50
210.3789793
51
238.4008143
0
ARC
8
DEFAULT_255_1_234
10
15.2152245
20
-0.3573624
40
0.1882621
50
239.6520629
51
265.9793761
0
ARC
8
DEFAULT_255_1_234
10
15.2237446
20
-0.2901573
40
0.2559272
50
265.1315437
51
270.060332
0
ARC
8
DEFAULT_255_1_234
10
15.2266224
20
-0.3225466
40
0.2235528
50
269.3314664
51
287.2178029
0
ARC
8
DEFAULT_255_1_234
10
15.2404076
20
-0.3728721
40
0.1714108
50
287.7958004
51
329.080874
0
ARC
8
DEFAULT_255_1_234
10
15.1446533
20
-0.313107
40
0.2842745
50
328.6634704
51
343.3325132
0
ARC
8
DEFAULT_255_1_234
10
14.9273553
20
-0.2454137
40
0.5118644
50
343.0499468
51
351.9393422
0
ARC
8
DEFAULT_255_1_234
10
14.5806853
20
-0.1943051
40
0.8622784
50
351.8069023
51
357.7959224
0
ARC
8
DEFAULT_255_1_234
10
14.2571409
20
-0.1775279
40
1.1862365
50
357.5871873
51
359.2677531
0
LINE
8
DEFAULT_255_1_234
10
16.2705496
20
0.5237433
11
16.2705496
21
-0.6513
0
LINE
8
DEFAULT_255_1_234
10
16.2705496
20
-0.6513
11
16.1211592
21
-0.6513
0
LINE
8
DEFAULT_255_1_234
10
16.1211592
20
-0.6513
11
16.1211592
21
0.3390133
0
LINE
8
DEFAULT_255_1_234
10
16.1211592
20
0.3390133
11
15.8215754
21
0.2289785
0
LINE
8
DEFAULT_255_1_234
10
15.8215754
20
0.2289785
11
15.8215754
21
0.3639117
0
LINE
8
DEFAULT_255_1_234
10
15.8215754
20
0.3639117
11
16.2472575
21
0.5237433
0
LINE
8
DEFAULT_255_1_234
10
16.2472575
20
0.5237433
11
16.2705496
21
0.5237433
0
LINE
8
DEFAULT_255_1_234
10
12.5959293
20
141.5622
11
12.4842881
21
141.8674061
0
LINE
8
DEFAULT_255_1_234
10
12.4842881
20
141.8674061
11
11.9943521
21
141.8674061
0
LINE
8
DEFAULT_255_1_234
10
11.9943521
20
141.8674061
11
11.8843173
21
141.5622
0
LINE
8
DEFAULT_255_1_234
10
11.8843173
20
141.5622
11
11.7252889
21
141.5622
0
LINE
8
DEFAULT_255_1_234
10
11.7252889
20
141.5622
11
12.1718535
21
142.7316211
0
LINE
8
DEFAULT_255_1_234
10
12.1718535
20
142.7316211
11
12.3067867
21
142.7316211
0
LINE
8
DEFAULT_255_1_234
10
12.3067867
20
142.7316211
11
12.7541545
21
141.5622
0
LINE
8
DEFAULT_255_1_234
10
12.7541545
20
141.5622
11
12.5959293
21
141.5622
0
LINE
8
DEFAULT_255_1_234
10
12.2393201
20
142.5412689
11
12.0409362
21
141.9943075
0
LINE
8
DEFAULT_255_1_234
10
12.0409362
20
141.9943075
11
12.4385072
21
141.9943075
0
LINE
8
DEFAULT_255_1_234
10
12.4385072
20
141.9943075
11
12.2393201
21
142.5412689
0
LINE
8
DEFAULT_255_1_234
10
13.6079283
20
141.9332663
11
13.7629409
21
141.9332663
0
LINE
8
DEFAULT_255_1_234
10
12.862583
20
142.0922947
11
12.862583
21
142.2047391
0
LINE
8
DEFAULT_255_1_234
10
13.7629409
20
142.3557357
11
13.6079283
21
142.3557357
0
LINE
8
DEFAULT_255_1_234
10
13.0175956
20
142.2007232
11
13.0175956
21
142.0874757
0
ARC
8
DEFAULT_255_1_234
10
13.2148796
20
141.9929846
40
0.5513052
50
340.1774281
51
353.7814284
0
ARC
8
DEFAULT_255_1_234
10
13.3720148
20
141.9344582
40
0.3836379
50
311.4558989
51
340.4421614
0
ARC
8
DEFAULT_255_1_234
10
13.3686816
20
141.9455528
40
0.3941894
50
282.4333181
51
310.7513653
0
ARC
8
DEFAULT_255_1_234
10
13.3247555
20
142.1270679
40
0.5809175
50
269.9358511
51
282.809604
0
ARC
8
DEFAULT_255_1_234
10
13.3195622
20
142.2728212
40
0.7266847
50
270.0021091
51
270.3581957
0
ARC
8
DEFAULT_255_1_234
10
13.3143039
20
142.0127585
40
0.4666519
50
250.7884749
51
270.6489167
0
ARC
8
DEFAULT_255_1_234
10
13.2974873
20
141.9490319
40
0.4009729
50
219.3627325
51
250.0611886
0
ARC
8
DEFAULT_255_1_234
10
13.3804084
20
142.0195042
40
0.5097822
50
193.5479632
51
219.5756669
0
ARC
8
DEFAULT_255_1_234
10
13.6175705
20
142.0810919
40
0.7547848
50
181.1218675
51
193.87563
0
ARC
8
DEFAULT_255_1_234
10
13.8245886
20
142.092158
40
0.9620055
50
179.9918545
51
181.5394234
0
ARC
8
DEFAULT_255_1_234
10
13.6394988
20
142.2084788
40
0.7769248
50
169.5837241
51
180.2757934
0
ARC
8
DEFAULT_255_1_234
10
13.4557926
20
142.2424229
40
0.590109
50
155.0365899
51
169.6003176
0
ARC
8
DEFAULT_255_1_234
10
13.342239
20
142.2971677
40
0.4640625
50
136.783148
51
155.2472683
0
ARC
8
DEFAULT_255_1_234
10
13.3032867
20
142.3302562
40
0.4130255
50
121.7633186
51
136.428115
0
ARC
8
DEFAULT_255_1_234
10
13.3167829
20
142.3053227
40
0.4413323
50
95.6459699
51
121.5490577
0
ARC
8
DEFAULT_255_1_234
10
13.3325111
20
142.1944949
40
0.55319
50
89.924208
51
96.1377933
0
ARC
8
DEFAULT_255_1_234
10
13.3375544
20
142.2063542
40
0.5413475
50
76.6779277
51
90.4563316
0
ARC
8
DEFAULT_255_1_234
10
13.3769167
20
142.3654114
40
0.3775041
50
47.485847
51
76.9287264
0
ARC
8
DEFAULT_255_1_234
10
13.362214
20
142.3554159
40
0.3948286
50
16.5424086
51
46.8933463
0
ARC
8
DEFAULT_255_1_234
10
13.2014297
20
142.3025861
40
0.564021
50
5.4072051
51
17.0365086
0
ARC
8
DEFAULT_255_1_234
10
13.0575314
20
142.2794679
40
0.5556559
50
7.8891745
51
15.9239216
0
ARC
8
DEFAULT_255_1_234
10
13.2562328
20
142.3371631
40
0.3487515
50
15.7653144
51
27.9410532
0
ARC
8
DEFAULT_255_1_234
10
13.3666546
20
142.396279
40
0.2235026
50
27.8166557
51
46.4008329
0
ARC
8
DEFAULT_255_1_234
10
13.3716188
20
142.3957082
40
0.2205286
50
47.4371857
51
75.0698205
0
ARC
8
DEFAULT_255_1_234
10
13.3407583
20
142.2882765
40
0.3322915
50
74.7008593
51
87.8124495
0
ARC
8
DEFAULT_255_1_234
10
13.333427
20
142.1826844
40
0.4380987
50
87.3814673
51
90.0240855
0
ARC
8
DEFAULT_255_1_234
10
13.3295814
20
142.3004291
40
0.3203749
50
89.3451631
51
108.5745436
0
ARC
8
DEFAULT_255_1_234
10
13.3158919
20
142.3517908
40
0.2673494
50
109.2998449
51
143.3037509
0
ARC
8
DEFAULT_255_1_234
10
13.3920992
20
142.2931881
40
0.3634757
50
143.0753173
51
163.1916937
0
ARC
8
DEFAULT_255_1_234
10
13.5872719
20
142.2315967
40
0.5681262
50
162.9373603
51
174.6208611
0
ARC
8
DEFAULT_255_1_234
10
13.8498761
20
142.202801
40
0.8322832
50
174.3419979
51
180.1430411
0
ARC
8
DEFAULT_255_1_234
10
13.7567918
20
142.0833698
40
0.7392076
50
179.6817502
51
189.150529
0
ARC
8
DEFAULT_255_1_234
10
13.5067166
20
142.041719
40
0.4856932
50
188.9910863
51
203.5773039
0
ARC
8
DEFAULT_255_1_234
10
13.3987498
20
141.9969211
40
0.3688271
50
203.9077269
51
215.1312379
0
ARC
8
DEFAULT_255_1_234
10
13.3064592
20
141.9253941
40
0.2522457
50
213.9071664
51
263.8849284
0
ARC
8
DEFAULT_255_1_234
10
13.3189921
20
142.0038518
40
0.3316174
50
263.1758525
51
270.1031083
0
ARC
8
DEFAULT_255_1_234
10
13.3222013
20
142.1285365
40
0.4563091
50
269.6719807
51
279.0609165
0
ARC
8
DEFAULT_255_1_234
10
13.3488781
20
141.9672907
40
0.2928759
50
278.8750225
51
293.6346586
0
ARC
8
DEFAULT_255_1_234
10
13.3808989
20
141.89209
40
0.2111472
50
293.8553404
51
310.0518804
0
ARC
8
DEFAULT_255_1_234
10
13.3813843
20
141.8858516
40
0.2060917
50
311.0646779
51
332.0108348
0
ARC
8
DEFAULT_255_1_234
10
13.262157
20
141.9515978
40
0.3422352
50
331.6588543
51
343.2878891
0
ARC
8
DEFAULT_255_1_234
10
13.0559085
20
142.0149798
40
0.5580003
50
343.1446044
51
351.010618
0
ARC
8
DEFAULT_255_1_234
10
12.9017731
20
142.0430871
40
0.7146438
50
350.7157277
51
351.1602153
0
LINE
8
DEFAULT_255_1_234
10
14.1219596
20
142.1179963
11
14.0030898
21
142.1485169
0
LINE
8
DEFAULT_255_1_234
10
14.0030898
20
142.1485169
11
14.0625247
21
142.7316211
0
LINE
8
DEFAULT_255_1_234
10
14.0625247
20
142.7316211
11
14.6616924
21
142.7316211
0
LINE
8
DEFAULT_255_1_234
10
14.6616924
20
142.7316211
11
14.6616924
21
142.5942784
0
LINE
8
DEFAULT_255_1_234
10
14.6616924
20
142.5942784
11
14.188623
21
142.5942784
0
LINE
8
DEFAULT_255_1_234
10
14.188623
20
142.5942784
11
14.1532833
21
142.2754184
0
LINE
8
DEFAULT_255_1_234
10
13.9613248
20
141.8698156
11
14.1018802
21
141.8698156
0
LINE
8
DEFAULT_255_1_234
10
14.1613151
20
142.1501232
11
14.1219596
21
142.1179963
0
ARC
8
DEFAULT_255_1_234
10
14.3387617
20
141.957423
40
0.3681349
50
93.7182161
51
120.2538958
0
ARC
8
DEFAULT_255_1_234
10
14.348188
20
141.8766394
40
0.449379
50
89.9660152
51
94.2496022
0
ARC
8
DEFAULT_255_1_234
10
14.3522614
20
141.9355549
40
0.390482
50
73.8043271
51
90.5585896
0
ARC
8
DEFAULT_255_1_234
10
14.3757511
20
142.0213602
40
0.3015334
50
41.3071453
51
73.5430202
0
ARC
8
DEFAULT_255_1_234
10
14.3341339
20
141.9855324
40
0.3564457
50
13.5075983
51
41.2174222
0
ARC
8
DEFAULT_255_1_234
10
14.1699542
20
141.9425486
40
0.5261351
50
1.1331335
51
13.8829381
0
ARC
8
DEFAULT_255_1_234
10
14.0287911
20
141.9349665
40
0.6674378
50
359.9919444
51
1.544251
0
ARC
8
DEFAULT_255_1_234
10
14.1564738
20
141.930828
40
0.5397702
50
347.8572367
51
0.4293338
0
ARC
8
DEFAULT_255_1_234
10
14.3315055
20
141.8911736
40
0.3603188
50
323.673004
51
348.1672506
0
ARC
8
DEFAULT_255_1_234
10
14.3609563
20
141.8732168
40
0.3259678
50
316.8171152
51
323.1492751
0
ARC
8
DEFAULT_255_1_234
10
14.3670752
20
141.869546
40
0.3189975
50
281.8396411
51
316.5457803
0
ARC
8
DEFAULT_255_1_234
10
14.3295016
20
142.0250762
40
0.4789527
50
269.5770101
51
282.4214771
0
ARC
8
DEFAULT_255_1_234
10
14.3223828
20
142.0037125
40
0.45759
50
256.2427136
51
270.4486331
0
ARC
8
DEFAULT_255_1_234
10
14.292473
20
141.8837229
40
0.3339303
50
228.9023911
51
256.3314342
0
ARC
8
DEFAULT_255_1_234
10
14.2850963
20
141.8720746
40
0.32031
50
193.753695
51
228.5271154
0
ARC
8
DEFAULT_255_1_234
10
14.4088917
20
141.90838
40
0.4492253
50
184.924711
51
194.497588
0
ARC
8
DEFAULT_255_1_234
10
14.4281483
20
141.9119591
40
0.3289787
50
187.3600538
51
198.6732863
0
ARC
8
DEFAULT_255_1_234
10
14.3231777
20
141.8755674
40
0.217884
50
198.4451669
51
217.794479
0
ARC
8
DEFAULT_255_1_234
10
14.2935953
20
141.8546085
40
0.1816698
50
218.2887171
51
228.5612368
0
ARC
8
DEFAULT_255_1_234
10
14.303374
20
141.8677963
40
0.1980329
50
228.9654866
51
258.1234728
0
ARC
8
DEFAULT_255_1_234
10
14.323945
20
141.9558833
40
0.2884748
50
257.7258293
51
270.401361
0
ARC
8
DEFAULT_255_1_234
10
14.3284336
20
141.9113821
40
0.2439788
50
269.4204404
51
286.4209037
0
ARC
8
DEFAULT_255_1_234
10
14.3432823
20
141.8574657
40
0.1880666
50
286.7251356
51
320.600362
0
ARC
8
DEFAULT_255_1_234
10
14.3049648
20
141.8885595
40
0.2374121
50
320.6712579
51
344.5441685
0
ARC
8
DEFAULT_255_1_234
10
14.1892975
20
141.9225045
40
0.3579479
50
344.2412205
51
356.7357071
0
ARC
8
DEFAULT_255_1_234
10
14.0644123
20
141.9328444
40
0.4832297
50
356.3548756
51
0.0500261
0
ARC
8
DEFAULT_255_1_234
10
14.1980632
20
141.935965
40
0.3495889
50
359.5576869
51
12.953486
0
ARC
8
DEFAULT_255_1_234
10
14.303553
20
141.9615434
40
0.2410532
50
12.6490276
51
41.6081334
0
ARC
8
DEFAULT_255_1_234
10
14.3265901
20
141.9811321
40
0.2108218
50
41.7850273
51
85.9892764
0
ARC
8
DEFAULT_255_1_234
10
14.3142637
20
141.8998462
40
0.2928454
50
84.6957577
51
90.0676183
0
ARC
8
DEFAULT_255_1_234
10
14.3119121
20
141.8329716
40
0.3597255
50
89.6804936
51
99.1614436
0
ARC
8
DEFAULT_255_1_234
10
14.2913753
20
141.9557131
40
0.235281
50
98.9830931
51
113.8908934
0
ARC
8
DEFAULT_255_1_234
10
14.2684163
20
142.0098587
40
0.176479
50
114.1950727
51
127.3641004
0
LINE
8
DEFAULT_255_1_234
10
15.5917677
20
142.2537327
11
15.5917677
21
142.0609709
0
LINE
8
DEFAULT_255_1_234
10
14.8536509
20
142.0408916
11
14.8536509
21
142.2392755
0
LINE
8
DEFAULT_255_1_234
10
15.4431805
20
142.0208123
11
15.4431805
21
142.2641739
0
LINE
8
DEFAULT_255_1_234
10
15.0022381
20
142.2754184
11
15.0022381
21
142.0376789
0
ARC
8
DEFAULT_255_1_234
10
14.3670566
20
142.0560805
40
1.2247208
50
353.8441951
51
0.2287902
0
ARC
8
DEFAULT_255_1_234
10
14.831007
20
142.0042806
40
0.7578929
50
344.4934747
51
353.9765454
0
ARC
8
DEFAULT_255_1_234
10
15.130266
20
141.9191981
40
0.4467846
50
329.2803592
51
344.7472793
0
ARC
8
DEFAULT_255_1_234
10
15.2295485
20
141.8647018
40
0.3336173
50
324.9352394
51
328.6160465
0
ARC
8
DEFAULT_255_1_234
10
15.2672594
20
141.8383427
40
0.2876076
50
280.580143
51
324.9173126
0
ARC
8
DEFAULT_255_1_234
10
15.2271386
20
142.0054099
40
0.4592847
50
269.5977311
51
281.6734359
0
ARC
8
DEFAULT_255_1_234
10
15.2199292
20
141.9934173
40
0.4472986
50
256.6228859
51
270.51044
0
ARC
8
DEFAULT_255_1_234
10
15.179727
20
141.8385877
40
0.2873874
50
215.8618325
51
257.2788573
0
ARC
8
DEFAULT_255_1_234
10
15.2818301
20
141.9070977
40
0.4102928
50
197.9693508
51
215.2623606
0
ARC
8
DEFAULT_255_1_234
10
15.5303417
20
141.9909709
40
0.6725652
50
187.8816417
51
198.2346507
0
ARC
8
DEFAULT_255_1_234
10
15.9261625
20
142.0481079
40
1.0724845
50
180.8976217
51
188.0055519
0
ARC
8
DEFAULT_255_1_234
10
16.2061813
20
142.0584777
40
1.3526448
50
180.7449369
51
181.1510016
0
ARC
8
DEFAULT_255_1_234
10
16.0484542
20
142.2441042
40
1.1948131
50
173.7675579
51
180.231553
0
ARC
8
DEFAULT_255_1_234
10
15.5966689
20
142.2951666
40
0.7401564
50
164.3058563
51
173.9002247
0
ARC
8
DEFAULT_255_1_234
10
15.3054758
20
142.3790656
40
0.4371288
50
148.7922025
51
164.568378
0
ARC
8
DEFAULT_255_1_234
10
15.210321
20
142.4321929
40
0.3282386
50
144.5883898
51
148.1176286
0
ARC
8
DEFAULT_255_1_234
10
15.1760108
20
142.4561315
40
0.2864044
50
101.6440918
51
144.514236
0
ARC
8
DEFAULT_255_1_234
10
15.2185175
20
142.2872069
40
0.4604934
50
89.5284041
51
102.5819763
0
ARC
8
DEFAULT_255_1_234
10
15.2264263
20
142.2833018
40
0.464401
50
77.0437873
51
90.5081339
0
ARC
8
DEFAULT_255_1_234
10
15.2666264
20
142.4475615
40
0.2953195
50
48.2778575
51
77.4994676
0
ARC
8
DEFAULT_255_1_234
10
15.2738896
20
142.4604746
40
0.2808655
50
36.3142134
51
47.6305865
0
ARC
8
DEFAULT_255_1_234
10
15.1870203
20
142.4019515
40
0.3855453
50
18.2931786
51
35.6769206
0
ARC
8
DEFAULT_255_1_234
10
14.9326961
20
142.3146593
40
0.654423
50
8.024666
51
18.5605216
0
ARC
8
DEFAULT_255_1_234
10
14.5163881
20
142.2531792
40
1.0752407
50
1.1274072
51
8.1718305
0
ARC
8
DEFAULT_255_1_234
10
14.1928072
20
142.2404885
40
1.3990231
50
0.5424119
51
1.3863029
0
ARC
8
DEFAULT_255_1_234
10
14.374945
20
142.2677342
40
1.0682415
50
359.8090433
51
4.9407866
0
ARC
8
DEFAULT_255_1_234
10
14.7959464
20
142.3053113
40
0.6455691
50
4.8362157
51
12.2904523
0
ARC
8
DEFAULT_255_1_234
10
15.0714579
20
142.3666965
40
0.3633074
50
12.0805627
51
23.8173984
0
ARC
8
DEFAULT_255_1_234
10
15.1888284
20
142.4163919
40
0.2358723
50
24.2871213
51
31.3935614
0
ARC
8
DEFAULT_255_1_234
10
15.2412981
20
142.4507233
40
0.1732111
50
30.7407893
51
82.4657128
0
ARC
8
DEFAULT_255_1_234
10
15.2233115
20
142.3623691
40
0.263235
50
81.1060089
51
90.2184952
0
ARC
8
DEFAULT_255_1_234
10
15.2197414
20
142.3881924
40
0.2374236
50
89.3806855
51
105.6762551
0
ARC
8
DEFAULT_255_1_234
10
15.2014045
20
142.4548567
40
0.1682847
50
105.7981136
51
149.7388061
0
ARC
8
DEFAULT_255_1_234
10
15.3078123
20
142.390895
40
0.2924306
50
149.4208916
51
163.6286378
0
ARC
8
DEFAULT_255_1_234
10
15.5169011
20
142.327125
40
0.5110213
50
163.3763315
51
172.1410975
0
ARC
8
DEFAULT_255_1_234
10
15.846973
20
142.2798518
40
0.8444586
50
172.0259487
51
178.0703232
0
ARC
8
DEFAULT_255_1_234
10
16.149982
20
142.2654906
40
1.1477868
50
177.8631668
51
179.5044149
0
ARC
8
DEFAULT_255_1_234
10
16.0427224
20
142.0340389
40
1.0404907
50
179.7995573
51
185.2460446
0
ARC
8
DEFAULT_255_1_234
10
15.6384264
20
141.9957513
40
0.6343885
50
185.1411642
51
193.0079639
0
ARC
8
DEFAULT_255_1_234
10
15.3740736
20
141.9332641
40
0.3627568
50
192.7897626
51
205.2507664
0
ARC
8
DEFAULT_255_1_234
10
15.2694283
20
141.8865415
40
0.2481908
50
205.8005384
51
211.2537509
0
ARC
8
DEFAULT_255_1_234
10
15.2170724
20
141.851458
40
0.1852521
50
210.3789793
51
238.4008143
0
ARC
8
DEFAULT_255_1_234
10
15.2151245
20
141.8561376
40
0.1882621
50
239.6520629
51
265.9793761
0
ARC
8
DEFAULT_255_1_234
10
15.2236446
20
141.9233427
40
0.2559272
50
265.1315437
51
270.060332
0
ARC
8
DEFAULT_255_1_234
10
15.2265224
20
141.8909534
40
0.2235528
50
269.3314664
51
287.2178029
0
ARC
8
DEFAULT_255_1_234
10
15.2403076
20
141.8406279
40
0.1714108
50
287.7958004
51
329.080874
0
ARC
8
DEFAULT_255_1_234
10
15.1445533
20
141.900393
40
0.2842745
50
328.6634704
51
343.3325132
0
ARC
8
DEFAULT_255_1_234
10
14.9272553
20
141.9680863
40
0.5118644
50
343.0499468
51
351.9393422
0
ARC
8
DEFAULT_255_1_234
10
14.5805853
20
142.0191949
40
0.8622784
50
351.8069023
51
357.7959224
0
ARC
8
DEFAULT_255_1_234
10
14.2570409
20
142.0359721
40
1.1862365
50
357.5871873
51
359.2677531
0
LINE
8
DEFAULT_255_1_234
10
16.5154176
20
142.2537327
11
16.5154176
21
142.0609709
0
LINE
8
DEFAULT_255_1_234
10
15.7773008
20
142.0408916
11
15.7773008
21
142.2392755
0
LINE
8
DEFAULT_255_1_234
10
16.3668304
20
142.0208123
11
16.3668304
21
142.2641739
0
LINE
8
DEFAULT_255_1_234
10
15.925888
20
142.2754184
11
15.925888
21
142.0376789
0
ARC
8
DEFAULT_255_1_234
10
15.2907065
20
142.0560805
40
1.2247208
50
353.8441951
51
0.2287902
0
ARC
8
DEFAULT_255_1_234
10
15.7546569
20
142.0042806
40
0.7578929
50
344.4934747
51
353.9765454
0
ARC
8
DEFAULT_255_1_234
10
16.0539159
20
141.9191981
40
0.4467846
50
329.2803592
51
344.7472793
0
ARC
8
DEFAULT_255_1_234
10
16.1531984
20
141.8647018
40
0.3336173
50
324.9352394
51
328.6160465
0
ARC
8
DEFAULT_255_1_234
10
16.1909093
20
141.8383427
40
0.2876076
50
280.580143
51
324.9173126
0
ARC
8
DEFAULT_255_1_234
10
16.1507885
20
142.0054099
40
0.4592847
50
269.5977311
51
281.6734359
0
ARC
8
DEFAULT_255_1_234
10
16.1435791
20
141.9934173
40
0.4472986
50
256.6228859
51
270.51044
0
ARC
8
DEFAULT_255_1_234
10
16.1033769
20
141.8385877
40
0.2873874
50
215.8618325
51
257.2788573
0
ARC
8
DEFAULT_255_1_234
10
16.20548
20
141.9070977
40
0.4102928
50
197.9693508
51
215.2623606
0
ARC
8
DEFAULT_255_1_234
10
16.4539916
20
141.9909709
40
0.6725652
50
187.8816417
51
198.2346507
0
ARC
8
DEFAULT_255_1_234
10
16.8498124
20
142.0481079
40
1.0724845
50
180.8976217
51
188.0055519
0
ARC
8
DEFAULT_255_1_234
10
17.1298312
20
142.0584777
40
1.3526448
50
180.7449369
51
181.1510016
0
ARC
8
DEFAULT_255_1_234
10
16.9721042
20
142.2441042
40
1.1948131
50
173.7675579
51
180.231553
0
ARC
8
DEFAULT_255_1_234
10
16.5203188
20
142.2951666
40
0.7401564
50
164.3058563
51
173.9002247
0
ARC
8
DEFAULT_255_1_234
10
16.2291257
20
142.3790656
40
0.4371288
50
148.7922025
51
164.568378
0
ARC
8
DEFAULT_255_1_234
10
16.1339709
20
142.4321929
40
0.3282386
50
144.5883898
51
148.1176286
0
ARC
8
DEFAULT_255_1_234
10
16.0996607
20
142.4561315
40
0.2864044
50
101.6440918
51
144.514236
0
ARC
8
DEFAULT_255_1_234
10
16.1421674
20
142.2872069
40
0.4604934
50
89.5284041
51
102.5819763
0
ARC
8
DEFAULT_255_1_234
10
16.1500762
20
142.2833018
40
0.464401
50
77.0437873
51
90.5081339
0
ARC
8
DEFAULT_255_1_234
10
16.1902763
20
142.4475615
40
0.2953195
50
48.2778575
51
77.4994676
0
ARC
8
DEFAULT_255_1_234
10
16.1975395
20
142.4604746
40
0.2808655
50
36.3142134
51
47.6305865
0
ARC
8
DEFAULT_255_1_234
10
16.1106702
20
142.4019515
40
0.3855453
50
18.2931786
51
35.6769206
0
ARC
8
DEFAULT_255_1_234
10
15.856346
20
142.3146593
40
0.654423
50
8.024666
51
18.5605216
0
ARC
8
DEFAULT_255_1_234
10
15.440038
20
142.2531792
40
1.0752407
50
1.1274072
51
8.1718305
0
ARC
8
DEFAULT_255_1_234
10
15.1164571
20
142.2404885
40
1.3990231
50
0.5424119
51
1.3863029
0
ARC
8
DEFAULT_255_1_234
10
15.2985949
20
142.2677342
40
1.0682415
50
359.8090433
51
4.9407866
0
ARC
8
DEFAULT_255_1_234
10
15.7195963
20
142.3053113
40
0.6455691
50
4.8362157
51
12.2904523
0
ARC
8
DEFAULT_255_1_234
10
15.9951078
20
142.3666965
40
0.3633074
50
12.0805627
51
23.8173984
0
ARC
8
DEFAULT_255_1_234
10
16.1124783
20
142.4163919
40
0.2358723
50
24.2871213
51
31.3935614
0
ARC
8
DEFAULT_255_1_234
10
16.164948
20
142.4507233
40
0.1732111
50
30.7407893
51
82.4657128
0
ARC
8
DEFAULT_255_1_234
10
16.1469615
20
142.3623691
40
0.263235
50
81.1060089
51
90.2184952
0
ARC
8
DEFAULT_255_1_234
10
16.1433913
20
142.3881924
40
0.2374236
50
89.3806855
51
105.6762551
0
ARC
8
DEFAULT_255_1_234
10
16.1250544
20
142.4548567
40
0.1682847
50
105.7981136
51
149.7388061
0
ARC
8
DEFAULT_255_1_234
10
16.2314622
20
142.390895
40
0.2924306
50
149.4208916
51
163.6286378
0
ARC
8
DEFAULT_255_1_234
10
16.440551
20
142.327125
40
0.5110213
50
163.3763315
51
172.1410975
0
ARC
8
DEFAULT_255_1_234
10
16.7706229
20
142.2798518
40
0.8444586
50
172.0259487
51
178.0703232
0
ARC
8
DEFAULT_255_1_234
10
17.0736319
20
142.2654906
40
1.1477868
50
177.8631668
51
179.5044149
0
ARC
8
DEFAULT_255_1_234
10
16.9663723
20
142.0340389
40
1.0404907
50
179.7995573
51
185.2460446
0
ARC
8
DEFAULT_255_1_234
10
16.5620763
20
141.9957513
40
0.6343885
50
185.1411642
51
193.0079639
0
ARC
8
DEFAULT_255_1_234
10
16.2977235
20
141.9332641
40
0.3627568
50
192.7897626
51
205.2507664
0
ARC
8
DEFAULT_255_1_234
10
16.1930782
20
141.8865415
40
0.2481908
50
205.8005384
51
211.2537509
0
ARC
8
DEFAULT_255_1_234
10
16.1407223
20
141.851458
40
0.1852521
50
210.3789793
51
238.4008143
0
ARC
8
DEFAULT_255_1_234
10
16.1387744
20
141.8561376
40
0.1882621
50
239.6520629
51
265.9793761
0
ARC
8
DEFAULT_255_1_234
10
16.1472945
20
141.9233427
40
0.2559272
50
265.1315437
51
270.060332
0
ARC
8
DEFAULT_255_1_234
10
16.1501723
20
141.8909534
40
0.2235528
50
269.3314664
51
287.2178029
0
ARC
8
DEFAULT_255_1_234
10
16.1639575
20
141.8406279
40
0.1714108
50
287.7958004
51
329.080874
0
ARC
8
DEFAULT_255_1_234
10
16.0682032
20
141.900393
40
0.2842745
50
328.6634704
51
343.3325132
0
ARC
8
DEFAULT_255_1_234
10
15.8509052
20
141.9680863
40
0.5118644
50
343.0499468
51
351.9393422
0
ARC
8
DEFAULT_255_1_234
10
15.5042352
20
142.0191949
40
0.8622784
50
351.8069023
51
357.7959224
0
ARC
8
DEFAULT_255_1_234
10
15.1806908
20
142.0359721
40
1.1862365
50
357.5871873
51
359.2677531
0
ARC
8
DEFAULT_255_2_778
10
17.2795513
20
144.8890655
40
0.9032652
50
36.6636783
51
62.8800292
0
ARC
8
DEFAULT_255_2_778
10
17.362048
20
146.1580795
40
0.5698185
50
305.2984654
51
359.1896208
0
ARC
8
DEFAULT_255_2_778
10
17.3634372
20
146.1534256
40
0.5683825
50
359.6567283
51
359.9965559
0
ARC
8
DEFAULT_255_2_778
10
17.3738628
20
146.1532968
40
0.5579568
50
0.0097156
51
44.9837975
0
ARC
8
DEFAULT_255_2_778
10
17.3736736
20
146.1534297
40
0.5579968
50
44.9604089
51
90.0139948
0
ARC
8
DEFAULT_255_2_778
10
17.3735813
20
146.1358846
40
0.5755419
50
90.0043846
51
90.2659864
0
ARC
8
DEFAULT_255_2_778
10
17.3015142
20
144.9427344
40
0.8779024
50
272.428255
51
302.0472027
0
ARC
8
DEFAULT_255_2_778
10
17.3149911
20
144.9082487
40
0.841549
50
302.5153244
51
0.4882776
0
ARC
8
DEFAULT_255_2_778
10
17.3237108
20
144.9362449
40
0.833059
50
358.5675863
51
29.0157619
0
ARC
8
DEFAULT_255_2_778
10
15.115709
20
144.8901166
40
0.90203
50
36.6388615
51
62.8867752
0
ARC
8
DEFAULT_255_2_778
10
15.1980877
20
146.1577954
40
0.5692748
50
305.2706468
51
359.2174393
0
ARC
8
DEFAULT_255_2_778
10
15.2034234
20
146.1530241
40
0.563894
50
359.6947901
51
359.9999584
0
ARC
8
DEFAULT_255_2_778
10
15.2087973
20
146.1530658
40
0.5585202
50
359.9956834
51
44.9740581
0
ARC
8
DEFAULT_255_2_778
10
15.2091182
20
146.1533026
40
0.5581257
50
44.9801433
51
90.0010632
0
ARC
8
DEFAULT_255_2_778
10
15.2091083
20
146.1493714
40
0.562057
50
90.0000416
51
90.3056982
0
ARC
8
DEFAULT_255_2_778
10
15.1365968
20
144.9428822
40
0.8780507
50
272.42898
51
302.0445025
0
ARC
8
DEFAULT_255_2_778
10
15.1501929
20
144.9082943
40
0.8415468
50
302.5093151
51
0.4851764
0
ARC
8
DEFAULT_255_2_778
10
15.1579024
20
144.9359974
40
0.8340609
50
358.5863171
51
28.9970314
0
LINE
8
DEFAULT_255_2_778
10
13.4101095
20
145.4284203
11
12.9532095
21
146.7114203
0
LINE
8
DEFAULT_255_2_778
10
12.9532095
20
146.7114203
11
12.6084095
21
146.7114203
0
LINE
8
DEFAULT_255_2_778
10
12.6084095
20
146.7114203
11
12.6084095
21
145.4284203
0
LINE
8
DEFAULT_255_2_778
10
12.6084095
20
145.4284203
11
13.4101095
21
145.4284203
0
LINE
8
DEFAULT_255_2_778
10
12.6084095
20
144.6267203
11
13.0334095
21
144.6267203
0
LINE
8
DEFAULT_255_2_778
10
13.0334095
20
144.6267203
11
13.2257095
21
144.0656203
0
LINE
8
DEFAULT_255_2_778
10
13.2257095
20
144.0656203
11
13.8911095
21
144.0656203
0
LINE
8
DEFAULT_255_2_778
10
13.8911095
20
144.0656203
11
13.4342095
21
145.3483203
0
LINE
8
DEFAULT_255_2_778
10
13.4342095
20
145.3483203
11
12.6084095
21
145.3483203
0
LINE
8
DEFAULT_255_2_778
10
12.6084095
20
145.3483203
11
12.6084095
21
144.6267203
0
LINE
8
DEFAULT_255_2_778
10
12.5283095
20
146.7114203
11
12.1835095
21
146.7114203
0
LINE
8
DEFAULT_255_2_778
10
12.1835095
20
146.7114203
11
11.7266095
21
145.4284203
0
LINE
8
DEFAULT_255_2_778
10
11.7266095
20
145.4284203
11
12.5283095
21
145.4284203
0
LINE
8
DEFAULT_255_2_778
10
12.5283095
20
145.4284203
11
12.5283095
21
146.7114203
0
LINE
8
DEFAULT_255_2_778
10
11.7025095
20
145.3483203
11
11.2453095
21
144.0656203
0
LINE
8
DEFAULT_255_2_778
10
11.2453095
20
144.0656203
11
11.9107095
21
144.0656203
0
LINE
8
DEFAULT_255_2_778
10
11.9107095
20
144.0656203
11
12.1031095
21
144.6267203
0
LINE
8
DEFAULT_255_2_778
10
12.1031095
20
144.6267203
11
12.5280095
21
144.6267203
0
LINE
8
DEFAULT_255_2_778
10
12.5280095
20
144.6267203
11
12.5280095
21
145.3483203
0
LINE
8
DEFAULT_255_2_778
10
12.5280095
20
145.3483203
11
11.7025095
21
145.3483203
0
LINE
8
DEFAULT_255_2_778
10
16.2965095
20
146.7114203
11
17.0981095
21
146.7114203
0
LINE
8
DEFAULT_255_2_778
10
17.0981095
20
146.7114203
11
17.0981095
21
145.4284203
0
LINE
8
DEFAULT_255_2_778
10
17.0981095
20
145.4284203
11
16.2965095
21
145.4284203
0
LINE
8
DEFAULT_255_2_778
10
16.2965095
20
145.4284203
11
16.2965095
21
146.7114203
0
LINE
8
DEFAULT_255_2_778
10
17.3709095
20
146.7114203
11
17.1786095
21
146.7114203
0
LINE
8
DEFAULT_255_2_778
10
17.1786095
20
146.7114203
11
17.1786095
21
145.4284203
0
LINE
8
DEFAULT_255_2_778
10
17.1786095
20
145.4284203
11
18.0043095
21
145.4284203
0
LINE
8
DEFAULT_255_2_778
10
18.0043095
20
145.4284203
11
18.0041095
21
145.4284203
0
LINE
8
DEFAULT_255_2_778
10
16.2965095
20
145.3483203
11
17.0981095
21
145.3483203
0
LINE
8
DEFAULT_255_2_778
10
17.0981095
20
145.3483203
11
17.0981095
21
144.0656203
0
LINE
8
DEFAULT_255_2_778
10
17.0981095
20
144.0656203
11
16.2965095
21
144.0656203
0
LINE
8
DEFAULT_255_2_778
10
16.2965095
20
144.0656203
11
16.2965095
21
145.3483203
0
LINE
8
DEFAULT_255_2_778
10
17.1783095
20
144.0656203
11
17.3387095
21
144.0656203
0
LINE
8
DEFAULT_255_2_778
10
18.0522095
20
145.3403203
11
17.1783095
21
145.3403203
0
LINE
8
DEFAULT_255_2_778
10
17.1783095
20
145.3403203
11
17.1783095
21
144.0656203
0
LINE
8
DEFAULT_255_2_778
10
17.1783095
20
144.0656203
11
17.1783095
21
144.0656203
0
LINE
8
DEFAULT_255_2_778
10
14.1316095
20
146.7114203
11
14.9333095
21
146.7114203
0
LINE
8
DEFAULT_255_2_778
10
14.9333095
20
146.7114203
11
14.9333095
21
145.4284203
0
LINE
8
DEFAULT_255_2_778
10
14.9333095
20
145.4284203
11
14.1316095
21
145.4284203
0
LINE
8
DEFAULT_255_2_778
10
14.1316095
20
145.4284203
11
14.1316095
21
146.7114203
0
LINE
8
DEFAULT_255_2_778
10
15.2061095
20
146.7114203
11
15.0138095
21
146.7114203
0
LINE
8
DEFAULT_255_2_778
10
15.0138095
20
146.7114203
11
15.0138095
21
145.4284203
0
LINE
8
DEFAULT_255_2_778
10
15.0138095
20
145.4284203
11
15.8395095
21
145.4284203
0
LINE
8
DEFAULT_255_2_778
10
15.8395095
20
145.4284203
11
15.8395095
21
145.4284203
0
LINE
8
DEFAULT_255_2_778
10
14.1316095
20
145.3483203
11
14.9333095
21
145.3483203
0
LINE
8
DEFAULT_255_2_778
10
14.9333095
20
145.3483203
11
14.9333095
21
144.0656203
0
LINE
8
DEFAULT_255_2_778
10
14.9333095
20
144.0656203
11
14.1316095
21
144.0656203
0
LINE
8
DEFAULT_255_2_778
10
14.1316095
20
144.0656203
11
14.1316095
21
145.3483203
0
LINE
8
DEFAULT_255_2_778
10
15.0135095
20
144.0656203
11
15.1738095
21
144.0656203
0
LINE
8
DEFAULT_255_2_778
10
15.8874095
20
145.3403203
11
15.0135095
21
145.3403203
0
LINE
8
DEFAULT_255_2_778
10
15.0135095
20
145.3403203
11
15.0135095
21
144.0656203
0
LINE
8
DEFAULT_255_2_778
10
15.0135095
20
144.0656203
11
15.0135095
21
144.0656203
0
LINE
8
DEFAULT_255_2_778
10
9.3932417
20
132.1593982
11
10.7161417
21
132.1593982
0
LINE
8
DEFAULT_255_2_778
10
10.7161417
20
132.1593982
11
10.7161417
21
71.3051982
0
LINE
8
DEFAULT_255_2_778
10
10.7161417
20
66.0135982
11
10.7161417
21
5.1593982
0
LINE
8
DEFAULT_255_2_778
10
10.7161417
20
5.1593982
11
9.3932417
21
5.1593982
0
LINE
8
DEFAULT_255_2_778
10
9.3932834
20
71.3052333
11
12.0390834
21
71.3052333
0
LINE
8
DEFAULT_255_2_778
10
12.0390834
20
71.3052333
11
12.0390834
21
66.0135333
0
LINE
8
DEFAULT_255_2_778
10
12.0390834
20
66.0135333
11
9.3932834
21
66.0135333
0
LINE
8
DEFAULT_255_2_778
10
9.3932834
20
66.0135333
11
9.3932834
21
71.3052333
0
LINE
8
DEFAULT_255_2_778
10
10.187
20
66.5427666
11
10.187
21
70.7760666
0
LINE
8
DEFAULT_255_2_778
10
9.9224167
20
69.982375
11
10.1870167
21
70.776075
0
LINE
8
DEFAULT_255_2_778
10
10.1870167
20
70.776075
11
10.4516167
21
69.982375
0
LINE
8
DEFAULT_255_2_778
10
10.4516167
20
69.982375
11
9.9224167
21
69.982375
0
LINE
8
DEFAULT_255_2_778
10
11.2453
20
70.7760666
11
11.2453
21
66.5427666
0
LINE
8
DEFAULT_255_2_778
10
10.9807167
20
67.336475
11
11.2453167
21
66.542775
0
LINE
8
DEFAULT_255_2_778
10
11.2453167
20
66.542775
11
11.5099167
21
67.336475
0
LINE
8
DEFAULT_255_2_778
10
11.5099167
20
67.336475
11
10.9807167
21
67.336475
0
LINE
8
DEFAULT_255_2_778
10
19.9765417
20
132.1593579
11
18.6536417
21
132.1593579
0
LINE
8
DEFAULT_255_2_778
10
18.6536417
20
132.1593579
11
18.6536417
21
99.0864579
0
LINE
8
DEFAULT_255_2_778
10
17.3307834
20
99.0864333
11
19.9765834
21
99.0864333
0
LINE
8
DEFAULT_255_2_778
10
19.9765834
20
99.0864333
11
19.9765834
21
93.7947333
0
LINE
8
DEFAULT_255_2_778
10
19.9765834
20
93.7947333
11
17.3307834
21
93.7947333
0
LINE
8
DEFAULT_255_2_778
10
17.3307834
20
93.7947333
11
17.3307834
21
99.0864333
0
ARC
8
DEFAULT_255_2_778_1
10
21.1303591
20
93.897177
40
4.816461
50
120.9442904
51
122.351755
0
ARC
8
DEFAULT_255_2_778_1
10
20.6837523
20
94.6008039
40
3.9830657
50
122.3407904
51
124.1946752
0
ARC
8
DEFAULT_255_2_778_1
10
20.2438464
20
95.2473306
40
3.2010724
50
124.1855758
51
126.4338849
0
ARC
8
DEFAULT_255_2_778_1
10
19.8579129
20
95.7700611
40
2.5513094
50
126.4326926
51
128.8877368
0
ARC
8
DEFAULT_255_2_778_1
10
19.5230968
20
96.1844658
40
2.0185498
50
128.8749205
51
131.8726567
0
ARC
8
DEFAULT_255_2_778_1
10
19.2259677
20
96.5154854
40
1.5737356
50
131.8616166
51
135.4168838
0
ARC
8
DEFAULT_255_2_778_1
10
18.963168
20
96.7736765
40
1.2053256
50
135.3893975
51
139.9687014
0
ARC
8
DEFAULT_255_2_778_1
10
18.7302889
20
96.9685102
40
0.9016937
50
139.9301659
51
145.9260426
0
ARC
8
DEFAULT_255_2_778_1
10
18.534154
20
97.1005104
40
0.6652776
50
145.8787362
51
153.8146208
0
ARC
8
DEFAULT_255_2_778_1
10
18.3820553
20
97.1748797
40
0.4959714
50
153.770634
51
164.3484794
0
ARC
8
DEFAULT_255_2_778_1
10
18.2807387
20
97.2030786
40
0.3908039
50
164.3220276
51
179.8083066
0
ARC
8
DEFAULT_255_2_778_1
10
18.3017789
20
97.211215
40
0.4118985
50
180.9499449
51
213.8111542
0
ARC
8
DEFAULT_255_2_778_1
10
18.5776828
20
97.3807896
40
0.73561
50
212.8271214
51
224.258472
0
ARC
8
DEFAULT_255_2_778_1
10
18.9605335
20
97.7501236
40
1.267567
50
224.1376218
51
231.4508261
0
ARC
8
DEFAULT_255_2_778_1
10
19.6032195
20
98.5531168
40
2.2960809
50
231.3955893
51
236.1256478
0
ARC
8
DEFAULT_255_2_778_1
10
21.4355223
20
101.2996293
40
5.5976905
50
236.2233172
51
239.1314682
0
ARC
8
DEFAULT_255_2_778_1
10
33.385427
20
121.0273568
40
28.6623793
50
238.8606853
51
239.0711101
0
ARC
8
DEFAULT_255_2_778_1
10
14.2132281
20
88.9302653
40
8.7248518
50
57.2420924
51
59.4062964
0
ARC
8
DEFAULT_255_2_778_1
10
17.4409241
20
93.9612102
40
2.747542
50
52.8289294
51
57.079028
0
ARC
8
DEFAULT_255_2_778_1
10
18.2155783
20
94.9815488
40
1.466457
50
46.3041868
51
52.8596521
0
ARC
8
DEFAULT_255_2_778_1
10
18.6478073
20
95.4316842
40
0.8424061
50
36.2174211
51
46.4090895
0
ARC
8
DEFAULT_255_2_778_1
10
18.9323088
20
95.6365128
40
0.4918609
50
17.400375
51
36.5489745
0
ARC
8
DEFAULT_255_2_778_1
10
19.0463994
20
95.6763754
40
0.3710912
50
0.0676858
51
16.7951297
0
ARC
8
DEFAULT_255_2_778_1
10
19.0253613
20
95.6782428
40
0.3921317
50
343.8035191
51
359.7912046
0
ARC
8
DEFAULT_255_2_778_1
10
18.9190912
20
95.7087167
40
0.5026844
50
333.2506233
51
343.8465691
0
ARC
8
DEFAULT_255_2_778_1
10
18.7652757
20
95.7854313
40
0.6745679
50
325.6600948
51
333.3122657
0
ARC
8
DEFAULT_255_2_778_1
10
18.5698344
20
95.9182296
40
0.9108568
50
319.7560915
51
325.6976089
0
ARC
8
DEFAULT_255_2_778_1
10
18.341699
20
96.1100002
40
1.2088854
50
315.4577584
51
319.8037947
0
ARC
8
DEFAULT_255_2_778_1
10
18.0783127
20
96.3688507
40
1.5781764
50
311.7298824
51
315.4670864
0
ARC
8
DEFAULT_255_2_778_1
10
17.7692879
20
96.7144074
40
2.0417554
50
308.723055
51
311.7470879
0
ARC
8
DEFAULT_255_2_778_1
10
17.415089
20
97.1556492
40
2.6075745
50
306.1165163
51
308.7300151
0
ARC
8
DEFAULT_255_2_778_1
10
17.0121091
20
97.7069523
40
3.2904564
50
303.9559446
51
306.1266333
0
ARC
8
DEFAULT_255_2_778_1
10
16.6005432
20
98.316215
40
4.0257023
50
302.3733397
51
303.9712246
0
ARC
8
DEFAULT_255_2_778_1
10
16.1809347
20
98.9777058
40
4.8090549
50
300.9434827
51
302.3758078
0
LINE
8
DEFAULT_255_2_778
10
18.6536417
20
93.7947579
11
18.6536417
21
60.7218579
0
LINE
8
DEFAULT_255_2_778
10
18.6536417
20
60.7218579
11
19.9765417
21
60.7218579
0
LINE
8
DEFAULT_255_1_234
10
4.9274119
20
139.6991792
11
4.9274119
21
139.5779
0
LINE
8
DEFAULT_255_1_234
10
4.9274119
20
139.5779
11
4.161184
21
139.5779
0
LINE
8
DEFAULT_255_1_234
10
4.161184
20
139.5779
11
4.161184
21
139.6847221
0
LINE
8
DEFAULT_255_1_234
10
4.161184
20
139.6847221
11
4.5659836
21
140.1344995
0
LINE
8
DEFAULT_255_1_234
10
4.2872823
20
140.4027595
11
4.1386952
21
140.4027595
0
LINE
8
DEFAULT_255_1_234
10
4.6535296
20
140.0389218
11
4.3402918
21
139.6991792
0
LINE
8
DEFAULT_255_1_234
10
4.3402918
20
139.6991792
11
4.9274119
21
139.6991792
0
ARC
8
DEFAULT_255_1_234
10
3.216967
20
141.3274527
40
1.8008286
50
318.5132453
51
320.7828378
0
ARC
8
DEFAULT_255_1_234
10
3.7456644
20
140.8971426
40
1.1191493
50
320.7372736
51
323.9737074
0
ARC
8
DEFAULT_255_1_234
10
4.1376501
20
140.6131361
40
0.6350923
50
323.8961724
51
328.6421089
0
ARC
8
DEFAULT_255_1_234
10
4.3423096
20
140.4869031
40
0.3946393
50
328.8299013
51
331.789948
0
ARC
8
DEFAULT_255_1_234
10
4.4420274
20
140.4354509
40
0.2824501
50
331.4255242
51
352.9364833
0
ARC
8
DEFAULT_255_1_234
10
4.4556775
20
140.4323976
40
0.2685315
50
353.2248685
51
0.0169286
0
ARC
8
DEFAULT_255_1_234
10
4.4766652
20
140.434695
40
0.2475536
50
359.4866256
51
15.9339782
0
ARC
8
DEFAULT_255_1_234
10
4.5273637
20
140.4483286
40
0.1950618
50
16.1714718
51
43.5284424
0
ARC
8
DEFAULT_255_1_234
10
4.5350946
20
140.4560573
40
0.184134
50
43.4415429
51
83.1661404
0
ARC
8
DEFAULT_255_1_234
10
4.5216864
20
140.3823771
40
0.258926
50
82.160215
51
90.1505798
0
ARC
8
DEFAULT_255_1_234
10
4.5185291
20
140.3286865
40
0.3126255
50
89.5460705
51
102.5418777
0
ARC
8
DEFAULT_255_1_234
10
4.4942377
20
140.4317665
40
0.2067346
50
102.1739365
51
129.2061916
0
ARC
8
DEFAULT_255_1_234
10
4.4863449
20
140.4442094
40
0.1921118
50
129.7279328
51
135.7542026
0
ARC
8
DEFAULT_255_1_234
10
4.4984977
20
140.4345045
40
0.2075944
50
136.175737
51
166.3674722
0
ARC
8
DEFAULT_255_1_234
10
4.5991896
20
140.4075182
40
0.3118201
50
165.9092917
51
178.8683903
0
ARC
8
DEFAULT_255_1_234
10
4.6856757
20
140.4028179
40
0.3983935
50
178.438168
51
180.0083905
0
ARC
8
DEFAULT_255_1_234
10
4.5455359
20
140.4067231
40
0.4068601
50
163.2878735
51
180.5581814
0
ARC
8
DEFAULT_255_1_234
10
4.4653621
20
140.428784
40
0.3237344
50
133.454115
51
162.9470031
0
ARC
8
DEFAULT_255_1_234
10
4.4832162
20
140.4098
40
0.349795
50
100.7869394
51
133.4384016
0
ARC
8
DEFAULT_255_1_234
10
4.5179934
20
140.2549319
40
0.5084616
50
89.6605301
51
101.3704185
0
ARC
8
DEFAULT_255_1_234
10
4.5246273
20
140.2610496
40
0.502348
50
78.2171172
51
90.4130393
0
ARC
8
DEFAULT_255_1_234
10
4.5601351
20
140.4234637
40
0.3361092
50
55.9268222
51
78.4888551
0
ARC
8
DEFAULT_255_1_234
10
4.5797791
20
140.4573324
40
0.2970617
50
47.9292255
51
55.4054003
0
ARC
8
DEFAULT_255_1_234
10
4.5899352
20
140.4676502
40
0.2825983
50
4.3347696
51
48.0560701
0
ARC
8
DEFAULT_255_1_234
10
4.4803745
20
140.4506601
40
0.393225
50
359.925209
51
5.5967654
0
ARC
8
DEFAULT_255_1_234
10
4.5232637
20
140.4562816
40
0.3503892
50
337.8914096
51
358.9967724
0
ARC
8
DEFAULT_255_1_234
10
4.2519049
20
140.5609706
40
0.6412172
50
326.9135351
51
338.3505194
0
ARC
8
DEFAULT_255_1_234
10
3.8533353
20
140.8164284
40
1.1146189
50
319.6472867
51
327.095818
0
ARC
8
DEFAULT_255_1_234
10
3.4700356
20
141.1326
40
1.6114559
50
317.2586784
51
319.9046139
0
LINE
8
DEFAULT_255_1_234
10
5.7121127
20
140.7473211
11
5.7121127
21
139.970652
0
LINE
8
DEFAULT_255_1_234
10
5.7121127
20
139.970652
11
5.8743538
21
139.970652
0
LINE
8
DEFAULT_255_1_234
10
5.8743538
20
139.970652
11
5.8743538
21
139.8493728
0
LINE
8
DEFAULT_255_1_234
10
5.8743538
20
139.8493728
11
5.7121127
21
139.8493728
0
LINE
8
DEFAULT_255_1_234
10
5.7121127
20
139.8493728
11
5.7121127
21
139.5779
0
LINE
8
DEFAULT_255_1_234
10
5.7121127
20
139.5779
11
5.5627224
21
139.5779
0
LINE
8
DEFAULT_255_1_234
10
5.5627224
20
139.5779
11
5.5627224
21
139.8493728
0
LINE
8
DEFAULT_255_1_234
10
5.5627224
20
139.8493728
11
5.0302181
21
139.8493728
0
LINE
8
DEFAULT_255_1_234
10
5.0302181
20
139.8493728
11
5.0302181
21
139.9369187
0
LINE
8
DEFAULT_255_1_234
10
5.0302181
20
139.9369187
11
5.5538875
21
140.7473211
0
LINE
8
DEFAULT_255_1_234
10
5.5538875
20
140.7473211
11
5.7121127
21
140.7473211
0
LINE
8
DEFAULT_255_1_234
10
5.5450525
20
140.5119912
11
5.1988846
21
139.970652
0
LINE
8
DEFAULT_255_1_234
10
5.1988846
20
139.970652
11
5.5627224
21
139.970652
0
LINE
8
DEFAULT_255_1_234
10
5.5627224
20
139.970652
11
5.5627224
21
140.5441181
0
LINE
8
DEFAULT_255_1_234
10
5.5627224
20
140.5441181
11
5.5450525
21
140.5119912
0
LINE
8
DEFAULT_255_1_234
10
6.101652
20
140.7473211
11
6.434166
21
139.7827093
0
LINE
8
DEFAULT_255_1_234
10
6.434166
20
139.7827093
11
6.7682863
21
140.7473211
0
LINE
8
DEFAULT_255_1_234
10
6.7682863
20
140.7473211
11
6.9369528
21
140.7473211
0
LINE
8
DEFAULT_255_1_234
10
6.9369528
20
140.7473211
11
6.5032389
21
139.5779
0
LINE
8
DEFAULT_255_1_234
10
6.5032389
20
139.5779
11
6.3666994
21
139.5779
0
LINE
8
DEFAULT_255_1_234
10
6.3666994
20
139.5779
11
5.9337887
21
140.7473211
0
LINE
8
DEFAULT_255_1_234
10
5.9337887
20
140.7473211
11
6.101652
21
140.7473211
0
LINE
8
DEFAULT_255_1_234
10
4.5169154
20
4.6404
11
4.1932364
21
4.6404
0
LINE
8
DEFAULT_255_1_234
10
4.1932364
20
4.6404
11
4.1932364
21
5.8098211
0
LINE
8
DEFAULT_255_1_234
10
4.1932364
20
5.8098211
11
4.5233408
21
5.8098211
0
LINE
8
DEFAULT_255_1_234
10
5.0389784
20
5.2644661
11
5.0389784
21
5.1897709
0
LINE
8
DEFAULT_255_1_234
10
4.5273567
20
5.6829196
11
4.3474458
21
5.6829196
0
LINE
8
DEFAULT_255_1_234
10
4.3474458
20
5.6829196
11
4.3474458
21
4.7664983
0
LINE
8
DEFAULT_255_1_234
10
4.3474458
20
4.7664983
11
4.5096869
21
4.7664983
0
LINE
8
DEFAULT_255_1_234
10
4.8863754
20
5.1929836
11
4.8863754
21
5.2612534
0
ARC
8
DEFAULT_255_1_234
10
4.5272351
20
5.2232894
40
0.5865446
50
75.4101064
51
90.3804066
0
ARC
8
DEFAULT_255_1_234
10
4.5501864
20
5.3189492
40
0.4881916
50
60.145586
51
75.1888407
0
ARC
8
DEFAULT_255_1_234
10
4.566064
20
5.3466199
40
0.4562893
50
26.5253612
51
60.1450928
0
ARC
8
DEFAULT_255_1_234
10
4.4540389
20
5.2872158
40
0.5830602
50
7.4030428
51
26.8320788
0
ARC
8
DEFAULT_255_1_234
10
4.2946146
20
5.2623804
40
0.7443669
50
0.1605367
51
7.7176192
0
ARC
8
DEFAULT_255_1_234
10
4.311005
20
5.1859434
40
0.7279835
50
348.7289388
51
0.3012466
0
ARC
8
DEFAULT_255_1_234
10
4.4766481
20
5.1530386
40
0.559104
50
333.0706509
51
348.7181832
0
ARC
8
DEFAULT_255_1_234
10
4.5733238
20
5.1005319
40
0.4491417
50
299.2531685
51
333.4571258
0
ARC
8
DEFAULT_255_1_234
10
4.5372378
20
5.1690828
40
0.5265881
50
278.107187
51
299.0339503
0
ARC
8
DEFAULT_255_1_234
10
4.5116457
20
5.3198216
40
0.679442
50
270.4443897
51
278.4511052
0
ARC
8
DEFAULT_255_1_234
10
4.5137287
20
5.2269213
40
0.4604407
50
269.4970433
51
284.0205042
0
ARC
8
DEFAULT_255_1_234
10
4.5492588
20
5.0903978
40
0.3193797
50
283.7700273
51
318.1555492
0
ARC
8
DEFAULT_255_1_234
10
4.5155346
20
5.1156367
40
0.3613588
50
318.7415601
51
343.6873628
0
ARC
8
DEFAULT_255_1_234
10
4.3351369
20
5.1719832
40
0.5503313
50
343.3325091
51
355.8548958
0
ARC
8
DEFAULT_255_1_234
10
4.1253054
20
5.1919319
40
0.7610708
50
355.4988528
51
0.0791727
0
ARC
8
DEFAULT_255_1_234
10
4.2035676
20
5.265478
40
0.6828208
50
359.6455037
51
9.8607896
0
ARC
8
DEFAULT_255_1_234
10
4.4396374
20
5.3081099
40
0.4429406
50
9.6571907
51
26.1932807
0
ARC
8
DEFAULT_255_1_234
10
4.5324363
20
5.3512118
40
0.3406537
50
26.5777228
51
40.1532208
0
ARC
8
DEFAULT_255_1_234
10
4.5580089
20
5.3711619
40
0.308246
50
40.3840491
51
80.1431104
0
ARC
8
DEFAULT_255_1_234
10
4.5253207
20
5.2262333
40
0.4566909
50
79.2152159
51
89.7445637
0
LINE
8
DEFAULT_255_1_234
10
5.4373526
20
5.8098211
11
5.4373526
21
4.6404
0
LINE
8
DEFAULT_255_1_234
10
5.4373526
20
4.6404
11
5.2831433
21
4.6404
0
LINE
8
DEFAULT_255_1_234
10
5.2831433
20
4.6404
11
5.2831433
21
5.8098211
0
LINE
8
DEFAULT_255_1_234
10
5.2831433
20
5.8098211
11
5.4373526
21
5.8098211
0
LINE
8
DEFAULT_255_1_234
10
6.169044
20
5.8154433
11
6.169044
21
4.6404
0
LINE
8
DEFAULT_255_1_234
10
6.169044
20
4.6404
11
6.0196537
21
4.6404
0
LINE
8
DEFAULT_255_1_234
10
6.0196537
20
4.6404
11
6.0196537
21
5.6307133
0
LINE
8
DEFAULT_255_1_234
10
6.0196537
20
5.6307133
11
5.7200698
21
5.5206785
0
LINE
8
DEFAULT_255_1_234
10
5.7200698
20
5.5206785
11
5.7200698
21
5.6556117
0
LINE
8
DEFAULT_255_1_234
10
5.7200698
20
5.6556117
11
6.145752
21
5.8154433
0
LINE
8
DEFAULT_255_1_234
10
6.145752
20
5.8154433
11
6.169044
21
5.8154433
0
LINE
8
DEFAULT_255_1_234
10
7.1609637
20
5.8106243
11
7.1874684
21
5.8106243
0
LINE
8
DEFAULT_255_1_234
10
7.1874684
20
5.8106243
11
7.1874684
21
5.684526
0
LINE
8
DEFAULT_255_1_234
10
7.1874684
20
5.684526
11
7.1601605
21
5.684526
0
LINE
8
DEFAULT_255_1_234
10
6.6131991
20
5.0853583
11
6.6131991
21
5.1423836
0
LINE
8
DEFAULT_255_1_234
10
6.7625895
20
5.1231075
11
6.7625895
21
5.0684917
0
ARC
8
DEFAULT_255_1_234
10
7.1653953
20
5.1847455
40
0.4998079
50
90.6001036
51
104.514704
0
ARC
8
DEFAULT_255_1_234
10
7.1265468
20
5.3292131
40
0.3502176
50
104.2855254
51
133.862935
0
ARC
8
DEFAULT_255_1_234
10
7.1429226
20
5.318383
40
0.3693984
50
134.5302688
51
161.6210873
0
ARC
8
DEFAULT_255_1_234
10
7.3082414
20
5.2600895
40
0.5446739
50
161.2849839
51
174.2076652
0
ARC
8
DEFAULT_255_1_234
10
7.4489352
20
5.2406787
40
0.6866274
50
173.7810589
51
174.9254635
0
ARC
8
DEFAULT_255_1_234
10
6.9939183
20
5.1023839
40
0.3033419
50
95.8330959
51
138.9954921
0
ARC
8
DEFAULT_255_1_234
10
7.0162539
20
4.9745375
40
0.4328947
50
89.8753725
51
97.0544009
0
ARC
8
DEFAULT_255_1_234
10
7.0210006
20
5.0580748
40
0.3493769
50
71.6407809
51
90.6240094
0
ARC
8
DEFAULT_255_1_234
10
7.0360579
20
5.1135082
40
0.2920396
50
39.6367836
51
71.019018
0
ARC
8
DEFAULT_255_1_234
10
6.9724052
20
5.0584998
40
0.3761538
50
10.658731
51
39.9043955
0
ARC
8
DEFAULT_255_1_234
10
6.8176135
20
5.0248686
40
0.5345136
50
359.682601
51
11.132623
0
ARC
8
DEFAULT_255_1_234
10
6.8136266
20
5.017801
40
0.5385081
50
347.2486944
51
0.4369317
0
ARC
8
DEFAULT_255_1_234
10
6.9803743
20
4.9776807
40
0.3670249
50
318.1409698
51
347.6118597
0
ARC
8
DEFAULT_255_1_234
10
7.0128736
20
4.9509702
40
0.3250007
50
275.6342139
51
317.8248465
0
ARC
8
DEFAULT_255_1_234
10
6.9907847
20
5.0809219
40
0.4565864
50
269.8874292
51
276.7917694
0
ARC
8
DEFAULT_255_1_234
10
6.9852918
20
4.9783743
40
0.3540676
50
246.9140195
51
270.7437342
0
ARC
8
DEFAULT_255_1_234
10
6.9859308
20
4.9641384
40
0.3412781
50
218.1665114
51
245.878116
0
ARC
8
DEFAULT_255_1_234
10
7.0738769
20
5.0377279
40
0.455911
50
191.4115814
51
218.6077802
0
ARC
8
DEFAULT_255_1_234
10
7.2676858
20
5.0811833
40
0.6545001
50
179.6345085
51
191.7836486
0
ARC
8
DEFAULT_255_1_234
10
7.8259195
20
5.1490697
40
1.2127388
50
171.4525249
51
180.3158839
0
ARC
8
DEFAULT_255_1_234
10
7.386407
20
5.2174608
40
0.7679464
50
157.9802646
51
171.6246686
0
ARC
8
DEFAULT_255_1_234
10
7.1650091
20
5.3057421
40
0.5296008
50
141.4298019
51
157.854097
0
ARC
8
DEFAULT_255_1_234
10
7.1008412
20
5.3511381
40
0.4511509
50
102.8715806
51
140.8564722
0
ARC
8
DEFAULT_255_1_234
10
7.1656027
20
5.1071552
40
0.7034845
50
90.3778349
51
103.5869322
0
ARC
8
DEFAULT_255_1_234
10
6.9917804
20
5.046673
40
0.2370698
50
89.8751008
51
126.2071704
0
ARC
8
DEFAULT_255_1_234
10
6.9963593
20
5.0312303
40
0.2522934
50
124.9745049
51
144.895901
0
ARC
8
DEFAULT_255_1_234
10
6.9787784
20
5.045556
40
0.2296779
50
145.2974905
51
160.2660252
0
ARC
8
DEFAULT_255_1_234
10
7.2860323
20
5.0653071
40
0.5234525
50
179.6514266
51
190.2855912
0
ARC
8
DEFAULT_255_1_234
10
7.116646
20
5.0333786
40
0.3510893
50
190.0945431
51
207.5098196
0
ARC
8
DEFAULT_255_1_234
10
7.060073
20
5.0064623
40
0.288489
50
207.9583163
51
216.3251085
0
ARC
8
DEFAULT_255_1_234
10
7.0260838
20
4.9785105
40
0.2445587
50
215.7661442
51
232.5456785
0
ARC
8
DEFAULT_255_1_234
10
6.9877821
20
4.9298482
40
0.1826382
50
232.8005391
51
270.6605633
0
ARC
8
DEFAULT_255_1_234
10
6.9923521
20
4.9662612
40
0.2190529
50
269.35537
51
288.4744281
0
ARC
8
DEFAULT_255_1_234
10
7.0016419
20
4.9313118
40
0.1829749
50
289.1833337
51
322.9683818
0
ARC
8
DEFAULT_255_1_234
10
6.9404941
20
4.9795391
40
0.2608399
50
322.6007884
51
346.5182367
0
ARC
8
DEFAULT_255_1_234
10
6.8247537
20
5.0090616
40
0.3802777
50
346.2582162
51
358.7741648
0
ARC
8
DEFAULT_255_1_234
10
6.7229206
20
5.0145965
40
0.4822176
50
358.3755224
51
0.0098023
0
ARC
8
DEFAULT_255_1_234
10
6.7985393
20
5.0173657
40
0.4066078
50
359.6214041
51
11.2839074
0
ARC
8
DEFAULT_255_1_234
10
6.926254
20
5.0440066
40
0.2761514
50
11.0482309
51
31.8146458
0
ARC
8
DEFAULT_255_1_234
10
6.9571583
20
5.0607584
40
0.2410679
50
32.3035391
51
38.082671
0
ARC
8
DEFAULT_255_1_234
10
6.9992243
20
5.0988662
40
0.1844966
50
36.825067
51
85.7415724
0
ARC
8
DEFAULT_255_1_234
10
6.9925076
20
5.0488301
40
0.2349122
50
85.0140713
51
90.0513278
0
LINE
8
DEFAULT_255_1_234
10
4.5169154
20
12.5779
11
4.1932364
21
12.5779
0
LINE
8
DEFAULT_255_1_234
10
4.1932364
20
12.5779
11
4.1932364
21
13.7473211
0
LINE
8
DEFAULT_255_1_234
10
4.1932364
20
13.7473211
11
4.5233408
21
13.7473211
0
LINE
8
DEFAULT_255_1_234
10
5.0389784
20
13.2019661
11
5.0389784
21
13.1272709
0
LINE
8
DEFAULT_255_1_234
10
4.5273567
20
13.6204196
11
4.3474458
21
13.6204196
0
LINE
8
DEFAULT_255_1_234
10
4.3474458
20
13.6204196
11
4.3474458
21
12.7039983
0
LINE
8
DEFAULT_255_1_234
10
4.3474458
20
12.7039983
11
4.5096869
21
12.7039983
0
LINE
8
DEFAULT_255_1_234
10
4.8863754
20
13.1304836
11
4.8863754
21
13.1987534
0
ARC
8
DEFAULT_255_1_234
10
4.5272351
20
13.1607894
40
0.5865446
50
75.4101064
51
90.3804066
0
ARC
8
DEFAULT_255_1_234
10
4.5501864
20
13.2564492
40
0.4881916
50
60.145586
51
75.1888407
0
ARC
8
DEFAULT_255_1_234
10
4.566064
20
13.2841199
40
0.4562893
50
26.5253612
51
60.1450928
0
ARC
8
DEFAULT_255_1_234
10
4.4540389
20
13.2247158
40
0.5830602
50
7.4030428
51
26.8320788
0
ARC
8
DEFAULT_255_1_234
10
4.2946146
20
13.1998804
40
0.7443669
50
0.1605367
51
7.7176192
0
ARC
8
DEFAULT_255_1_234
10
4.311005
20
13.1234434
40
0.7279835
50
348.7289388
51
0.3012466
0
ARC
8
DEFAULT_255_1_234
10
4.4766481
20
13.0905386
40
0.559104
50
333.0706509
51
348.7181832
0
ARC
8
DEFAULT_255_1_234
10
4.5733238
20
13.0380319
40
0.4491417
50
299.2531685
51
333.4571258
0
ARC
8
DEFAULT_255_1_234
10
4.5372378
20
13.1065828
40
0.5265881
50
278.107187
51
299.0339503
0
ARC
8
DEFAULT_255_1_234
10
4.5116457
20
13.2573216
40
0.679442
50
270.4443897
51
278.4511052
0
ARC
8
DEFAULT_255_1_234
10
4.5137287
20
13.1644213
40
0.4604407
50
269.4970433
51
284.0205042
0
ARC
8
DEFAULT_255_1_234
10
4.5492588
20
13.0278978
40
0.3193797
50
283.7700273
51
318.1555492
0
ARC
8
DEFAULT_255_1_234
10
4.5155346
20
13.0531367
40
0.3613588
50
318.7415601
51
343.6873628
0
ARC
8
DEFAULT_255_1_234
10
4.3351369
20
13.1094832
40
0.5503313
50
343.3325091
51
355.8548958
0
ARC
8
DEFAULT_255_1_234
10
4.1253054
20
13.1294319
40
0.7610708
50
355.4988528
51
0.0791727
0
ARC
8
DEFAULT_255_1_234
10
4.2035676
20
13.202978
40
0.6828208
50
359.6455037
51
9.8607896
0
ARC
8
DEFAULT_255_1_234
10
4.4396374
20
13.2456099
40
0.4429406
50
9.6571907
51
26.1932807
0
ARC
8
DEFAULT_255_1_234
10
4.5324363
20
13.2887118
40
0.3406537
50
26.5777228
51
40.1532208
0
ARC
8
DEFAULT_255_1_234
10
4.5580089
20
13.3086619
40
0.308246
50
40.3840491
51
80.1431104
0
ARC
8
DEFAULT_255_1_234
10
4.5253207
20
13.1637333
40
0.4566909
50
79.2152159
51
89.7445637
0
LINE
8
DEFAULT_255_1_234
10
5.4373526
20
13.7473211
11
5.4373526
21
12.5779
0
LINE
8
DEFAULT_255_1_234
10
5.4373526
20
12.5779
11
5.2831433
21
12.5779
0
LINE
8
DEFAULT_255_1_234
10
5.2831433
20
12.5779
11
5.2831433
21
13.7473211
0
LINE
8
DEFAULT_255_1_234
10
5.2831433
20
13.7473211
11
5.4373526
21
13.7473211
0
LINE
8
DEFAULT_255_1_234
10
6.169044
20
13.7529433
11
6.169044
21
12.5779
0
LINE
8
DEFAULT_255_1_234
10
6.169044
20
12.5779
11
6.0196537
21
12.5779
0
LINE
8
DEFAULT_255_1_234
10
6.0196537
20
12.5779
11
6.0196537
21
13.5682133
0
LINE
8
DEFAULT_255_1_234
10
6.0196537
20
13.5682133
11
5.7200698
21
13.4581785
0
LINE
8
DEFAULT_255_1_234
10
5.7200698
20
13.4581785
11
5.7200698
21
13.5931117
0
LINE
8
DEFAULT_255_1_234
10
5.7200698
20
13.5931117
11
6.145752
21
13.7529433
0
LINE
8
DEFAULT_255_1_234
10
6.145752
20
13.7529433
11
6.169044
21
13.7529433
0
LINE
8
DEFAULT_255_1_234
10
6.7915037
20
13.1336963
11
6.672634
21
13.1642169
0
LINE
8
DEFAULT_255_1_234
10
6.672634
20
13.1642169
11
6.7320688
21
13.7473211
0
LINE
8
DEFAULT_255_1_234
10
6.7320688
20
13.7473211
11
7.3312365
21
13.7473211
0
LINE
8
DEFAULT_255_1_234
10
7.3312365
20
13.7473211
11
7.3312365
21
13.6099784
0
LINE
8
DEFAULT_255_1_234
10
7.3312365
20
13.6099784
11
6.8581671
21
13.6099784
0
LINE
8
DEFAULT_255_1_234
10
6.8581671
20
13.6099784
11
6.8228275
21
13.2911184
0
LINE
8
DEFAULT_255_1_234
10
6.6308689
20
12.8855156
11
6.7714244
21
12.8855156
0
LINE
8
DEFAULT_255_1_234
10
6.8308592
20
13.1658232
11
6.7915037
21
13.1336963
0
ARC
8
DEFAULT_255_1_234
10
7.0083059
20
12.973123
40
0.3681349
50
93.7182161
51
120.2538958
0
ARC
8
DEFAULT_255_1_234
10
7.0177322
20
12.8923394
40
0.449379
50
89.9660152
51
94.2496022
0
ARC
8
DEFAULT_255_1_234
10
7.0218056
20
12.9512549
40
0.390482
50
73.8043271
51
90.5585896
0
ARC
8
DEFAULT_255_1_234
10
7.0452953
20
13.0370602
40
0.3015334
50
41.3071453
51
73.5430202
0
ARC
8
DEFAULT_255_1_234
10
7.003678
20
13.0012324
40
0.3564457
50
13.5075983
51
41.2174222
0
ARC
8
DEFAULT_255_1_234
10
6.8394984
20
12.9582486
40
0.5261351
50
1.1331335
51
13.8829381
0
ARC
8
DEFAULT_255_1_234
10
6.6983353
20
12.9506665
40
0.6674378
50
359.9919444
51
1.544251
0
ARC
8
DEFAULT_255_1_234
10
6.8260179
20
12.946528
40
0.5397702
50
347.8572367
51
0.4293338
0
ARC
8
DEFAULT_255_1_234
10
7.0010497
20
12.9068736
40
0.3603188
50
323.673004
51
348.1672506
0
ARC
8
DEFAULT_255_1_234
10
7.0305005
20
12.8889168
40
0.3259678
50
316.8171152
51
323.1492751
0
ARC
8
DEFAULT_255_1_234
10
7.0366194
20
12.885246
40
0.3189975
50
281.8396411
51
316.5457803
0
ARC
8
DEFAULT_255_1_234
10
6.9990457
20
13.0407762
40
0.4789527
50
269.5770101
51
282.4214771
0
ARC
8
DEFAULT_255_1_234
10
6.9919269
20
13.0194125
40
0.45759
50
256.2427136
51
270.4486331
0
ARC
8
DEFAULT_255_1_234
10
6.9620171
20
12.8994229
40
0.3339303
50
228.9023911
51
256.3314342
0
ARC
8
DEFAULT_255_1_234
10
6.9546404
20
12.8877746
40
0.32031
50
193.753695
51
228.5271154
0
ARC
8
DEFAULT_255_1_234
10
7.0784358
20
12.92408
40
0.4492253
50
184.924711
51
194.497588
0
ARC
8
DEFAULT_255_1_234
10
7.0976925
20
12.9276591
40
0.3289787
50
187.3600538
51
198.6732863
0
ARC
8
DEFAULT_255_1_234
10
6.9927219
20
12.8912674
40
0.217884
50
198.4451669
51
217.794479
0
ARC
8
DEFAULT_255_1_234
10
6.9631394
20
12.8703085
40
0.1816698
50
218.2887171
51
228.5612368
0
ARC
8
DEFAULT_255_1_234
10
6.9729181
20
12.8834963
40
0.1980329
50
228.9654866
51
258.1234728
0
ARC
8
DEFAULT_255_1_234
10
6.9934891
20
12.9715833
40
0.2884748
50
257.7258293
51
270.401361
0
ARC
8
DEFAULT_255_1_234
10
6.9979777
20
12.9270821
40
0.2439788
50
269.4204404
51
286.4209037
0
ARC
8
DEFAULT_255_1_234
10
7.0128265
20
12.8731657
40
0.1880666
50
286.7251356
51
320.600362
0
ARC
8
DEFAULT_255_1_234
10
6.974509
20
12.9042595
40
0.2374121
50
320.6712579
51
344.5441685
0
ARC
8
DEFAULT_255_1_234
10
6.8588416
20
12.9382045
40
0.3579479
50
344.2412205
51
356.7357071
0
ARC
8
DEFAULT_255_1_234
10
6.7339565
20
12.9485444
40
0.4832297
50
356.3548756
51
0.0500261
0
ARC
8
DEFAULT_255_1_234
10
6.8676074
20
12.951665
40
0.3495889
50
359.5576869
51
12.953486
0
ARC
8
DEFAULT_255_1_234
10
6.9730971
20
12.9772434
40
0.2410532
50
12.6490276
51
41.6081334
0
ARC
8
DEFAULT_255_1_234
10
6.9961342
20
12.9968321
40
0.2108218
50
41.7850273
51
85.9892764
0
ARC
8
DEFAULT_255_1_234
10
6.9838079
20
12.9155462
40
0.2928454
50
84.6957577
51
90.0676183
0
ARC
8
DEFAULT_255_1_234
10
6.9814563
20
12.8486716
40
0.3597255
50
89.6804936
51
99.1614436
0
ARC
8
DEFAULT_255_1_234
10
6.9609194
20
12.9714131
40
0.235281
50
98.9830931
51
113.8908934
0
ARC
8
DEFAULT_255_1_234
10
6.9379604
20
13.0255587
40
0.176479
50
114.1950727
51
127.3641004
0
LINE
8
DEFAULT_255_1_234
10
4.6227154
20
20.5154
11
4.2990364
21
20.5154
0
LINE
8
DEFAULT_255_1_234
10
4.2990364
20
20.5154
11
4.2990364
21
21.6848211
0
LINE
8
DEFAULT_255_1_234
10
4.2990364
20
21.6848211
11
4.6291408
21
21.6848211
0
LINE
8
DEFAULT_255_1_234
10
5.1447784
20
21.1394661
11
5.1447784
21
21.0647709
0
LINE
8
DEFAULT_255_1_234
10
4.6331567
20
21.5579196
11
4.4532458
21
21.5579196
0
LINE
8
DEFAULT_255_1_234
10
4.4532458
20
21.5579196
11
4.4532458
21
20.6414983
0
LINE
8
DEFAULT_255_1_234
10
4.4532458
20
20.6414983
11
4.6154869
21
20.6414983
0
LINE
8
DEFAULT_255_1_234
10
4.9921754
20
21.0679836
11
4.9921754
21
21.1362534
0
ARC
8
DEFAULT_255_1_234
10
4.6330351
20
21.0982894
40
0.5865446
50
75.4101064
51
90.3804066
0
ARC
8
DEFAULT_255_1_234
10
4.6559864
20
21.1939492
40
0.4881916
50
60.145586
51
75.1888407
0
ARC
8
DEFAULT_255_1_234
10
4.671864
20
21.2216199
40
0.4562893
50
26.5253612
51
60.1450928
0
ARC
8
DEFAULT_255_1_234
10
4.5598389
20
21.1622158
40
0.5830602
50
7.4030428
51
26.8320788
0
ARC
8
DEFAULT_255_1_234
10
4.4004146
20
21.1373804
40
0.7443669
50
0.1605367
51
7.7176192
0
ARC
8
DEFAULT_255_1_234
10
4.416805
20
21.0609434
40
0.7279835
50
348.7289388
51
0.3012466
0
ARC
8
DEFAULT_255_1_234
10
4.5824481
20
21.0280386
40
0.559104
50
333.0706509
51
348.7181832
0
ARC
8
DEFAULT_255_1_234
10
4.6791238
20
20.9755319
40
0.4491417
50
299.2531685
51
333.4571258
0
ARC
8
DEFAULT_255_1_234
10
4.6430378
20
21.0440828
40
0.5265881
50
278.107187
51
299.0339503
0
ARC
8
DEFAULT_255_1_234
10
4.6174457
20
21.1948216
40
0.679442
50
270.4443897
51
278.4511052
0
ARC
8
DEFAULT_255_1_234
10
4.6195287
20
21.1019213
40
0.4604407
50
269.4970433
51
284.0205042
0
ARC
8
DEFAULT_255_1_234
10
4.6550588
20
20.9653978
40
0.3193797
50
283.7700273
51
318.1555492
0
ARC
8
DEFAULT_255_1_234
10
4.6213346
20
20.9906367
40
0.3613588
50
318.7415601
51
343.6873628
0
ARC
8
DEFAULT_255_1_234
10
4.4409369
20
21.0469832
40
0.5503313
50
343.3325091
51
355.8548958
0
ARC
8
DEFAULT_255_1_234
10
4.2311054
20
21.0669319
40
0.7610708
50
355.4988528
51
0.0791727
0
ARC
8
DEFAULT_255_1_234
10
4.3093676
20
21.140478
40
0.6828208
50
359.6455037
51
9.8607896
0
ARC
8
DEFAULT_255_1_234
10
4.5454374
20
21.1831099
40
0.4429406
50
9.6571907
51
26.1932807
0
ARC
8
DEFAULT_255_1_234
10
4.6382363
20
21.2262118
40
0.3406537
50
26.5777228
51
40.1532208
0
ARC
8
DEFAULT_255_1_234
10
4.6638089
20
21.2461619
40
0.308246
50
40.3840491
51
80.1431104
0
ARC
8
DEFAULT_255_1_234
10
4.6311207
20
21.1012333
40
0.4566909
50
79.2152159
51
89.7445637
0
LINE
8
DEFAULT_255_1_234
10
5.5431526
20
21.6848211
11
5.5431526
21
20.5154
0
LINE
8
DEFAULT_255_1_234
10
5.5431526
20
20.5154
11
5.3889433
21
20.5154
0
LINE
8
DEFAULT_255_1_234
10
5.3889433
20
20.5154
11
5.3889433
21
21.6848211
0
LINE
8
DEFAULT_255_1_234
10
5.3889433
20
21.6848211
11
5.5431526
21
21.6848211
0
LINE
8
DEFAULT_255_1_234
10
6.274844
20
21.6904433
11
6.274844
21
20.5154
0
LINE
8
DEFAULT_255_1_234
10
6.274844
20
20.5154
11
6.1254537
21
20.5154
0
LINE
8
DEFAULT_255_1_234
10
6.1254537
20
20.5154
11
6.1254537
21
21.5057133
0
LINE
8
DEFAULT_255_1_234
10
6.1254537
20
21.5057133
11
5.8258698
21
21.3956785
0
LINE
8
DEFAULT_255_1_234
10
5.8258698
20
21.3956785
11
5.8258698
21
21.5306117
0
LINE
8
DEFAULT_255_1_234
10
5.8258698
20
21.5306117
11
6.251552
21
21.6904433
0
LINE
8
DEFAULT_255_1_234
10
6.251552
20
21.6904433
11
6.274844
21
21.6904433
0
LINE
8
DEFAULT_255_1_234
10
7.337443
20
21.6848211
11
7.337443
21
20.908152
0
LINE
8
DEFAULT_255_1_234
10
7.337443
20
20.908152
11
7.4996841
21
20.908152
0
LINE
8
DEFAULT_255_1_234
10
7.4996841
20
20.908152
11
7.4996841
21
20.7868728
0
LINE
8
DEFAULT_255_1_234
10
7.4996841
20
20.7868728
11
7.337443
21
20.7868728
0
LINE
8
DEFAULT_255_1_234
10
7.337443
20
20.7868728
11
7.337443
21
20.5154
0
LINE
8
DEFAULT_255_1_234
10
7.337443
20
20.5154
11
7.1880526
21
20.5154
0
LINE
8
DEFAULT_255_1_234
10
7.1880526
20
20.5154
11
7.1880526
21
20.7868728
0
LINE
8
DEFAULT_255_1_234
10
7.1880526
20
20.7868728
11
6.6555484
21
20.7868728
0
LINE
8
DEFAULT_255_1_234
10
6.6555484
20
20.7868728
11
6.6555484
21
20.8744187
0
LINE
8
DEFAULT_255_1_234
10
6.6555484
20
20.8744187
11
7.1792177
21
21.6848211
0
LINE
8
DEFAULT_255_1_234
10
7.1792177
20
21.6848211
11
7.337443
21
21.6848211
0
LINE
8
DEFAULT_255_1_234
10
7.1703828
20
21.4494912
11
6.8242149
21
20.908152
0
LINE
8
DEFAULT_255_1_234
10
6.8242149
20
20.908152
11
7.1880526
21
20.908152
0
LINE
8
DEFAULT_255_1_234
10
7.1880526
20
20.908152
11
7.1880526
21
21.4816181
0
LINE
8
DEFAULT_255_1_234
10
7.1880526
20
21.4816181
11
7.1703828
21
21.4494912
0
LINE
8
DEFAULT_255_1_234
10
4.5169154
20
28.4529
11
4.1932364
21
28.4529
0
LINE
8
DEFAULT_255_1_234
10
4.1932364
20
28.4529
11
4.1932364
21
29.6223211
0
LINE
8
DEFAULT_255_1_234
10
4.1932364
20
29.6223211
11
4.5233408
21
29.6223211
0
LINE
8
DEFAULT_255_1_234
10
5.0389784
20
29.0769661
11
5.0389784
21
29.0022709
0
LINE
8
DEFAULT_255_1_234
10
4.5273567
20
29.4954196
11
4.3474458
21
29.4954196
0
LINE
8
DEFAULT_255_1_234
10
4.3474458
20
29.4954196
11
4.3474458
21
28.5789983
0
LINE
8
DEFAULT_255_1_234
10
4.3474458
20
28.5789983
11
4.5096869
21
28.5789983
0
LINE
8
DEFAULT_255_1_234
10
4.8863754
20
29.0054836
11
4.8863754
21
29.0737534
0
ARC
8
DEFAULT_255_1_234
10
4.5272351
20
29.0357894
40
0.5865446
50
75.4101064
51
90.3804066
0
ARC
8
DEFAULT_255_1_234
10
4.5501864
20
29.1314492
40
0.4881916
50
60.145586
51
75.1888407
0
ARC
8
DEFAULT_255_1_234
10
4.566064
20
29.1591199
40
0.4562893
50
26.5253612
51
60.1450928
0
ARC
8
DEFAULT_255_1_234
10
4.4540389
20
29.0997158
40
0.5830602
50
7.4030428
51
26.8320788
0
ARC
8
DEFAULT_255_1_234
10
4.2946146
20
29.0748804
40
0.7443669
50
0.1605367
51
7.7176192
0
ARC
8
DEFAULT_255_1_234
10
4.311005
20
28.9984434
40
0.7279835
50
348.7289388
51
0.3012466
0
ARC
8
DEFAULT_255_1_234
10
4.4766481
20
28.9655386
40
0.559104
50
333.0706509
51
348.7181832
0
ARC
8
DEFAULT_255_1_234
10
4.5733238
20
28.9130319
40
0.4491417
50
299.2531685
51
333.4571258
0
ARC
8
DEFAULT_255_1_234
10
4.5372378
20
28.9815828
40
0.5265881
50
278.107187
51
299.0339503
0
ARC
8
DEFAULT_255_1_234
10
4.5116457
20
29.1323216
40
0.679442
50
270.4443897
51
278.4511052
0
ARC
8
DEFAULT_255_1_234
10
4.5137287
20
29.0394213
40
0.4604407
50
269.4970433
51
284.0205042
0
ARC
8
DEFAULT_255_1_234
10
4.5492588
20
28.9028978
40
0.3193797
50
283.7700273
51
318.1555492
0
ARC
8
DEFAULT_255_1_234
10
4.5155346
20
28.9281367
40
0.3613588
50
318.7415601
51
343.6873628
0
ARC
8
DEFAULT_255_1_234
10
4.3351369
20
28.9844832
40
0.5503313
50
343.3325091
51
355.8548958
0
ARC
8
DEFAULT_255_1_234
10
4.1253054
20
29.0044319
40
0.7610708
50
355.4988528
51
0.0791727
0
ARC
8
DEFAULT_255_1_234
10
4.2035676
20
29.077978
40
0.6828208
50
359.6455037
51
9.8607896
0
ARC
8
DEFAULT_255_1_234
10
4.4396374
20
29.1206099
40
0.4429406
50
9.6571907
51
26.1932807
0
ARC
8
DEFAULT_255_1_234
10
4.5324363
20
29.1637118
40
0.3406537
50
26.5777228
51
40.1532208
0
ARC
8
DEFAULT_255_1_234
10
4.5580089
20
29.1836619
40
0.308246
50
40.3840491
51
80.1431104
0
ARC
8
DEFAULT_255_1_234
10
4.5253207
20
29.0387333
40
0.4566909
50
79.2152159
51
89.7445637
0
LINE
8
DEFAULT_255_1_234
10
5.4373526
20
29.6223211
11
5.4373526
21
28.4529
0
LINE
8
DEFAULT_255_1_234
10
5.4373526
20
28.4529
11
5.2831433
21
28.4529
0
LINE
8
DEFAULT_255_1_234
10
5.2831433
20
28.4529
11
5.2831433
21
29.6223211
0
LINE
8
DEFAULT_255_1_234
10
5.2831433
20
29.6223211
11
5.4373526
21
29.6223211
0
LINE
8
DEFAULT_255_1_234
10
6.169044
20
29.6279433
11
6.169044
21
28.4529
0
LINE
8
DEFAULT_255_1_234
10
6.169044
20
28.4529
11
6.0196537
21
28.4529
0
LINE
8
DEFAULT_255_1_234
10
6.0196537
20
28.4529
11
6.0196537
21
29.4432133
0
LINE
8
DEFAULT_255_1_234
10
6.0196537
20
29.4432133
11
5.7200698
21
29.3331785
0
LINE
8
DEFAULT_255_1_234
10
5.7200698
20
29.3331785
11
5.7200698
21
29.4681117
0
LINE
8
DEFAULT_255_1_234
10
5.7200698
20
29.4681117
11
6.145752
21
29.6279433
0
LINE
8
DEFAULT_255_1_234
10
6.145752
20
29.6279433
11
6.169044
21
29.6279433
0
LINE
8
DEFAULT_255_1_234
10
6.820418
20
28.9886169
11
6.820418
21
29.1098962
0
LINE
8
DEFAULT_255_1_234
10
6.820418
20
29.1098962
11
6.9320591
21
29.1098962
0
LINE
8
DEFAULT_255_1_234
10
6.7417069
20
29.3155087
11
6.5931198
21
29.3155087
0
LINE
8
DEFAULT_255_1_234
10
6.5826785
20
28.7613188
11
6.7320688
21
28.7613188
0
LINE
8
DEFAULT_255_1_234
10
6.9320591
20
28.9886169
11
6.820418
21
28.9886169
0
ARC
8
DEFAULT_255_1_234
10
6.9291458
20
29.4491713
40
0.3392876
50
270.4919872
51
281.8951556
0
ARC
8
DEFAULT_255_1_234
10
6.9532719
20
29.3389702
40
0.2264817
50
281.6691735
51
301.2943132
0
ARC
8
DEFAULT_255_1_234
10
6.970293
20
29.3078304
40
0.1910381
50
301.7833094
51
311.7545298
0
ARC
8
DEFAULT_255_1_234
10
6.9794505
20
29.2976748
40
0.1773635
50
311.7323931
51
354.2802411
0
ARC
8
DEFAULT_255_1_234
10
6.9068131
20
29.3101722
40
0.2509385
50
353.0937916
51
0.1181479
0
ARC
8
DEFAULT_255_1_234
10
6.8606916
20
29.3149386
40
0.2970898
50
359.1805295
51
15.0453146
0
ARC
8
DEFAULT_255_1_234
10
6.9952753
20
29.3541992
40
0.1569564
50
13.9577229
51
77.6713066
0
ARC
8
DEFAULT_255_1_234
10
6.9566282
20
29.2156949
40
0.3006298
50
76.1116566
51
90.7026153
0
ARC
8
DEFAULT_255_1_234
10
6.950712
20
29.2430545
40
0.2732568
50
89.5324876
51
103.531937
0
ARC
8
DEFAULT_255_1_234
10
6.9306564
20
29.3229884
40
0.1908508
50
103.2931773
51
133.5619022
0
ARC
8
DEFAULT_255_1_234
10
6.9262052
20
29.3289375
40
0.1834746
50
133.8349307
51
173.5344437
0
ARC
8
DEFAULT_255_1_234
10
6.9985096
20
29.3161213
40
0.2568033
50
172.5096846
51
180.1366907
0
ARC
8
DEFAULT_255_1_234
10
6.9033989
20
29.3195622
40
0.3103056
50
155.3484492
51
180.7484736
0
ARC
8
DEFAULT_255_1_234
10
6.8985078
20
29.3166846
40
0.3070957
50
131.5744599
51
154.4798489
0
ARC
8
DEFAULT_255_1_234
10
6.9298226
20
29.285031
40
0.3515643
50
96.9875458
51
131.9690667
0
ARC
8
DEFAULT_255_1_234
10
6.9517706
20
29.1604636
40
0.4779224
50
89.8596053
51
97.7825159
0
ARC
8
DEFAULT_255_1_234
10
6.9565769
20
29.1342616
40
0.5041361
50
78.3655447
51
90.4131539
0
ARC
8
DEFAULT_255_1_234
10
6.9923687
20
29.3001887
40
0.3344039
50
56.6229102
51
78.638727
0
ARC
8
DEFAULT_255_1_234
10
7.013863
20
29.3377805
40
0.2912001
50
47.0253525
51
56.0854072
0
ARC
8
DEFAULT_255_1_234
10
7.015841
20
29.3417223
40
0.2869704
50
10.9208013
51
46.7778124
0
ARC
8
DEFAULT_255_1_234
10
6.8794477
20
29.3101857
40
0.426899
50
359.6364486
51
11.6087304
0
ARC
8
DEFAULT_255_1_234
10
7.0629321
20
29.3086752
40
0.243409
50
332.3549906
51
359.7179418
0
ARC
8
DEFAULT_255_1_234
10
6.9978922
20
29.3395142
40
0.3153459
50
325.2333722
51
332.8745602
0
ARC
8
DEFAULT_255_1_234
10
7.0131546
20
29.3288828
40
0.2967456
50
292.9802137
51
325.2392345
0
ARC
8
DEFAULT_255_1_234
10
6.985692
20
29.3822863
40
0.3566604
50
292.5402179
51
293.6924929
0
ARC
8
DEFAULT_255_1_234
10
7.0249516
20
28.7368091
40
0.3307468
50
57.6435486
51
72.8625112
0
ARC
8
DEFAULT_255_1_234
10
7.0604016
20
28.7942549
40
0.2632492
50
36.7248896
51
57.4697979
0
ARC
8
DEFAULT_255_1_234
10
7.0592648
20
28.795522
40
0.2634081
50
8.0545065
51
36.356114
0
ARC
8
DEFAULT_255_1_234
10
6.9729834
20
28.7800174
40
0.3510261
50
359.8320645
51
8.5869982
0
ARC
8
DEFAULT_255_1_234
10
6.935461
20
28.7752101
40
0.3885653
50
343.9829931
51
0.5571613
0
ARC
8
DEFAULT_255_1_234
10
7.0240807
20
28.7509438
40
0.2966924
50
311.6359546
51
343.7651759
0
ARC
8
DEFAULT_255_1_234
10
6.9862376
20
28.7936102
40
0.3537231
50
279.7829875
51
311.6255694
0
ARC
8
DEFAULT_255_1_234
10
6.9561152
20
28.937328
40
0.5004971
50
269.7286406
51
280.3856417
0
ARC
8
DEFAULT_255_1_234
10
6.9499225
20
28.9331996
40
0.4963778
50
256.6828919
51
270.4412052
0
ARC
8
DEFAULT_255_1_234
10
6.9160521
20
28.7947394
40
0.3538406
50
229.4223008
51
256.8556159
0
ARC
8
DEFAULT_255_1_234
10
6.8745914
20
28.7480736
40
0.2914296
50
181.818294
51
229.6455059
0
ARC
8
DEFAULT_255_1_234
10
6.978587
20
28.7611496
40
0.3959084
50
179.9755256
51
183.2323064
0
ARC
8
DEFAULT_255_1_234
10
6.9613616
20
28.7591037
40
0.2293034
50
179.4465117
51
196.2869258
0
ARC
8
DEFAULT_255_1_234
10
6.9126024
20
28.7457651
40
0.1787621
50
196.5661473
51
227.705904
0
ARC
8
DEFAULT_255_1_234
10
6.9290118
20
28.7641155
40
0.2033784
50
227.7652068
51
257.8762805
0
ARC
8
DEFAULT_255_1_234
10
6.9515089
20
28.8584156
40
0.3003081
50
257.4584385
51
270.426602
0
ARC
8
DEFAULT_255_1_234
10
6.9560655
20
28.8873996
40
0.329292
50
269.5962073
51
280.8789248
0
ARC
8
DEFAULT_255_1_234
10
6.9790184
20
28.7727685
40
0.2123908
50
280.6346389
51
299.8595945
0
ARC
8
DEFAULT_255_1_234
10
6.998109
20
28.7365212
40
0.171457
50
300.3576302
51
314.5517981
0
ARC
8
DEFAULT_255_1_234
10
6.989815
20
28.7425919
40
0.1816095
50
315.0728369
51
345.0431014
0
ARC
8
DEFAULT_255_1_234
10
6.8974965
20
28.7694841
40
0.2777492
50
344.5986631
51
357.9269593
0
ARC
8
DEFAULT_255_1_234
10
6.8079291
20
28.7756276
40
0.3674917
50
357.4748886
51
0.0231117
0
ARC
8
DEFAULT_255_1_234
10
6.91024
20
28.7780679
40
0.2651907
50
359.5047933
51
13.4239635
0
ARC
8
DEFAULT_255_1_234
10
6.9969044
20
28.8002478
40
0.1757509
50
12.9498199
51
48.7551375
0
ARC
8
DEFAULT_255_1_234
10
6.9786778
20
28.77534
40
0.2065134
50
49.5088623
51
72.1836453
0
ARC
8
DEFAULT_255_1_234
10
6.942893
20
28.6691291
40
0.3185836
50
71.9010081
51
84.3554254
0
ARC
8
DEFAULT_255_1_234
10
6.9267562
20
28.5330326
40
0.4556151
50
84.0193428
51
89.333121
0
LINE
8
DEFAULT_255_1_234
10
4.5169154
20
36.3904
11
4.1932364
21
36.3904
0
LINE
8
DEFAULT_255_1_234
10
4.1932364
20
36.3904
11
4.1932364
21
37.5598211
0
LINE
8
DEFAULT_255_1_234
10
4.1932364
20
37.5598211
11
4.5233408
21
37.5598211
0
LINE
8
DEFAULT_255_1_234
10
5.0389784
20
37.0144661
11
5.0389784
21
36.9397709
0
LINE
8
DEFAULT_255_1_234
10
4.5273567
20
37.4329196
11
4.3474458
21
37.4329196
0
LINE
8
DEFAULT_255_1_234
10
4.3474458
20
37.4329196
11
4.3474458
21
36.5164983
0
LINE
8
DEFAULT_255_1_234
10
4.3474458
20
36.5164983
11
4.5096869
21
36.5164983
0
LINE
8
DEFAULT_255_1_234
10
4.8863754
20
36.9429836
11
4.8863754
21
37.0112534
0
ARC
8
DEFAULT_255_1_234
10
4.5272351
20
36.9732894
40
0.5865446
50
75.4101064
51
90.3804066
0
ARC
8
DEFAULT_255_1_234
10
4.5501864
20
37.0689492
40
0.4881916
50
60.145586
51
75.1888407
0
ARC
8
DEFAULT_255_1_234
10
4.566064
20
37.0966199
40
0.4562893
50
26.5253612
51
60.1450928
0
ARC
8
DEFAULT_255_1_234
10
4.4540389
20
37.0372158
40
0.5830602
50
7.4030428
51
26.8320788
0
ARC
8
DEFAULT_255_1_234
10
4.2946146
20
37.0123804
40
0.7443669
50
0.1605367
51
7.7176192
0
ARC
8
DEFAULT_255_1_234
10
4.311005
20
36.9359434
40
0.7279835
50
348.7289388
51
0.3012466
0
ARC
8
DEFAULT_255_1_234
10
4.4766481
20
36.9030386
40
0.559104
50
333.0706509
51
348.7181832
0
ARC
8
DEFAULT_255_1_234
10
4.5733238
20
36.8505319
40
0.4491417
50
299.2531685
51
333.4571258
0
ARC
8
DEFAULT_255_1_234
10
4.5372378
20
36.9190828
40
0.5265881
50
278.107187
51
299.0339503
0
ARC
8
DEFAULT_255_1_234
10
4.5116457
20
37.0698216
40
0.679442
50
270.4443897
51
278.4511052
0
ARC
8
DEFAULT_255_1_234
10
4.5137287
20
36.9769213
40
0.4604407
50
269.4970433
51
284.0205042
0
ARC
8
DEFAULT_255_1_234
10
4.5492588
20
36.8403978
40
0.3193797
50
283.7700273
51
318.1555492
0
ARC
8
DEFAULT_255_1_234
10
4.5155346
20
36.8656367
40
0.3613588
50
318.7415601
51
343.6873628
0
ARC
8
DEFAULT_255_1_234
10
4.3351369
20
36.9219832
40
0.5503313
50
343.3325091
51
355.8548958
0
ARC
8
DEFAULT_255_1_234
10
4.1253054
20
36.9419319
40
0.7610708
50
355.4988528
51
0.0791727
0
ARC
8
DEFAULT_255_1_234
10
4.2035676
20
37.015478
40
0.6828208
50
359.6455037
51
9.8607896
0
ARC
8
DEFAULT_255_1_234
10
4.4396374
20
37.0581099
40
0.4429406
50
9.6571907
51
26.1932807
0
ARC
8
DEFAULT_255_1_234
10
4.5324363
20
37.1012118
40
0.3406537
50
26.5777228
51
40.1532208
0
ARC
8
DEFAULT_255_1_234
10
4.5580089
20
37.1211619
40
0.308246
50
40.3840491
51
80.1431104
0
ARC
8
DEFAULT_255_1_234
10
4.5253207
20
36.9762333
40
0.4566909
50
79.2152159
51
89.7445637
0
LINE
8
DEFAULT_255_1_234
10
5.4373526
20
37.5598211
11
5.4373526
21
36.3904
0
LINE
8
DEFAULT_255_1_234
10
5.4373526
20
36.3904
11
5.2831433
21
36.3904
0
LINE
8
DEFAULT_255_1_234
10
5.2831433
20
36.3904
11
5.2831433
21
37.5598211
0
LINE
8
DEFAULT_255_1_234
10
5.2831433
20
37.5598211
11
5.4373526
21
37.5598211
0
LINE
8
DEFAULT_255_1_234
10
6.169044
20
37.5654433
11
6.169044
21
36.3904
0
LINE
8
DEFAULT_255_1_234
10
6.169044
20
36.3904
11
6.0196537
21
36.3904
0
LINE
8
DEFAULT_255_1_234
10
6.0196537
20
36.3904
11
6.0196537
21
37.3807133
0
LINE
8
DEFAULT_255_1_234
10
6.0196537
20
37.3807133
11
5.7200698
21
37.2706785
0
LINE
8
DEFAULT_255_1_234
10
5.7200698
20
37.2706785
11
5.7200698
21
37.4056117
0
LINE
8
DEFAULT_255_1_234
10
5.7200698
20
37.4056117
11
6.145752
21
37.5654433
0
LINE
8
DEFAULT_255_1_234
10
6.145752
20
37.5654433
11
6.169044
21
37.5654433
0
LINE
8
DEFAULT_255_1_234
10
7.370592
20
36.5116792
11
7.370592
21
36.3904
0
LINE
8
DEFAULT_255_1_234
10
7.370592
20
36.3904
11
6.6043642
21
36.3904
0
LINE
8
DEFAULT_255_1_234
10
6.6043642
20
36.3904
11
6.6043642
21
36.4972221
0
LINE
8
DEFAULT_255_1_234
10
6.6043642
20
36.4972221
11
7.0091638
21
36.9469995
0
LINE
8
DEFAULT_255_1_234
10
6.7304625
20
37.2152595
11
6.5818753
21
37.2152595
0
LINE
8
DEFAULT_255_1_234
10
7.0967098
20
36.8514218
11
6.783472
21
36.5116792
0
LINE
8
DEFAULT_255_1_234
10
6.783472
20
36.5116792
11
7.370592
21
36.5116792
0
ARC
8
DEFAULT_255_1_234
10
5.6601471
20
38.1399527
40
1.8008286
50
318.5132453
51
320.7828378
0
ARC
8
DEFAULT_255_1_234
10
6.1888446
20
37.7096426
40
1.1191493
50
320.7372736
51
323.9737074
0
ARC
8
DEFAULT_255_1_234
10
6.5808302
20
37.4256361
40
0.6350923
50
323.8961724
51
328.6421089
0
ARC
8
DEFAULT_255_1_234
10
6.7854898
20
37.2994031
40
0.3946393
50
328.8299013
51
331.789948
0
ARC
8
DEFAULT_255_1_234
10
6.8852076
20
37.2479509
40
0.2824501
50
331.4255242
51
352.9364833
0
ARC
8
DEFAULT_255_1_234
10
6.8988577
20
37.2448976
40
0.2685315
50
353.2248685
51
0.0169286
0
ARC
8
DEFAULT_255_1_234
10
6.9198454
20
37.247195
40
0.2475536
50
359.4866256
51
15.9339782
0
ARC
8
DEFAULT_255_1_234
10
6.9705439
20
37.2608286
40
0.1950618
50
16.1714718
51
43.5284424
0
ARC
8
DEFAULT_255_1_234
10
6.9782747
20
37.2685573
40
0.184134
50
43.4415429
51
83.1661404
0
ARC
8
DEFAULT_255_1_234
10
6.9648666
20
37.1948771
40
0.258926
50
82.160215
51
90.1505798
0
ARC
8
DEFAULT_255_1_234
10
6.9617093
20
37.1411865
40
0.3126255
50
89.5460705
51
102.5418777
0
ARC
8
DEFAULT_255_1_234
10
6.9374179
20
37.2442665
40
0.2067346
50
102.1739365
51
129.2061916
0
ARC
8
DEFAULT_255_1_234
10
6.9295251
20
37.2567094
40
0.1921118
50
129.7279328
51
135.7542026
0
ARC
8
DEFAULT_255_1_234
10
6.9416778
20
37.2470045
40
0.2075944
50
136.175737
51
166.3674722
0
ARC
8
DEFAULT_255_1_234
10
7.0423698
20
37.2200182
40
0.3118201
50
165.9092917
51
178.8683903
0
ARC
8
DEFAULT_255_1_234
10
7.1288559
20
37.2153179
40
0.3983935
50
178.438168
51
180.0083905
0
ARC
8
DEFAULT_255_1_234
10
6.9887161
20
37.2192231
40
0.4068601
50
163.2878735
51
180.5581814
0
ARC
8
DEFAULT_255_1_234
10
6.9085422
20
37.241284
40
0.3237344
50
133.454115
51
162.9470031
0
ARC
8
DEFAULT_255_1_234
10
6.9263964
20
37.2223
40
0.349795
50
100.7869394
51
133.4384016
0
ARC
8
DEFAULT_255_1_234
10
6.9611735
20
37.0674319
40
0.5084616
50
89.6605301
51
101.3704185
0
ARC
8
DEFAULT_255_1_234
10
6.9678074
20
37.0735496
40
0.502348
50
78.2171172
51
90.4130393
0
ARC
8
DEFAULT_255_1_234
10
7.0033153
20
37.2359637
40
0.3361092
50
55.9268222
51
78.4888551
0
ARC
8
DEFAULT_255_1_234
10
7.0229593
20
37.2698324
40
0.2970617
50
47.9292255
51
55.4054003
0
ARC
8
DEFAULT_255_1_234
10
7.0331153
20
37.2801502
40
0.2825983
50
4.3347696
51
48.0560701
0
ARC
8
DEFAULT_255_1_234
10
6.9235547
20
37.2631601
40
0.393225
50
359.925209
51
5.5967654
0
ARC
8
DEFAULT_255_1_234
10
6.9664439
20
37.2687816
40
0.3503892
50
337.8914096
51
358.9967724
0
ARC
8
DEFAULT_255_1_234
10
6.6950851
20
37.3734706
40
0.6412172
50
326.9135351
51
338.3505194
0
ARC
8
DEFAULT_255_1_234
10
6.2965155
20
37.6289284
40
1.1146189
50
319.6472867
51
327.095818
0
ARC
8
DEFAULT_255_1_234
10
5.9132158
20
37.9451
40
1.6114559
50
317.2586784
51
319.9046139
0
LINE
8
DEFAULT_255_1_234
10
4.5086154
20
44.3279
11
4.1849364
21
44.3279
0
LINE
8
DEFAULT_255_1_234
10
4.1849364
20
44.3279
11
4.1849364
21
45.4973211
0
LINE
8
DEFAULT_255_1_234
10
4.1849364
20
45.4973211
11
4.5150408
21
45.4973211
0
LINE
8
DEFAULT_255_1_234
10
5.0306784
20
44.9519661
11
5.0306784
21
44.8772709
0
LINE
8
DEFAULT_255_1_234
10
4.5190567
20
45.3704196
11
4.3391458
21
45.3704196
0
LINE
8
DEFAULT_255_1_234
10
4.3391458
20
45.3704196
11
4.3391458
21
44.4539983
0
LINE
8
DEFAULT_255_1_234
10
4.3391458
20
44.4539983
11
4.5013869
21
44.4539983
0
LINE
8
DEFAULT_255_1_234
10
4.8780754
20
44.8804836
11
4.8780754
21
44.9487534
0
ARC
8
DEFAULT_255_1_234
10
4.5189351
20
44.9107894
40
0.5865446
50
75.4101064
51
90.3804066
0
ARC
8
DEFAULT_255_1_234
10
4.5418864
20
45.0064492
40
0.4881916
50
60.145586
51
75.1888407
0
ARC
8
DEFAULT_255_1_234
10
4.557764
20
45.0341199
40
0.4562893
50
26.5253612
51
60.1450928
0
ARC
8
DEFAULT_255_1_234
10
4.4457389
20
44.9747158
40
0.5830602
50
7.4030428
51
26.8320788
0
ARC
8
DEFAULT_255_1_234
10
4.2863146
20
44.9498804
40
0.7443669
50
0.1605367
51
7.7176192
0
ARC
8
DEFAULT_255_1_234
10
4.302705
20
44.8734434
40
0.7279835
50
348.7289388
51
0.3012466
0
ARC
8
DEFAULT_255_1_234
10
4.4683481
20
44.8405386
40
0.559104
50
333.0706509
51
348.7181832
0
ARC
8
DEFAULT_255_1_234
10
4.5650238
20
44.7880319
40
0.4491417
50
299.2531685
51
333.4571258
0
ARC
8
DEFAULT_255_1_234
10
4.5289378
20
44.8565828
40
0.5265881
50
278.107187
51
299.0339503
0
ARC
8
DEFAULT_255_1_234
10
4.5033457
20
45.0073216
40
0.679442
50
270.4443897
51
278.4511052
0
ARC
8
DEFAULT_255_1_234
10
4.5054287
20
44.9144213
40
0.4604407
50
269.4970433
51
284.0205042
0
ARC
8
DEFAULT_255_1_234
10
4.5409588
20
44.7778978
40
0.3193797
50
283.7700273
51
318.1555492
0
ARC
8
DEFAULT_255_1_234
10
4.5072346
20
44.8031367
40
0.3613588
50
318.7415601
51
343.6873628
0
ARC
8
DEFAULT_255_1_234
10
4.3268369
20
44.8594832
40
0.5503313
50
343.3325091
51
355.8548958
0
ARC
8
DEFAULT_255_1_234
10
4.1170054
20
44.8794319
40
0.7610708
50
355.4988528
51
0.0791727
0
ARC
8
DEFAULT_255_1_234
10
4.1952676
20
44.952978
40
0.6828208
50
359.6455037
51
9.8607896
0
ARC
8
DEFAULT_255_1_234
10
4.4313374
20
44.9956099
40
0.4429406
50
9.6571907
51
26.1932807
0
ARC
8
DEFAULT_255_1_234
10
4.5241363
20
45.0387118
40
0.3406537
50
26.5777228
51
40.1532208
0
ARC
8
DEFAULT_255_1_234
10
4.5497089
20
45.0586619
40
0.308246
50
40.3840491
51
80.1431104
0
ARC
8
DEFAULT_255_1_234
10
4.5170207
20
44.9137333
40
0.4566909
50
79.2152159
51
89.7445637
0
LINE
8
DEFAULT_255_1_234
10
5.4290526
20
45.4973211
11
5.4290526
21
44.3279
0
LINE
8
DEFAULT_255_1_234
10
5.4290526
20
44.3279
11
5.2748433
21
44.3279
0
LINE
8
DEFAULT_255_1_234
10
5.2748433
20
44.3279
11
5.2748433
21
45.4973211
0
LINE
8
DEFAULT_255_1_234
10
5.2748433
20
45.4973211
11
5.4290526
21
45.4973211
0
LINE
8
DEFAULT_255_1_234
10
6.160744
20
45.5029433
11
6.160744
21
44.3279
0
LINE
8
DEFAULT_255_1_234
10
6.160744
20
44.3279
11
6.0113537
21
44.3279
0
LINE
8
DEFAULT_255_1_234
10
6.0113537
20
44.3279
11
6.0113537
21
45.3182133
0
LINE
8
DEFAULT_255_1_234
10
6.0113537
20
45.3182133
11
5.7117698
21
45.2081785
0
LINE
8
DEFAULT_255_1_234
10
5.7117698
20
45.2081785
11
5.7117698
21
45.3431117
0
LINE
8
DEFAULT_255_1_234
10
5.7117698
20
45.3431117
11
6.137452
21
45.5029433
0
LINE
8
DEFAULT_255_1_234
10
6.137452
20
45.5029433
11
6.160744
21
45.5029433
0
LINE
8
DEFAULT_255_1_234
10
7.0843939
20
45.5029433
11
7.0843939
21
44.3279
0
LINE
8
DEFAULT_255_1_234
10
7.0843939
20
44.3279
11
6.9350036
21
44.3279
0
LINE
8
DEFAULT_255_1_234
10
6.9350036
20
44.3279
11
6.9350036
21
45.3182133
0
LINE
8
DEFAULT_255_1_234
10
6.9350036
20
45.3182133
11
6.6354197
21
45.2081785
0
LINE
8
DEFAULT_255_1_234
10
6.6354197
20
45.2081785
11
6.6354197
21
45.3431117
0
LINE
8
DEFAULT_255_1_234
10
6.6354197
20
45.3431117
11
7.0611019
21
45.5029433
0
LINE
8
DEFAULT_255_1_234
10
7.0611019
20
45.5029433
11
7.0843939
21
45.5029433
0
LINE
8
DEFAULT_255_1_234
10
4.5169154
20
52.2654
11
4.1932364
21
52.2654
0
LINE
8
DEFAULT_255_1_234
10
4.1932364
20
52.2654
11
4.1932364
21
53.4348211
0
LINE
8
DEFAULT_255_1_234
10
4.1932364
20
53.4348211
11
4.5233408
21
53.4348211
0
LINE
8
DEFAULT_255_1_234
10
5.0389784
20
52.8894661
11
5.0389784
21
52.8147709
0
LINE
8
DEFAULT_255_1_234
10
4.5273567
20
53.3079196
11
4.3474458
21
53.3079196
0
LINE
8
DEFAULT_255_1_234
10
4.3474458
20
53.3079196
11
4.3474458
21
52.3914983
0
LINE
8
DEFAULT_255_1_234
10
4.3474458
20
52.3914983
11
4.5096869
21
52.3914983
0
LINE
8
DEFAULT_255_1_234
10
4.8863754
20
52.8179836
11
4.8863754
21
52.8862534
0
ARC
8
DEFAULT_255_1_234
10
4.5272351
20
52.8482894
40
0.5865446
50
75.4101064
51
90.3804066
0
ARC
8
DEFAULT_255_1_234
10
4.5501864
20
52.9439492
40
0.4881916
50
60.145586
51
75.1888407
0
ARC
8
DEFAULT_255_1_234
10
4.566064
20
52.9716199
40
0.4562893
50
26.5253612
51
60.1450928
0
ARC
8
DEFAULT_255_1_234
10
4.4540389
20
52.9122158
40
0.5830602
50
7.4030428
51
26.8320788
0
ARC
8
DEFAULT_255_1_234
10
4.2946146
20
52.8873804
40
0.7443669
50
0.1605367
51
7.7176192
0
ARC
8
DEFAULT_255_1_234
10
4.311005
20
52.8109434
40
0.7279835
50
348.7289388
51
0.3012466
0
ARC
8
DEFAULT_255_1_234
10
4.4766481
20
52.7780386
40
0.559104
50
333.0706509
51
348.7181832
0
ARC
8
DEFAULT_255_1_234
10
4.5733238
20
52.7255319
40
0.4491417
50
299.2531685
51
333.4571258
0
ARC
8
DEFAULT_255_1_234
10
4.5372378
20
52.7940828
40
0.5265881
50
278.107187
51
299.0339503
0
ARC
8
DEFAULT_255_1_234
10
4.5116457
20
52.9448216
40
0.679442
50
270.4443897
51
278.4511052
0
ARC
8
DEFAULT_255_1_234
10
4.5137287
20
52.8519213
40
0.4604407
50
269.4970433
51
284.0205042
0
ARC
8
DEFAULT_255_1_234
10
4.5492588
20
52.7153978
40
0.3193797
50
283.7700273
51
318.1555492
0
ARC
8
DEFAULT_255_1_234
10
4.5155346
20
52.7406367
40
0.3613588
50
318.7415601
51
343.6873628
0
ARC
8
DEFAULT_255_1_234
10
4.3351369
20
52.7969832
40
0.5503313
50
343.3325091
51
355.8548958
0
ARC
8
DEFAULT_255_1_234
10
4.1253054
20
52.8169319
40
0.7610708
50
355.4988528
51
0.0791727
0
ARC
8
DEFAULT_255_1_234
10
4.2035676
20
52.890478
40
0.6828208
50
359.6455037
51
9.8607896
0
ARC
8
DEFAULT_255_1_234
10
4.4396374
20
52.9331099
40
0.4429406
50
9.6571907
51
26.1932807
0
ARC
8
DEFAULT_255_1_234
10
4.5324363
20
52.9762118
40
0.3406537
50
26.5777228
51
40.1532208
0
ARC
8
DEFAULT_255_1_234
10
4.5580089
20
52.9961619
40
0.308246
50
40.3840491
51
80.1431104
0
ARC
8
DEFAULT_255_1_234
10
4.5253207
20
52.8512333
40
0.4566909
50
79.2152159
51
89.7445637
0
LINE
8
DEFAULT_255_1_234
10
5.4373526
20
53.4348211
11
5.4373526
21
52.2654
0
LINE
8
DEFAULT_255_1_234
10
5.4373526
20
52.2654
11
5.2831433
21
52.2654
0
LINE
8
DEFAULT_255_1_234
10
5.2831433
20
52.2654
11
5.2831433
21
53.4348211
0
LINE
8
DEFAULT_255_1_234
10
5.2831433
20
53.4348211
11
5.4373526
21
53.4348211
0
LINE
8
DEFAULT_255_1_234
10
6.169044
20
53.4404433
11
6.169044
21
52.2654
0
LINE
8
DEFAULT_255_1_234
10
6.169044
20
52.2654
11
6.0196537
21
52.2654
0
LINE
8
DEFAULT_255_1_234
10
6.0196537
20
52.2654
11
6.0196537
21
53.2557133
0
LINE
8
DEFAULT_255_1_234
10
6.0196537
20
53.2557133
11
5.7200698
21
53.1456785
0
LINE
8
DEFAULT_255_1_234
10
5.7200698
20
53.1456785
11
5.7200698
21
53.2806117
0
LINE
8
DEFAULT_255_1_234
10
5.7200698
20
53.2806117
11
6.145752
21
53.4404433
0
LINE
8
DEFAULT_255_1_234
10
6.145752
20
53.4404433
11
6.169044
21
53.4404433
0
LINE
8
DEFAULT_255_1_234
10
7.3376619
20
52.9569327
11
7.3376619
21
52.7641709
0
LINE
8
DEFAULT_255_1_234
10
6.5995452
20
52.7440916
11
6.5995452
21
52.9424755
0
LINE
8
DEFAULT_255_1_234
10
7.1890748
20
52.7240123
11
7.1890748
21
52.9673739
0
LINE
8
DEFAULT_255_1_234
10
6.7481323
20
52.9786184
11
6.7481323
21
52.7408789
0
ARC
8
DEFAULT_255_1_234
10
6.1129509
20
52.7592805
40
1.2247208
50
353.8441951
51
0.2287902
0
ARC
8
DEFAULT_255_1_234
10
6.5769012
20
52.7074806
40
0.7578929
50
344.4934747
51
353.9765454
0
ARC
8
DEFAULT_255_1_234
10
6.8761603
20
52.6223981
40
0.4467846
50
329.2803592
51
344.7472793
0
ARC
8
DEFAULT_255_1_234
10
6.9754427
20
52.5679018
40
0.3336173
50
324.9352394
51
328.6160465
0
ARC
8
DEFAULT_255_1_234
10
7.0131536
20
52.5415427
40
0.2876076
50
280.580143
51
324.9173126
0
ARC
8
DEFAULT_255_1_234
10
6.9730329
20
52.7086099
40
0.4592847
50
269.5977311
51
281.6734359
0
ARC
8
DEFAULT_255_1_234
10
6.9658234
20
52.6966173
40
0.4472986
50
256.6228859
51
270.51044
0
ARC
8
DEFAULT_255_1_234
10
6.9256212
20
52.5417877
40
0.2873874
50
215.8618325
51
257.2788573
0
ARC
8
DEFAULT_255_1_234
10
7.0277244
20
52.6102977
40
0.4102928
50
197.9693508
51
215.2623606
0
ARC
8
DEFAULT_255_1_234
10
7.2762359
20
52.6941709
40
0.6725652
50
187.8816417
51
198.2346507
0
ARC
8
DEFAULT_255_1_234
10
7.6720568
20
52.7513079
40
1.0724845
50
180.8976217
51
188.0055519
0
ARC
8
DEFAULT_255_1_234
10
7.9520756
20
52.7616777
40
1.3526448
50
180.7449369
51
181.1510016
0
ARC
8
DEFAULT_255_1_234
10
7.7943485
20
52.9473042
40
1.1948131
50
173.7675579
51
180.231553
0
ARC
8
DEFAULT_255_1_234
10
7.3425631
20
52.9983666
40
0.7401564
50
164.3058563
51
173.9002247
0
ARC
8
DEFAULT_255_1_234
10
7.05137
20
53.0822656
40
0.4371288
50
148.7922025
51
164.568378
0
ARC
8
DEFAULT_255_1_234
10
6.9562152
20
53.1353929
40
0.3282386
50
144.5883898
51
148.1176286
0
ARC
8
DEFAULT_255_1_234
10
6.921905
20
53.1593315
40
0.2864044
50
101.6440918
51
144.514236
0
ARC
8
DEFAULT_255_1_234
10
6.9644117
20
52.9904069
40
0.4604934
50
89.5284041
51
102.5819763
0
ARC
8
DEFAULT_255_1_234
10
6.9723205
20
52.9865018
40
0.464401
50
77.0437873
51
90.5081339
0
ARC
8
DEFAULT_255_1_234
10
7.0125207
20
53.1507615
40
0.2953195
50
48.2778575
51
77.4994676
0
ARC
8
DEFAULT_255_1_234
10
7.0197838
20
53.1636746
40
0.2808655
50
36.3142134
51
47.6305865
0
ARC
8
DEFAULT_255_1_234
10
6.9329145
20
53.1051515
40
0.3855453
50
18.2931786
51
35.6769206
0
ARC
8
DEFAULT_255_1_234
10
6.6785904
20
53.0178593
40
0.654423
50
8.024666
51
18.5605216
0
ARC
8
DEFAULT_255_1_234
10
6.2622824
20
52.9563792
40
1.0752407
50
1.1274072
51
8.1718305
0
ARC
8
DEFAULT_255_1_234
10
5.9387014
20
52.9436885
40
1.3990231
50
0.5424119
51
1.3863029
0
ARC
8
DEFAULT_255_1_234
10
6.1208392
20
52.9709342
40
1.0682415
50
359.8090433
51
4.9407866
0
ARC
8
DEFAULT_255_1_234
10
6.5418406
20
53.0085113
40
0.6455691
50
4.8362157
51
12.2904523
0
ARC
8
DEFAULT_255_1_234
10
6.8173521
20
53.0698965
40
0.3633074
50
12.0805627
51
23.8173984
0
ARC
8
DEFAULT_255_1_234
10
6.9347226
20
53.1195919
40
0.2358723
50
24.2871213
51
31.3935614
0
ARC
8
DEFAULT_255_1_234
10
6.9871924
20
53.1539233
40
0.1732111
50
30.7407893
51
82.4657128
0
ARC
8
DEFAULT_255_1_234
10
6.9692058
20
53.0655691
40
0.263235
50
81.1060089
51
90.2184952
0
ARC
8
DEFAULT_255_1_234
10
6.9656357
20
53.0913924
40
0.2374236
50
89.3806855
51
105.6762551
0
ARC
8
DEFAULT_255_1_234
10
6.9472987
20
53.1580567
40
0.1682847
50
105.7981136
51
149.7388061
0
ARC
8
DEFAULT_255_1_234
10
7.0537066
20
53.094095
40
0.2924306
50
149.4208916
51
163.6286378
0
ARC
8
DEFAULT_255_1_234
10
7.2627954
20
53.030325
40
0.5110213
50
163.3763315
51
172.1410975
0
ARC
8
DEFAULT_255_1_234
10
7.5928673
20
52.9830518
40
0.8444586
50
172.0259487
51
178.0703232
0
ARC
8
DEFAULT_255_1_234
10
7.8958762
20
52.9686906
40
1.1477868
50
177.8631668
51
179.5044149
0
ARC
8
DEFAULT_255_1_234
10
7.7886167
20
52.7372389
40
1.0404907
50
179.7995573
51
185.2460446
0
ARC
8
DEFAULT_255_1_234
10
7.3843206
20
52.6989513
40
0.6343885
50
185.1411642
51
193.0079639
0
ARC
8
DEFAULT_255_1_234
10
7.1199678
20
52.6364641
40
0.3627568
50
192.7897626
51
205.2507664
0
ARC
8
DEFAULT_255_1_234
10
7.0153225
20
52.5897415
40
0.2481908
50
205.8005384
51
211.2537509
0
ARC
8
DEFAULT_255_1_234
10
6.9629666
20
52.554658
40
0.1852521
50
210.3789793
51
238.4008143
0
ARC
8
DEFAULT_255_1_234
10
6.9610188
20
52.5593376
40
0.1882621
50
239.6520629
51
265.9793761
0
ARC
8
DEFAULT_255_1_234
10
6.9695388
20
52.6265427
40
0.2559272
50
265.1315437
51
270.060332
0
ARC
8
DEFAULT_255_1_234
10
6.9724167
20
52.5941534
40
0.2235528
50
269.3314664
51
287.2178029
0
ARC
8
DEFAULT_255_1_234
10
6.9862019
20
52.5438279
40
0.1714108
50
287.7958004
51
329.080874
0
ARC
8
DEFAULT_255_1_234
10
6.8904476
20
52.603593
40
0.2842745
50
328.6634704
51
343.3325132
0
ARC
8
DEFAULT_255_1_234
10
6.6731496
20
52.6712863
40
0.5118644
50
343.0499468
51
351.9393422
0
ARC
8
DEFAULT_255_1_234
10
6.3264796
20
52.7223949
40
0.8622784
50
351.8069023
51
357.7959224
0
ARC
8
DEFAULT_255_1_234
10
6.0029352
20
52.7391721
40
1.1862365
50
357.5871873
51
359.2677531
0
LINE
8
DEFAULT_255_1_234
10
4.4572154
20
60.2029
11
4.1335364
21
60.2029
0
LINE
8
DEFAULT_255_1_234
10
4.1335364
20
60.2029
11
4.1335364
21
61.3723211
0
LINE
8
DEFAULT_255_1_234
10
4.1335364
20
61.3723211
11
4.4636408
21
61.3723211
0
LINE
8
DEFAULT_255_1_234
10
4.9792784
20
60.8269661
11
4.9792784
21
60.7522709
0
LINE
8
DEFAULT_255_1_234
10
4.4676567
20
61.2454196
11
4.2877458
21
61.2454196
0
LINE
8
DEFAULT_255_1_234
10
4.2877458
20
61.2454196
11
4.2877458
21
60.3289983
0
LINE
8
DEFAULT_255_1_234
10
4.2877458
20
60.3289983
11
4.4499869
21
60.3289983
0
LINE
8
DEFAULT_255_1_234
10
4.8266754
20
60.7554836
11
4.8266754
21
60.8237534
0
ARC
8
DEFAULT_255_1_234
10
4.4675351
20
60.7857894
40
0.5865446
50
75.4101064
51
90.3804066
0
ARC
8
DEFAULT_255_1_234
10
4.4904864
20
60.8814492
40
0.4881916
50
60.145586
51
75.1888407
0
ARC
8
DEFAULT_255_1_234
10
4.506364
20
60.9091199
40
0.4562893
50
26.5253612
51
60.1450928
0
ARC
8
DEFAULT_255_1_234
10
4.3943389
20
60.8497158
40
0.5830602
50
7.4030428
51
26.8320788
0
ARC
8
DEFAULT_255_1_234
10
4.2349146
20
60.8248804
40
0.7443669
50
0.1605367
51
7.7176192
0
ARC
8
DEFAULT_255_1_234
10
4.251305
20
60.7484434
40
0.7279835
50
348.7289388
51
0.3012466
0
ARC
8
DEFAULT_255_1_234
10
4.4169481
20
60.7155386
40
0.559104
50
333.0706509
51
348.7181832
0
ARC
8
DEFAULT_255_1_234
10
4.5136238
20
60.6630319
40
0.4491417
50
299.2531685
51
333.4571258
0
ARC
8
DEFAULT_255_1_234
10
4.4775378
20
60.7315828
40
0.5265881
50
278.107187
51
299.0339503
0
ARC
8
DEFAULT_255_1_234
10
4.4519457
20
60.8823216
40
0.679442
50
270.4443897
51
278.4511052
0
ARC
8
DEFAULT_255_1_234
10
4.4540287
20
60.7894213
40
0.4604407
50
269.4970433
51
284.0205042
0
ARC
8
DEFAULT_255_1_234
10
4.4895588
20
60.6528978
40
0.3193797
50
283.7700273
51
318.1555492
0
ARC
8
DEFAULT_255_1_234
10
4.4558346
20
60.6781367
40
0.3613588
50
318.7415601
51
343.6873628
0
ARC
8
DEFAULT_255_1_234
10
4.2754369
20
60.7344832
40
0.5503313
50
343.3325091
51
355.8548958
0
ARC
8
DEFAULT_255_1_234
10
4.0656054
20
60.7544319
40
0.7610708
50
355.4988528
51
0.0791727
0
ARC
8
DEFAULT_255_1_234
10
4.1438676
20
60.827978
40
0.6828208
50
359.6455037
51
9.8607896
0
ARC
8
DEFAULT_255_1_234
10
4.3799374
20
60.8706099
40
0.4429406
50
9.6571907
51
26.1932807
0
ARC
8
DEFAULT_255_1_234
10
4.4727363
20
60.9137118
40
0.3406537
50
26.5777228
51
40.1532208
0
ARC
8
DEFAULT_255_1_234
10
4.4983089
20
60.9336619
40
0.308246
50
40.3840491
51
80.1431104
0
ARC
8
DEFAULT_255_1_234
10
4.4656207
20
60.7887333
40
0.4566909
50
79.2152159
51
89.7445637
0
LINE
8
DEFAULT_255_1_234
10
5.3776526
20
61.3723211
11
5.3776526
21
60.2029
0
LINE
8
DEFAULT_255_1_234
10
5.3776526
20
60.2029
11
5.2234433
21
60.2029
0
LINE
8
DEFAULT_255_1_234
10
5.2234433
20
60.2029
11
5.2234433
21
61.3723211
0
LINE
8
DEFAULT_255_1_234
10
5.2234433
20
61.3723211
11
5.3776526
21
61.3723211
0
LINE
8
DEFAULT_255_1_234
10
6.3398549
20
60.9048739
11
6.3398549
21
60.8615025
0
LINE
8
DEFAULT_255_1_234
10
5.7977125
20
60.2020968
11
5.7687983
21
60.2020968
0
LINE
8
DEFAULT_255_1_234
10
5.7687983
20
60.2020968
11
5.7687983
21
60.3273919
0
LINE
8
DEFAULT_255_1_234
10
5.7687983
20
60.3273919
11
5.8001221
21
60.3273919
0
LINE
8
DEFAULT_255_1_234
10
6.1912677
20
60.8759597
11
6.1912677
21
60.9353945
0
ARC
8
DEFAULT_255_1_234
10
5.9118947
20
60.9505403
40
0.3635579
50
297.4037347
51
320.016758
0
ARC
8
DEFAULT_255_1_234
10
5.9408896
20
60.894824
40
0.3007486
50
270.2633101
51
297.3851877
0
ARC
8
DEFAULT_255_1_234
10
5.9374851
20
60.9411904
40
0.3471448
50
269.9966443
51
270.7900392
0
ARC
8
DEFAULT_255_1_234
10
5.9349332
20
60.9410143
40
0.3469779
50
254.5999133
51
270.4180344
0
ARC
8
DEFAULT_255_1_234
10
5.9206692
20
60.8845647
40
0.2887697
50
236.4717942
51
254.3541279
0
ARC
8
DEFAULT_255_1_234
10
5.936291
20
60.9055711
40
0.3149125
50
208.4727207
51
236.2134933
0
ARC
8
DEFAULT_255_1_234
10
6.0001685
20
60.9446455
40
0.3897115
50
204.3447514
51
209.0453999
0
ARC
8
DEFAULT_255_1_234
10
6.068126
20
60.9734656
40
0.4635101
50
183.9375985
51
204.1276318
0
ARC
8
DEFAULT_255_1_234
10
6.1589512
20
60.9832482
40
0.5548037
50
179.9652252
51
184.3013875
0
ARC
8
DEFAULT_255_1_234
10
6.1349558
20
60.9865507
40
0.5308164
50
166.7585989
51
180.3201225
0
ARC
8
DEFAULT_255_1_234
10
6.0503171
20
61.0049488
40
0.4442163
50
154.6955053
51
166.5679793
0
ARC
8
DEFAULT_255_1_234
10
5.9650042
20
61.047921
40
0.3487299
50
136.3324195
51
155.0871442
0
ARC
8
DEFAULT_255_1_234
10
5.9369114
20
61.0719954
40
0.3117924
50
121.236733
51
135.9680508
0
ARC
8
DEFAULT_255_1_234
10
5.9509612
20
61.0459743
40
0.3413302
50
96.845628
51
120.9881519
0
ARC
8
DEFAULT_255_1_234
10
5.9655194
20
60.9524515
40
0.4359341
50
89.8870174
51
97.2802754
0
ARC
8
DEFAULT_255_1_234
10
5.9707633
20
61.0162095
40
0.3722009
50
70.6505584
51
90.6749113
0
ARC
8
DEFAULT_255_1_234
10
5.9838912
20
61.0675361
40
0.3194571
50
36.7492984
51
69.8219918
0
ARC
8
DEFAULT_255_1_234
10
5.8840076
20
60.9896993
40
0.4460685
50
15.39587
51
37.0840084
0
ARC
8
DEFAULT_255_1_234
10
5.671051
20
60.9276242
40
0.6678714
50
3.9488873
51
15.6798563
0
ARC
8
DEFAULT_255_1_234
10
5.4309138
20
60.9059964
40
0.9089418
50
359.929245
51
4.2665314
0
ARC
8
DEFAULT_255_1_234
10
4.9703575
20
60.8548513
40
1.3695135
50
352.8366322
51
0.2782669
0
ARC
8
DEFAULT_255_1_234
10
5.4991254
20
60.7861629
40
0.8363105
50
341.8359505
51
352.9884176
0
ARC
8
DEFAULT_255_1_234
10
5.8209973
20
60.67767
40
0.4966642
50
322.8578092
51
342.1527901
0
ARC
8
DEFAULT_255_1_234
10
5.9073929
20
60.6187384
40
0.3922466
50
319.334325
51
322.0998941
0
ARC
8
DEFAULT_255_1_234
10
5.8764265
20
60.6498209
40
0.4360033
50
285.9541367
51
318.8878087
0
ARC
8
DEFAULT_255_1_234
10
5.8037527
20
60.88086
40
0.678149
50
272.9281676
51
286.4922826
0
ARC
8
DEFAULT_255_1_234
10
5.7847645
20
61.1059587
40
0.9039547
50
270.8207226
51
273.4012994
0
ARC
8
DEFAULT_255_1_234
10
5.7936496
20
60.9240666
40
0.5967098
50
270.6214993
51
281.4062806
0
ARC
8
DEFAULT_255_1_234
10
5.8366476
20
60.7184833
40
0.3866861
50
281.1852553
51
299.0621114
0
ARC
8
DEFAULT_255_1_234
10
5.8740048
20
60.6463798
40
0.3055236
50
299.5067782
51
313.1200873
0
ARC
8
DEFAULT_255_1_234
10
5.8762014
20
60.6384554
40
0.2982623
50
313.8526205
51
338.5989322
0
ARC
8
DEFAULT_255_1_234
10
5.7138089
20
60.7051781
40
0.4738131
50
338.2523585
51
351.2430902
0
ARC
8
DEFAULT_255_1_234
10
5.4727384
20
60.7461447
40
0.7183203
50
350.9409515
51
357.6691871
0
ARC
8
DEFAULT_255_1_234
10
5.9617815
20
60.9463764
40
0.2294452
50
269.9447023
51
306.8248917
0
ARC
8
DEFAULT_255_1_234
10
5.9380729
20
60.9886898
40
0.2775994
50
305.5072438
51
327.0773448
0
ARC
8
DEFAULT_255_1_234
10
5.9499171
20
60.9792025
40
0.2625056
50
327.4104943
51
336.840169
0
ARC
8
DEFAULT_255_1_234
10
5.6405235
20
60.9386302
40
0.5507537
50
359.6633817
51
10.117533
0
ARC
8
DEFAULT_255_1_234
10
5.8159033
20
60.9710777
40
0.372403
50
9.9430141
51
26.7700076
0
ARC
8
DEFAULT_255_1_234
10
5.8756246
20
60.9986187
40
0.3066865
50
27.2015464
51
34.6829435
0
ARC
8
DEFAULT_255_1_234
10
5.9245726
20
61.0353977
40
0.245519
50
34.1250343
51
50.3070065
0
ARC
8
DEFAULT_255_1_234
10
5.9692406
20
61.0888385
40
0.1758693
50
50.3851167
51
90.6705993
0
ARC
8
DEFAULT_255_1_234
10
5.9645639
20
61.0583799
40
0.2063326
50
89.272901
51
111.9140407
0
ARC
8
DEFAULT_255_1_234
10
5.9626166
20
61.072444
40
0.1925887
50
112.9382311
51
142.5320782
0
ARC
8
DEFAULT_255_1_234
10
6.0172347
20
61.0280969
40
0.2629232
50
142.1021256
51
166.3835592
0
ARC
8
DEFAULT_255_1_234
10
6.1353652
20
60.9975915
40
0.3849193
50
166.1100289
51
178.665427
0
ARC
8
DEFAULT_255_1_234
10
6.2401241
20
60.9917117
40
0.4897989
50
178.2632126
51
180.0111093
0
ARC
8
DEFAULT_255_1_234
10
6.1599361
20
60.9888728
40
0.40962
50
179.6161962
51
191.8787166
0
ARC
8
DEFAULT_255_1_234
10
6.03792
20
60.9618896
40
0.2846655
50
191.6191692
51
215.2972286
0
ARC
8
DEFAULT_255_1_234
10
6.0182392
20
60.9503918
40
0.2619665
50
215.7320102
51
216.5355409
0
ARC
8
DEFAULT_255_1_234
10
5.9643478
20
60.9071647
40
0.1929497
50
215.7486685
51
239.9727502
0
ARC
8
DEFAULT_255_1_234
10
5.9573393
20
60.9020894
40
0.1850822
50
241.0650169
51
269.2810483
0
ARC
8
DEFAULT_255_1_234
10
5.9615308
20
60.9511371
40
0.2342059
50
268.4062526
51
270.0071348
0
LINE
8
DEFAULT_255_1_234
10
4.4572154
20
68.1404
11
4.1335364
21
68.1404
0
LINE
8
DEFAULT_255_1_234
10
4.1335364
20
68.1404
11
4.1335364
21
69.3098211
0
LINE
8
DEFAULT_255_1_234
10
4.1335364
20
69.3098211
11
4.4636408
21
69.3098211
0
LINE
8
DEFAULT_255_1_234
10
4.9792784
20
68.7644661
11
4.9792784
21
68.6897709
0
LINE
8
DEFAULT_255_1_234
10
4.4676567
20
69.1829196
11
4.2877458
21
69.1829196
0
LINE
8
DEFAULT_255_1_234
10
4.2877458
20
69.1829196
11
4.2877458
21
68.2664983
0
LINE
8
DEFAULT_255_1_234
10
4.2877458
20
68.2664983
11
4.4499869
21
68.2664983
0
LINE
8
DEFAULT_255_1_234
10
4.8266754
20
68.6929836
11
4.8266754
21
68.7612534
0
ARC
8
DEFAULT_255_1_234
10
4.4675351
20
68.7232894
40
0.5865446
50
75.4101064
51
90.3804066
0
ARC
8
DEFAULT_255_1_234
10
4.4904864
20
68.8189492
40
0.4881916
50
60.145586
51
75.1888407
0
ARC
8
DEFAULT_255_1_234
10
4.506364
20
68.8466199
40
0.4562893
50
26.5253612
51
60.1450928
0
ARC
8
DEFAULT_255_1_234
10
4.3943389
20
68.7872158
40
0.5830602
50
7.4030428
51
26.8320788
0
ARC
8
DEFAULT_255_1_234
10
4.2349146
20
68.7623804
40
0.7443669
50
0.1605367
51
7.7176192
0
ARC
8
DEFAULT_255_1_234
10
4.251305
20
68.6859434
40
0.7279835
50
348.7289388
51
0.3012466
0
ARC
8
DEFAULT_255_1_234
10
4.4169481
20
68.6530386
40
0.559104
50
333.0706509
51
348.7181832
0
ARC
8
DEFAULT_255_1_234
10
4.5136238
20
68.6005319
40
0.4491417
50
299.2531685
51
333.4571258
0
ARC
8
DEFAULT_255_1_234
10
4.4775378
20
68.6690828
40
0.5265881
50
278.107187
51
299.0339503
0
ARC
8
DEFAULT_255_1_234
10
4.4519457
20
68.8198216
40
0.679442
50
270.4443897
51
278.4511052
0
ARC
8
DEFAULT_255_1_234
10
4.4540287
20
68.7269213
40
0.4604407
50
269.4970433
51
284.0205042
0
ARC
8
DEFAULT_255_1_234
10
4.4895588
20
68.5903978
40
0.3193797
50
283.7700273
51
318.1555492
0
ARC
8
DEFAULT_255_1_234
10
4.4558346
20
68.6156367
40
0.3613588
50
318.7415601
51
343.6873628
0
ARC
8
DEFAULT_255_1_234
10
4.2754369
20
68.6719832
40
0.5503313
50
343.3325091
51
355.8548958
0
ARC
8
DEFAULT_255_1_234
10
4.0656054
20
68.6919319
40
0.7610708
50
355.4988528
51
0.0791727
0
ARC
8
DEFAULT_255_1_234
10
4.1438676
20
68.765478
40
0.6828208
50
359.6455037
51
9.8607896
0
ARC
8
DEFAULT_255_1_234
10
4.3799374
20
68.8081099
40
0.4429406
50
9.6571907
51
26.1932807
0
ARC
8
DEFAULT_255_1_234
10
4.4727363
20
68.8512118
40
0.3406537
50
26.5777228
51
40.1532208
0
ARC
8
DEFAULT_255_1_234
10
4.4983089
20
68.8711619
40
0.308246
50
40.3840491
51
80.1431104
0
ARC
8
DEFAULT_255_1_234
10
4.4656207
20
68.7262333
40
0.4566909
50
79.2152159
51
89.7445637
0
LINE
8
DEFAULT_255_1_234
10
5.3776526
20
69.3098211
11
5.3776526
21
68.1404
0
LINE
8
DEFAULT_255_1_234
10
5.3776526
20
68.1404
11
5.2234433
21
68.1404
0
LINE
8
DEFAULT_255_1_234
10
5.2234433
20
68.1404
11
5.2234433
21
69.3098211
0
LINE
8
DEFAULT_255_1_234
10
5.2234433
20
69.3098211
11
5.3776526
21
69.3098211
0
ARC
8
DEFAULT_255_1_234
10
6.0479926
20
69.0020703
40
0.2822356
50
338.8763615
51
0.5166041
0
ARC
8
DEFAULT_255_1_234
10
6.0648581
20
68.9975208
40
0.2648703
50
325.8412414
51
338.4795939
0
ARC
8
DEFAULT_255_1_234
10
6.0257949
20
69.0246042
40
0.3124019
50
296.7586019
51
325.753654
0
ARC
8
DEFAULT_255_1_234
10
5.9970057
20
69.0730789
40
0.368668
50
296.0902311
51
297.3618122
0
ARC
8
DEFAULT_255_1_234
10
6.0227515
20
68.4176041
40
0.3518806
50
47.9009248
51
67.1946869
0
ARC
8
DEFAULT_255_1_234
10
6.0423757
20
68.4422395
40
0.320451
50
35.236241
51
47.551371
0
ARC
8
DEFAULT_255_1_234
10
6.0685375
20
68.4596993
40
0.2890103
50
359.2759738
51
35.4014081
0
ARC
8
DEFAULT_255_1_234
10
5.9940406
20
68.4523826
40
0.3635026
50
343.1294516
51
0.5776525
0
ARC
8
DEFAULT_255_1_234
10
6.066495
20
68.432433
40
0.2883832
50
310.8497458
51
342.744803
0
ARC
8
DEFAULT_255_1_234
10
6.0247064
20
68.4801294
40
0.3517954
50
281.5473923
51
310.9169905
0
ARC
8
DEFAULT_255_1_234
10
5.9890513
20
68.6354084
40
0.5110832
50
269.6192722
51
281.9789957
0
ARC
8
DEFAULT_255_1_234
10
5.9818302
20
68.6354828
40
0.5111606
50
257.4584469
51
270.4287458
0
ARC
8
DEFAULT_255_1_234
10
5.9437445
20
68.4751344
40
0.3463762
50
228.7553743
51
257.8484423
0
ARC
8
DEFAULT_255_1_234
10
5.9127644
20
68.4378442
40
0.297916
50
184.0104442
51
228.5071787
0
ARC
8
DEFAULT_255_1_234
10
6.0290588
20
68.4555512
40
0.4152734
50
179.9315461
51
185.3254504
0
ARC
8
DEFAULT_255_1_234
10
5.9114233
20
68.4592992
40
0.2976554
50
145.6795913
51
180.6259649
0
ARC
8
DEFAULT_255_1_234
10
5.9277583
20
68.4478929
40
0.3175776
50
115.5537925
51
145.6416199
0
ARC
8
DEFAULT_255_1_234
10
5.9618513
20
68.3868028
40
0.3874232
50
113.2437915
51
116.2054627
0
ARC
8
DEFAULT_255_1_234
10
5.9465725
20
69.026658
40
0.3154751
50
222.9548379
51
244.1372485
0
ARC
8
DEFAULT_255_1_234
10
5.9343801
20
69.0129834
40
0.2972382
50
213.3439227
51
222.6271327
0
ARC
8
DEFAULT_255_1_234
10
5.9151735
20
68.9999308
40
0.274019
50
180.4316517
51
213.2713999
0
ARC
8
DEFAULT_255_1_234
10
5.9726737
20
69.004611
40
0.33158
50
179.9992944
51
181.1655061
0
ARC
8
DEFAULT_255_1_234
10
6.0136154
20
69.0080561
40
0.3725376
50
164.6186108
51
180.5292368
0
ARC
8
DEFAULT_255_1_234
10
5.9238017
20
69.0322101
40
0.2795349
50
132.2454369
51
164.5092287
0
ARC
8
DEFAULT_255_1_234
10
5.9525121
20
68.9997028
40
0.3229019
50
100.7052766
51
132.1387266
0
ARC
8
DEFAULT_255_1_234
10
5.9830093
20
68.8619086
40
0.4639835
50
89.6732617
51
101.2449487
0
ARC
8
DEFAULT_255_1_234
10
5.9892291
20
68.879399
40
0.4464999
50
76.2876631
51
90.4586123
0
ARC
8
DEFAULT_255_1_234
10
6.0198523
20
69.001622
40
0.3205023
50
47.8240157
51
76.4266918
0
ARC
8
DEFAULT_255_1_234
10
6.0421072
20
69.027659
40
0.2862661
50
6.9168658
51
47.6261438
0
ARC
8
DEFAULT_255_1_234
10
5.9234475
20
69.005737
40
0.4067708
50
359.8419705
51
7.9694496
0
ARC
8
DEFAULT_255_1_234
10
5.9576372
20
68.4616925
40
0.2513121
50
359.4454068
51
16.9256425
0
ARC
8
DEFAULT_255_1_234
10
6.0045183
20
68.4746033
40
0.2027071
50
17.292259
51
45.462717
0
ARC
8
DEFAULT_255_1_234
10
5.999112
20
68.4699434
40
0.2098212
50
45.3028762
51
83.1921472
0
ARC
8
DEFAULT_255_1_234
10
5.9847804
20
68.3897895
40
0.2911472
50
82.2614531
51
90.143954
0
ARC
8
DEFAULT_255_1_234
10
5.9816924
20
68.413095
40
0.2678513
50
89.4959189
51
104.8579811
0
ARC
8
DEFAULT_255_1_234
10
5.9640183
20
68.480089
40
0.1985654
50
104.8855873
51
135.2448349
0
ARC
8
DEFAULT_255_1_234
10
5.9689955
20
68.4756336
40
0.2052373
50
135.3398955
51
172.104394
0
ARC
8
DEFAULT_255_1_234
10
6.0497013
20
68.4601925
40
0.2873299
50
171.2651929
51
180.1859362
0
ARC
8
DEFAULT_255_1_234
10
6.0327715
20
68.4569733
40
0.2704083
50
179.515471
51
193.6466734
0
ARC
8
DEFAULT_255_1_234
10
5.9511484
20
68.4361777
40
0.1861855
50
193.3540587
51
225.8256931
0
ARC
8
DEFAULT_255_1_234
10
5.9552241
20
68.4432524
40
0.1941102
50
226.418029
51
255.8553723
0
ARC
8
DEFAULT_255_1_234
10
5.9808674
20
68.5368998
40
0.2911917
50
255.4655572
51
268.7985967
0
ARC
8
DEFAULT_255_1_234
10
5.9855866
20
68.6207491
40
0.3751331
50
268.3464808
51
270.0104874
0
ARC
8
DEFAULT_255_1_234
10
5.9879254
20
68.5523138
40
0.3067064
50
269.575914
51
282.0823146
0
ARC
8
DEFAULT_255_1_234
10
6.0104163
20
68.4528803
40
0.2047712
50
281.7522535
51
306.6056425
0
ARC
8
DEFAULT_255_1_234
10
6.0202589
20
68.4367487
40
0.1859604
50
307.1350025
51
314.0277951
0
ARC
8
DEFAULT_255_1_234
10
6.0166673
20
68.4393766
40
0.1903475
50
314.2553419
51
350.169324
0
ARC
8
DEFAULT_255_1_234
10
5.9315141
20
68.4578409
40
0.2774269
50
349.4145679
51
0.2930737
0
ARC
8
DEFAULT_255_1_234
10
5.9835575
20
68.9737353
40
0.2300764
50
89.477591
51
105.729794
0
ARC
8
DEFAULT_255_1_234
10
5.9699488
20
69.0242637
40
0.1777519
50
105.922966
51
135.1662921
0
ARC
8
DEFAULT_255_1_234
10
5.9719991
20
69.0228419
40
0.1802087
50
135.3053131
51
168.9882338
0
ARC
8
DEFAULT_255_1_234
10
6.0547563
20
69.0038721
40
0.2650806
50
168.3802067
51
180.3602358
0
ARC
8
DEFAULT_255_1_234
10
6.0319142
20
69.0001041
40
0.2422425
50
179.5029707
51
194.9126783
0
ARC
8
DEFAULT_255_1_234
10
5.9733803
20
68.984711
40
0.1817188
50
194.9722181
51
224.1943972
0
ARC
8
DEFAULT_255_1_234
10
5.9705671
20
68.9824169
40
0.1781027
50
224.2961434
51
262.0157375
0
ARC
8
DEFAULT_255_1_234
10
5.9847914
20
69.0555661
40
0.2525492
50
261.1250369
51
270.1959853
0
ARC
8
DEFAULT_255_1_234
10
5.9877669
20
69.0368339
40
0.233825
50
269.4825617
51
285.0988277
0
ARC
8
DEFAULT_255_1_234
10
6.0031828
20
68.978999
40
0.1739712
50
285.1585659
51
315.9484648
0
ARC
8
DEFAULT_255_1_234
10
5.994284
20
68.9871886
40
0.1860616
50
316.0412958
51
351.9162715
0
ARC
8
DEFAULT_255_1_234
10
5.9209794
20
69.0013245
40
0.2606517
50
351.1056823
51
0.1936567
0
ARC
8
DEFAULT_255_1_234
10
5.9472623
20
69.0043369
40
0.234377
50
359.4789506
51
16.0679113
0
ARC
8
DEFAULT_255_1_234
10
5.9948582
20
69.017181
40
0.1850875
50
16.3251951
51
44.791304
0
ARC
8
DEFAULT_255_1_234
10
5.9930864
20
69.0172339
40
0.186312
50
44.3958661
51
88.2498933
0
ARC
8
DEFAULT_255_1_234
10
5.9857417
20
68.9561154
40
0.2476868
50
86.9833827
51
90.0200148
0
LINE
8
DEFAULT_255_1_234
10
4.4572154
20
76.0779
11
4.1335364
21
76.0779
0
LINE
8
DEFAULT_255_1_234
10
4.1335364
20
76.0779
11
4.1335364
21
77.2473211
0
LINE
8
DEFAULT_255_1_234
10
4.1335364
20
77.2473211
11
4.4636408
21
77.2473211
0
LINE
8
DEFAULT_255_1_234
10
4.9792784
20
76.7019661
11
4.9792784
21
76.6272709
0
LINE
8
DEFAULT_255_1_234
10
4.4676567
20
77.1204196
11
4.2877458
21
77.1204196
0
LINE
8
DEFAULT_255_1_234
10
4.2877458
20
77.1204196
11
4.2877458
21
76.2039983
0
LINE
8
DEFAULT_255_1_234
10
4.2877458
20
76.2039983
11
4.4499869
21
76.2039983
0
LINE
8
DEFAULT_255_1_234
10
4.8266754
20
76.6304836
11
4.8266754
21
76.6987534
0
ARC
8
DEFAULT_255_1_234
10
4.4675351
20
76.6607894
40
0.5865446
50
75.4101064
51
90.3804066
0
ARC
8
DEFAULT_255_1_234
10
4.4904864
20
76.7564492
40
0.4881916
50
60.145586
51
75.1888407
0
ARC
8
DEFAULT_255_1_234
10
4.506364
20
76.7841199
40
0.4562893
50
26.5253612
51
60.1450928
0
ARC
8
DEFAULT_255_1_234
10
4.3943389
20
76.7247158
40
0.5830602
50
7.4030428
51
26.8320788
0
ARC
8
DEFAULT_255_1_234
10
4.2349146
20
76.6998804
40
0.7443669
50
0.1605367
51
7.7176192
0
ARC
8
DEFAULT_255_1_234
10
4.251305
20
76.6234434
40
0.7279835
50
348.7289388
51
0.3012466
0
ARC
8
DEFAULT_255_1_234
10
4.4169481
20
76.5905386
40
0.559104
50
333.0706509
51
348.7181832
0
ARC
8
DEFAULT_255_1_234
10
4.5136238
20
76.5380319
40
0.4491417
50
299.2531685
51
333.4571258
0
ARC
8
DEFAULT_255_1_234
10
4.4775378
20
76.6065828
40
0.5265881
50
278.107187
51
299.0339503
0
ARC
8
DEFAULT_255_1_234
10
4.4519457
20
76.7573216
40
0.679442
50
270.4443897
51
278.4511052
0
ARC
8
DEFAULT_255_1_234
10
4.4540287
20
76.6644213
40
0.4604407
50
269.4970433
51
284.0205042
0
ARC
8
DEFAULT_255_1_234
10
4.4895588
20
76.5278978
40
0.3193797
50
283.7700273
51
318.1555492
0
ARC
8
DEFAULT_255_1_234
10
4.4558346
20
76.5531367
40
0.3613588
50
318.7415601
51
343.6873628
0
ARC
8
DEFAULT_255_1_234
10
4.2754369
20
76.6094832
40
0.5503313
50
343.3325091
51
355.8548958
0
ARC
8
DEFAULT_255_1_234
10
4.0656054
20
76.6294319
40
0.7610708
50
355.4988528
51
0.0791727
0
ARC
8
DEFAULT_255_1_234
10
4.1438676
20
76.702978
40
0.6828208
50
359.6455037
51
9.8607896
0
ARC
8
DEFAULT_255_1_234
10
4.3799374
20
76.7456099
40
0.4429406
50
9.6571907
51
26.1932807
0
ARC
8
DEFAULT_255_1_234
10
4.4727363
20
76.7887118
40
0.3406537
50
26.5777228
51
40.1532208
0
ARC
8
DEFAULT_255_1_234
10
4.4983089
20
76.8086619
40
0.308246
50
40.3840491
51
80.1431104
0
ARC
8
DEFAULT_255_1_234
10
4.4656207
20
76.6637333
40
0.4566909
50
79.2152159
51
89.7445637
0
LINE
8
DEFAULT_255_1_234
10
5.3776526
20
77.2473211
11
5.3776526
21
76.0779
0
LINE
8
DEFAULT_255_1_234
10
5.3776526
20
76.0779
11
5.2234433
21
76.0779
0
LINE
8
DEFAULT_255_1_234
10
5.2234433
20
76.0779
11
5.2234433
21
77.2473211
0
LINE
8
DEFAULT_255_1_234
10
5.2234433
20
77.2473211
11
5.3776526
21
77.2473211
0
LINE
8
DEFAULT_255_1_234
10
6.3759977
20
77.2473211
11
6.3759977
21
77.163791
0
LINE
8
DEFAULT_255_1_234
10
6.3759977
20
77.163791
11
5.8916839
21
76.0779
0
LINE
8
DEFAULT_255_1_234
10
5.8916839
20
76.0779
11
5.7358682
21
76.0779
0
LINE
8
DEFAULT_255_1_234
10
5.7358682
20
76.0779
11
6.2185756
21
77.1252387
0
LINE
8
DEFAULT_255_1_234
10
6.2185756
20
77.1252387
11
5.5856747
21
77.1252387
0
LINE
8
DEFAULT_255_1_234
10
5.5856747
20
77.1252387
11
5.5856747
21
77.2473211
0
LINE
8
DEFAULT_255_1_234
10
5.5856747
20
77.2473211
11
6.3759977
21
77.2473211
0
LINE
8
DEFAULT_255_1_234
10
4.4572154
20
84.0154
11
4.1335364
21
84.0154
0
LINE
8
DEFAULT_255_1_234
10
4.1335364
20
84.0154
11
4.1335364
21
85.1848211
0
LINE
8
DEFAULT_255_1_234
10
4.1335364
20
85.1848211
11
4.4636408
21
85.1848211
0
LINE
8
DEFAULT_255_1_234
10
4.9792784
20
84.6394661
11
4.9792784
21
84.5647709
0
LINE
8
DEFAULT_255_1_234
10
4.4676567
20
85.0579196
11
4.2877458
21
85.0579196
0
LINE
8
DEFAULT_255_1_234
10
4.2877458
20
85.0579196
11
4.2877458
21
84.1414983
0
LINE
8
DEFAULT_255_1_234
10
4.2877458
20
84.1414983
11
4.4499869
21
84.1414983
0
LINE
8
DEFAULT_255_1_234
10
4.8266754
20
84.5679836
11
4.8266754
21
84.6362534
0
ARC
8
DEFAULT_255_1_234
10
4.4675351
20
84.5982894
40
0.5865446
50
75.4101064
51
90.3804066
0
ARC
8
DEFAULT_255_1_234
10
4.4904864
20
84.6939492
40
0.4881916
50
60.145586
51
75.1888407
0
ARC
8
DEFAULT_255_1_234
10
4.506364
20
84.7216199
40
0.4562893
50
26.5253612
51
60.1450928
0
ARC
8
DEFAULT_255_1_234
10
4.3943389
20
84.6622158
40
0.5830602
50
7.4030428
51
26.8320788
0
ARC
8
DEFAULT_255_1_234
10
4.2349146
20
84.6373804
40
0.7443669
50
0.1605367
51
7.7176192
0
ARC
8
DEFAULT_255_1_234
10
4.251305
20
84.5609434
40
0.7279835
50
348.7289388
51
0.3012466
0
ARC
8
DEFAULT_255_1_234
10
4.4169481
20
84.5280386
40
0.559104
50
333.0706509
51
348.7181832
0
ARC
8
DEFAULT_255_1_234
10
4.5136238
20
84.4755319
40
0.4491417
50
299.2531685
51
333.4571258
0
ARC
8
DEFAULT_255_1_234
10
4.4775378
20
84.5440828
40
0.5265881
50
278.107187
51
299.0339503
0
ARC
8
DEFAULT_255_1_234
10
4.4519457
20
84.6948216
40
0.679442
50
270.4443897
51
278.4511052
0
ARC
8
DEFAULT_255_1_234
10
4.4540287
20
84.6019213
40
0.4604407
50
269.4970433
51
284.0205042
0
ARC
8
DEFAULT_255_1_234
10
4.4895588
20
84.4653978
40
0.3193797
50
283.7700273
51
318.1555492
0
ARC
8
DEFAULT_255_1_234
10
4.4558346
20
84.4906367
40
0.3613588
50
318.7415601
51
343.6873628
0
ARC
8
DEFAULT_255_1_234
10
4.2754369
20
84.5469832
40
0.5503313
50
343.3325091
51
355.8548958
0
ARC
8
DEFAULT_255_1_234
10
4.0656054
20
84.5669319
40
0.7610708
50
355.4988528
51
0.0791727
0
ARC
8
DEFAULT_255_1_234
10
4.1438676
20
84.640478
40
0.6828208
50
359.6455037
51
9.8607896
0
ARC
8
DEFAULT_255_1_234
10
4.3799374
20
84.6831099
40
0.4429406
50
9.6571907
51
26.1932807
0
ARC
8
DEFAULT_255_1_234
10
4.4727363
20
84.7262118
40
0.3406537
50
26.5777228
51
40.1532208
0
ARC
8
DEFAULT_255_1_234
10
4.4983089
20
84.7461619
40
0.308246
50
40.3840491
51
80.1431104
0
ARC
8
DEFAULT_255_1_234
10
4.4656207
20
84.6012333
40
0.4566909
50
79.2152159
51
89.7445637
0
LINE
8
DEFAULT_255_1_234
10
5.3776526
20
85.1848211
11
5.3776526
21
84.0154
0
LINE
8
DEFAULT_255_1_234
10
5.3776526
20
84.0154
11
5.2234433
21
84.0154
0
LINE
8
DEFAULT_255_1_234
10
5.2234433
20
84.0154
11
5.2234433
21
85.1848211
0
LINE
8
DEFAULT_255_1_234
10
5.2234433
20
85.1848211
11
5.3776526
21
85.1848211
0
LINE
8
DEFAULT_255_1_234
10
6.1776138
20
85.1856243
11
6.2041185
21
85.1856243
0
LINE
8
DEFAULT_255_1_234
10
6.2041185
20
85.1856243
11
6.2041185
21
85.059526
0
LINE
8
DEFAULT_255_1_234
10
6.2041185
20
85.059526
11
6.1768106
21
85.059526
0
LINE
8
DEFAULT_255_1_234
10
5.6298492
20
84.4603583
11
5.6298492
21
84.5173836
0
LINE
8
DEFAULT_255_1_234
10
5.7792396
20
84.4981075
11
5.7792396
21
84.4434917
0
ARC
8
DEFAULT_255_1_234
10
6.1820454
20
84.5597455
40
0.4998079
50
90.6001036
51
104.514704
0
ARC
8
DEFAULT_255_1_234
10
6.1431969
20
84.7042131
40
0.3502176
50
104.2855254
51
133.862935
0
ARC
8
DEFAULT_255_1_234
10
6.1595727
20
84.693383
40
0.3693984
50
134.5302688
51
161.6210873
0
ARC
8
DEFAULT_255_1_234
10
6.3248915
20
84.6350895
40
0.5446739
50
161.2849839
51
174.2076652
0
ARC
8
DEFAULT_255_1_234
10
6.4655852
20
84.6156787
40
0.6866274
50
173.7810589
51
174.9254635
0
ARC
8
DEFAULT_255_1_234
10
6.0105684
20
84.4773839
40
0.3033419
50
95.8330959
51
138.9954921
0
ARC
8
DEFAULT_255_1_234
10
6.032904
20
84.3495375
40
0.4328947
50
89.8753725
51
97.0544009
0
ARC
8
DEFAULT_255_1_234
10
6.0376506
20
84.4330748
40
0.3493769
50
71.6407809
51
90.6240094
0
ARC
8
DEFAULT_255_1_234
10
6.052708
20
84.4885082
40
0.2920396
50
39.6367836
51
71.019018
0
ARC
8
DEFAULT_255_1_234
10
5.9890553
20
84.4334998
40
0.3761538
50
10.658731
51
39.9043955
0
ARC
8
DEFAULT_255_1_234
10
5.8342636
20
84.3998686
40
0.5345136
50
359.682601
51
11.132623
0
ARC
8
DEFAULT_255_1_234
10
5.8302767
20
84.392801
40
0.5385081
50
347.2486944
51
0.4369317
0
ARC
8
DEFAULT_255_1_234
10
5.9970244
20
84.3526807
40
0.3670249
50
318.1409698
51
347.6118597
0
ARC
8
DEFAULT_255_1_234
10
6.0295237
20
84.3259702
40
0.3250007
50
275.6342139
51
317.8248465
0
ARC
8
DEFAULT_255_1_234
10
6.0074348
20
84.4559219
40
0.4565864
50
269.8874292
51
276.7917694
0
ARC
8
DEFAULT_255_1_234
10
6.0019419
20
84.3533743
40
0.3540676
50
246.9140195
51
270.7437342
0
ARC
8
DEFAULT_255_1_234
10
6.0025809
20
84.3391384
40
0.3412781
50
218.1665114
51
245.878116
0
ARC
8
DEFAULT_255_1_234
10
6.090527
20
84.4127279
40
0.455911
50
191.4115814
51
218.6077802
0
ARC
8
DEFAULT_255_1_234
10
6.2843359
20
84.4561833
40
0.6545001
50
179.6345085
51
191.7836486
0
ARC
8
DEFAULT_255_1_234
10
6.8425696
20
84.5240697
40
1.2127388
50
171.4525249
51
180.3158839
0
ARC
8
DEFAULT_255_1_234
10
6.4030571
20
84.5924608
40
0.7679464
50
157.9802646
51
171.6246686
0
ARC
8
DEFAULT_255_1_234
10
6.1816592
20
84.6807421
40
0.5296008
50
141.4298019
51
157.854097
0
ARC
8
DEFAULT_255_1_234
10
6.1174913
20
84.7261381
40
0.4511509
50
102.8715806
51
140.8564722
0
ARC
8
DEFAULT_255_1_234
10
6.1822528
20
84.4821552
40
0.7034845
50
90.3778349
51
103.5869322
0
ARC
8
DEFAULT_255_1_234
10
6.0084305
20
84.421673
40
0.2370698
50
89.8751008
51
126.2071704
0
ARC
8
DEFAULT_255_1_234
10
6.0130094
20
84.4062303
40
0.2522934
50
124.9745049
51
144.895901
0
ARC
8
DEFAULT_255_1_234
10
5.9954285
20
84.420556
40
0.2296779
50
145.2974905
51
160.2660252
0
ARC
8
DEFAULT_255_1_234
10
6.3026824
20
84.4403071
40
0.5234525
50
179.6514266
51
190.2855912
0
ARC
8
DEFAULT_255_1_234
10
6.1332961
20
84.4083786
40
0.3510893
50
190.0945431
51
207.5098196
0
ARC
8
DEFAULT_255_1_234
10
6.0767231
20
84.3814623
40
0.288489
50
207.9583163
51
216.3251085
0
ARC
8
DEFAULT_255_1_234
10
6.0427339
20
84.3535105
40
0.2445587
50
215.7661442
51
232.5456785
0
ARC
8
DEFAULT_255_1_234
10
6.0044322
20
84.3048482
40
0.1826382
50
232.8005391
51
270.6605633
0
ARC
8
DEFAULT_255_1_234
10
6.0090022
20
84.3412612
40
0.2190529
50
269.35537
51
288.4744281
0
ARC
8
DEFAULT_255_1_234
10
6.018292
20
84.3063118
40
0.1829749
50
289.1833337
51
322.9683818
0
ARC
8
DEFAULT_255_1_234
10
5.9571442
20
84.3545391
40
0.2608399
50
322.6007884
51
346.5182367
0
ARC
8
DEFAULT_255_1_234
10
5.8414038
20
84.3840616
40
0.3802777
50
346.2582162
51
358.7741648
0
ARC
8
DEFAULT_255_1_234
10
5.7395707
20
84.3895965
40
0.4822176
50
358.3755224
51
0.0098023
0
ARC
8
DEFAULT_255_1_234
10
5.8151894
20
84.3923657
40
0.4066078
50
359.6214041
51
11.2839074
0
ARC
8
DEFAULT_255_1_234
10
5.9429041
20
84.4190066
40
0.2761514
50
11.0482309
51
31.8146458
0
ARC
8
DEFAULT_255_1_234
10
5.9738084
20
84.4357584
40
0.2410679
50
32.3035391
51
38.082671
0
ARC
8
DEFAULT_255_1_234
10
6.0158744
20
84.4738662
40
0.1844966
50
36.825067
51
85.7415724
0
ARC
8
DEFAULT_255_1_234
10
6.0091577
20
84.4238301
40
0.2349122
50
85.0140713
51
90.0513278
0
LINE
8
DEFAULT_255_1_234
10
4.4572154
20
91.9529
11
4.1335364
21
91.9529
0
LINE
8
DEFAULT_255_1_234
10
4.1335364
20
91.9529
11
4.1335364
21
93.1223211
0
LINE
8
DEFAULT_255_1_234
10
4.1335364
20
93.1223211
11
4.4636408
21
93.1223211
0
LINE
8
DEFAULT_255_1_234
10
4.9792784
20
92.5769661
11
4.9792784
21
92.5022709
0
LINE
8
DEFAULT_255_1_234
10
4.4676567
20
92.9954196
11
4.2877458
21
92.9954196
0
LINE
8
DEFAULT_255_1_234
10
4.2877458
20
92.9954196
11
4.2877458
21
92.0789983
0
LINE
8
DEFAULT_255_1_234
10
4.2877458
20
92.0789983
11
4.4499869
21
92.0789983
0
LINE
8
DEFAULT_255_1_234
10
4.8266754
20
92.5054836
11
4.8266754
21
92.5737534
0
ARC
8
DEFAULT_255_1_234
10
4.4675351
20
92.5357894
40
0.5865446
50
75.4101064
51
90.3804066
0
ARC
8
DEFAULT_255_1_234
10
4.4904864
20
92.6314492
40
0.4881916
50
60.145586
51
75.1888407
0
ARC
8
DEFAULT_255_1_234
10
4.506364
20
92.6591199
40
0.4562893
50
26.5253612
51
60.1450928
0
ARC
8
DEFAULT_255_1_234
10
4.3943389
20
92.5997158
40
0.5830602
50
7.4030428
51
26.8320788
0
ARC
8
DEFAULT_255_1_234
10
4.2349146
20
92.5748804
40
0.7443669
50
0.1605367
51
7.7176192
0
ARC
8
DEFAULT_255_1_234
10
4.251305
20
92.4984434
40
0.7279835
50
348.7289388
51
0.3012466
0
ARC
8
DEFAULT_255_1_234
10
4.4169481
20
92.4655386
40
0.559104
50
333.0706509
51
348.7181832
0
ARC
8
DEFAULT_255_1_234
10
4.5136238
20
92.4130319
40
0.4491417
50
299.2531685
51
333.4571258
0
ARC
8
DEFAULT_255_1_234
10
4.4775378
20
92.4815828
40
0.5265881
50
278.107187
51
299.0339503
0
ARC
8
DEFAULT_255_1_234
10
4.4519457
20
92.6323216
40
0.679442
50
270.4443897
51
278.4511052
0
ARC
8
DEFAULT_255_1_234
10
4.4540287
20
92.5394213
40
0.4604407
50
269.4970433
51
284.0205042
0
ARC
8
DEFAULT_255_1_234
10
4.4895588
20
92.4028978
40
0.3193797
50
283.7700273
51
318.1555492
0
ARC
8
DEFAULT_255_1_234
10
4.4558346
20
92.4281367
40
0.3613588
50
318.7415601
51
343.6873628
0
ARC
8
DEFAULT_255_1_234
10
4.2754369
20
92.4844832
40
0.5503313
50
343.3325091
51
355.8548958
0
ARC
8
DEFAULT_255_1_234
10
4.0656054
20
92.5044319
40
0.7610708
50
355.4988528
51
0.0791727
0
ARC
8
DEFAULT_255_1_234
10
4.1438676
20
92.577978
40
0.6828208
50
359.6455037
51
9.8607896
0
ARC
8
DEFAULT_255_1_234
10
4.3799374
20
92.6206099
40
0.4429406
50
9.6571907
51
26.1932807
0
ARC
8
DEFAULT_255_1_234
10
4.4727363
20
92.6637118
40
0.3406537
50
26.5777228
51
40.1532208
0
ARC
8
DEFAULT_255_1_234
10
4.4983089
20
92.6836619
40
0.308246
50
40.3840491
51
80.1431104
0
ARC
8
DEFAULT_255_1_234
10
4.4656207
20
92.5387333
40
0.4566909
50
79.2152159
51
89.7445637
0
LINE
8
DEFAULT_255_1_234
10
5.3776526
20
93.1223211
11
5.3776526
21
91.9529
0
LINE
8
DEFAULT_255_1_234
10
5.3776526
20
91.9529
11
5.2234433
21
91.9529
0
LINE
8
DEFAULT_255_1_234
10
5.2234433
20
91.9529
11
5.2234433
21
93.1223211
0
LINE
8
DEFAULT_255_1_234
10
5.2234433
20
93.1223211
11
5.3776526
21
93.1223211
0
LINE
8
DEFAULT_255_1_234
10
5.8081538
20
92.5086963
11
5.6892841
21
92.5392169
0
LINE
8
DEFAULT_255_1_234
10
5.6892841
20
92.5392169
11
5.7487189
21
93.1223211
0
LINE
8
DEFAULT_255_1_234
10
5.7487189
20
93.1223211
11
6.3478866
21
93.1223211
0
LINE
8
DEFAULT_255_1_234
10
6.3478866
20
93.1223211
11
6.3478866
21
92.9849784
0
LINE
8
DEFAULT_255_1_234
10
6.3478866
20
92.9849784
11
5.8748172
21
92.9849784
0
LINE
8
DEFAULT_255_1_234
10
5.8748172
20
92.9849784
11
5.8394776
21
92.6661184
0
LINE
8
DEFAULT_255_1_234
10
5.647519
20
92.2605156
11
5.7880745
21
92.2605156
0
LINE
8
DEFAULT_255_1_234
10
5.8475093
20
92.5408232
11
5.8081538
21
92.5086963
0
ARC
8
DEFAULT_255_1_234
10
6.024956
20
92.348123
40
0.3681349
50
93.7182161
51
120.2538958
0
ARC
8
DEFAULT_255_1_234
10
6.0343823
20
92.2673394
40
0.449379
50
89.9660152
51
94.2496022
0
ARC
8
DEFAULT_255_1_234
10
6.0384557
20
92.3262549
40
0.390482
50
73.8043271
51
90.5585896
0
ARC
8
DEFAULT_255_1_234
10
6.0619454
20
92.4120602
40
0.3015334
50
41.3071453
51
73.5430202
0
ARC
8
DEFAULT_255_1_234
10
6.0203281
20
92.3762324
40
0.3564457
50
13.5075983
51
41.2174222
0
ARC
8
DEFAULT_255_1_234
10
5.8561485
20
92.3332486
40
0.5261351
50
1.1331335
51
13.8829381
0
ARC
8
DEFAULT_255_1_234
10
5.7149854
20
92.3256665
40
0.6674378
50
359.9919444
51
1.544251
0
ARC
8
DEFAULT_255_1_234
10
5.842668
20
92.321528
40
0.5397702
50
347.8572367
51
0.4293338
0
ARC
8
DEFAULT_255_1_234
10
6.0176998
20
92.2818736
40
0.3603188
50
323.673004
51
348.1672506
0
ARC
8
DEFAULT_255_1_234
10
6.0471506
20
92.2639168
40
0.3259678
50
316.8171152
51
323.1492751
0
ARC
8
DEFAULT_255_1_234
10
6.0532695
20
92.260246
40
0.3189975
50
281.8396411
51
316.5457803
0
ARC
8
DEFAULT_255_1_234
10
6.0156958
20
92.4157762
40
0.4789527
50
269.5770101
51
282.4214771
0
ARC
8
DEFAULT_255_1_234
10
6.008577
20
92.3944125
40
0.45759
50
256.2427136
51
270.4486331
0
ARC
8
DEFAULT_255_1_234
10
5.9786672
20
92.2744229
40
0.3339303
50
228.9023911
51
256.3314342
0
ARC
8
DEFAULT_255_1_234
10
5.9712905
20
92.2627746
40
0.32031
50
193.753695
51
228.5271154
0
ARC
8
DEFAULT_255_1_234
10
6.0950859
20
92.29908
40
0.4492253
50
184.924711
51
194.497588
0
ARC
8
DEFAULT_255_1_234
10
6.1143426
20
92.3026591
40
0.3289787
50
187.3600538
51
198.6732863
0
ARC
8
DEFAULT_255_1_234
10
6.009372
20
92.2662674
40
0.217884
50
198.4451669
51
217.794479
0
ARC
8
DEFAULT_255_1_234
10
5.9797895
20
92.2453085
40
0.1816698
50
218.2887171
51
228.5612368
0
ARC
8
DEFAULT_255_1_234
10
5.9895682
20
92.2584963
40
0.1980329
50
228.9654866
51
258.1234728
0
ARC
8
DEFAULT_255_1_234
10
6.0101392
20
92.3465833
40
0.2884748
50
257.7258293
51
270.401361
0
ARC
8
DEFAULT_255_1_234
10
6.0146278
20
92.3020821
40
0.2439788
50
269.4204404
51
286.4209037
0
ARC
8
DEFAULT_255_1_234
10
6.0294766
20
92.2481657
40
0.1880666
50
286.7251356
51
320.600362
0
ARC
8
DEFAULT_255_1_234
10
5.9911591
20
92.2792595
40
0.2374121
50
320.6712579
51
344.5441685
0
ARC
8
DEFAULT_255_1_234
10
5.8754917
20
92.3132045
40
0.3579479
50
344.2412205
51
356.7357071
0
ARC
8
DEFAULT_255_1_234
10
5.7506065
20
92.3235444
40
0.4832297
50
356.3548756
51
0.0500261
0
ARC
8
DEFAULT_255_1_234
10
5.8842575
20
92.326665
40
0.3495889
50
359.5576869
51
12.953486
0
ARC
8
DEFAULT_255_1_234
10
5.9897472
20
92.3522434
40
0.2410532
50
12.6490276
51
41.6081334
0
ARC
8
DEFAULT_255_1_234
10
6.0127843
20
92.3718321
40
0.2108218
50
41.7850273
51
85.9892764
0
ARC
8
DEFAULT_255_1_234
10
6.000458
20
92.2905462
40
0.2928454
50
84.6957577
51
90.0676183
0
ARC
8
DEFAULT_255_1_234
10
5.9981064
20
92.2236716
40
0.3597255
50
89.6804936
51
99.1614436
0
ARC
8
DEFAULT_255_1_234
10
5.9775695
20
92.3464131
40
0.235281
50
98.9830931
51
113.8908934
0
ARC
8
DEFAULT_255_1_234
10
5.9546105
20
92.4005587
40
0.176479
50
114.1950727
51
127.3641004
0
LINE
8
DEFAULT_255_1_234
10
4.5630154
20
99.8904
11
4.2393364
21
99.8904
0
LINE
8
DEFAULT_255_1_234
10
4.2393364
20
99.8904
11
4.2393364
21
101.0598211
0
LINE
8
DEFAULT_255_1_234
10
4.2393364
20
101.0598211
11
4.5694408
21
101.0598211
0
LINE
8
DEFAULT_255_1_234
10
5.0850784
20
100.5144661
11
5.0850784
21
100.4397709
0
LINE
8
DEFAULT_255_1_234
10
4.5734567
20
100.9329196
11
4.3935458
21
100.9329196
0
LINE
8
DEFAULT_255_1_234
10
4.3935458
20
100.9329196
11
4.3935458
21
100.0164983
0
LINE
8
DEFAULT_255_1_234
10
4.3935458
20
100.0164983
11
4.5557869
21
100.0164983
0
LINE
8
DEFAULT_255_1_234
10
4.9324754
20
100.4429836
11
4.9324754
21
100.5112534
0
ARC
8
DEFAULT_255_1_234
10
4.5733351
20
100.4732894
40
0.5865446
50
75.4101064
51
90.3804066
0
ARC
8
DEFAULT_255_1_234
10
4.5962864
20
100.5689492
40
0.4881916
50
60.145586
51
75.1888407
0
ARC
8
DEFAULT_255_1_234
10
4.612164
20
100.5966199
40
0.4562893
50
26.5253612
51
60.1450928
0
ARC
8
DEFAULT_255_1_234
10
4.5001389
20
100.5372158
40
0.5830602
50
7.4030428
51
26.8320788
0
ARC
8
DEFAULT_255_1_234
10
4.3407146
20
100.5123804
40
0.7443669
50
0.1605367
51
7.7176192
0
ARC
8
DEFAULT_255_1_234
10
4.357105
20
100.4359434
40
0.7279835
50
348.7289388
51
0.3012466
0
ARC
8
DEFAULT_255_1_234
10
4.5227481
20
100.4030386
40
0.559104
50
333.0706509
51
348.7181832
0
ARC
8
DEFAULT_255_1_234
10
4.6194238
20
100.3505319
40
0.4491417
50
299.2531685
51
333.4571258
0
ARC
8
DEFAULT_255_1_234
10
4.5833378
20
100.4190828
40
0.5265881
50
278.107187
51
299.0339503
0
ARC
8
DEFAULT_255_1_234
10
4.5577457
20
100.5698216
40
0.679442
50
270.4443897
51
278.4511052
0
ARC
8
DEFAULT_255_1_234
10
4.5598287
20
100.4769213
40
0.4604407
50
269.4970433
51
284.0205042
0
ARC
8
DEFAULT_255_1_234
10
4.5953588
20
100.3403978
40
0.3193797
50
283.7700273
51
318.1555492
0
ARC
8
DEFAULT_255_1_234
10
4.5616346
20
100.3656367
40
0.3613588
50
318.7415601
51
343.6873628
0
ARC
8
DEFAULT_255_1_234
10
4.3812369
20
100.4219832
40
0.5503313
50
343.3325091
51
355.8548958
0
ARC
8
DEFAULT_255_1_234
10
4.1714054
20
100.4419319
40
0.7610708
50
355.4988528
51
0.0791727
0
ARC
8
DEFAULT_255_1_234
10
4.2496676
20
100.515478
40
0.6828208
50
359.6455037
51
9.8607896
0
ARC
8
DEFAULT_255_1_234
10
4.4857374
20
100.5581099
40
0.4429406
50
9.6571907
51
26.1932807
0
ARC
8
DEFAULT_255_1_234
10
4.5785363
20
100.6012118
40
0.3406537
50
26.5777228
51
40.1532208
0
ARC
8
DEFAULT_255_1_234
10
4.6041089
20
100.6211619
40
0.308246
50
40.3840491
51
80.1431104
0
ARC
8
DEFAULT_255_1_234
10
4.5714207
20
100.4762333
40
0.4566909
50
79.2152159
51
89.7445637
0
LINE
8
DEFAULT_255_1_234
10
5.4834526
20
101.0598211
11
5.4834526
21
99.8904
0
LINE
8
DEFAULT_255_1_234
10
5.4834526
20
99.8904
11
5.3292433
21
99.8904
0
LINE
8
DEFAULT_255_1_234
10
5.3292433
20
99.8904
11
5.3292433
21
101.0598211
0
LINE
8
DEFAULT_255_1_234
10
5.3292433
20
101.0598211
11
5.4834526
21
101.0598211
0
LINE
8
DEFAULT_255_1_234
10
6.3540931
20
101.0598211
11
6.3540931
21
100.283152
0
LINE
8
DEFAULT_255_1_234
10
6.3540931
20
100.283152
11
6.5163342
21
100.283152
0
LINE
8
DEFAULT_255_1_234
10
6.5163342
20
100.283152
11
6.5163342
21
100.1618728
0
LINE
8
DEFAULT_255_1_234
10
6.5163342
20
100.1618728
11
6.3540931
21
100.1618728
0
LINE
8
DEFAULT_255_1_234
10
6.3540931
20
100.1618728
11
6.3540931
21
99.8904
0
LINE
8
DEFAULT_255_1_234
10
6.3540931
20
99.8904
11
6.2047027
21
99.8904
0
LINE
8
DEFAULT_255_1_234
10
6.2047027
20
99.8904
11
6.2047027
21
100.1618728
0
LINE
8
DEFAULT_255_1_234
10
6.2047027
20
100.1618728
11
5.6721985
21
100.1618728
0
LINE
8
DEFAULT_255_1_234
10
5.6721985
20
100.1618728
11
5.6721985
21
100.2494187
0
LINE
8
DEFAULT_255_1_234
10
5.6721985
20
100.2494187
11
6.1958678
21
101.0598211
0
LINE
8
DEFAULT_255_1_234
10
6.1958678
20
101.0598211
11
6.3540931
21
101.0598211
0
LINE
8
DEFAULT_255_1_234
10
6.1870329
20
100.8244912
11
5.840865
21
100.283152
0
LINE
8
DEFAULT_255_1_234
10
5.840865
20
100.283152
11
6.2047027
21
100.283152
0
LINE
8
DEFAULT_255_1_234
10
6.2047027
20
100.283152
11
6.2047027
21
100.8566181
0
LINE
8
DEFAULT_255_1_234
10
6.2047027
20
100.8566181
11
6.1870329
21
100.8244912
0
LINE
8
DEFAULT_255_1_234
10
4.4572154
20
107.8279
11
4.1335364
21
107.8279
0
LINE
8
DEFAULT_255_1_234
10
4.1335364
20
107.8279
11
4.1335364
21
108.9973211
0
LINE
8
DEFAULT_255_1_234
10
4.1335364
20
108.9973211
11
4.4636408
21
108.9973211
0
LINE
8
DEFAULT_255_1_234
10
4.9792784
20
108.4519661
11
4.9792784
21
108.3772709
0
LINE
8
DEFAULT_255_1_234
10
4.4676567
20
108.8704196
11
4.2877458
21
108.8704196
0
LINE
8
DEFAULT_255_1_234
10
4.2877458
20
108.8704196
11
4.2877458
21
107.9539983
0
LINE
8
DEFAULT_255_1_234
10
4.2877458
20
107.9539983
11
4.4499869
21
107.9539983
0
LINE
8
DEFAULT_255_1_234
10
4.8266754
20
108.3804836
11
4.8266754
21
108.4487534
0
ARC
8
DEFAULT_255_1_234
10
4.4675351
20
108.4107894
40
0.5865446
50
75.4101064
51
90.3804066
0
ARC
8
DEFAULT_255_1_234
10
4.4904864
20
108.5064492
40
0.4881916
50
60.145586
51
75.1888407
0
ARC
8
DEFAULT_255_1_234
10
4.506364
20
108.5341199
40
0.4562893
50
26.5253612
51
60.1450928
0
ARC
8
DEFAULT_255_1_234
10
4.3943389
20
108.4747158
40
0.5830602
50
7.4030428
51
26.8320788
0
ARC
8
DEFAULT_255_1_234
10
4.2349146
20
108.4498804
40
0.7443669
50
0.1605367
51
7.7176192
0
ARC
8
DEFAULT_255_1_234
10
4.251305
20
108.3734434
40
0.7279835
50
348.7289388
51
0.3012466
0
ARC
8
DEFAULT_255_1_234
10
4.4169481
20
108.3405386
40
0.559104
50
333.0706509
51
348.7181832
0
ARC
8
DEFAULT_255_1_234
10
4.5136238
20
108.2880319
40
0.4491417
50
299.2531685
51
333.4571258
0
ARC
8
DEFAULT_255_1_234
10
4.4775378
20
108.3565828
40
0.5265881
50
278.107187
51
299.0339503
0
ARC
8
DEFAULT_255_1_234
10
4.4519457
20
108.5073216
40
0.679442
50
270.4443897
51
278.4511052
0
ARC
8
DEFAULT_255_1_234
10
4.4540287
20
108.4144213
40
0.4604407
50
269.4970433
51
284.0205042
0
ARC
8
DEFAULT_255_1_234
10
4.4895588
20
108.2778978
40
0.3193797
50
283.7700273
51
318.1555492
0
ARC
8
DEFAULT_255_1_234
10
4.4558346
20
108.3031367
40
0.3613588
50
318.7415601
51
343.6873628
0
ARC
8
DEFAULT_255_1_234
10
4.2754369
20
108.3594832
40
0.5503313
50
343.3325091
51
355.8548958
0
ARC
8
DEFAULT_255_1_234
10
4.0656054
20
108.3794319
40
0.7610708
50
355.4988528
51
0.0791727
0
ARC
8
DEFAULT_255_1_234
10
4.1438676
20
108.452978
40
0.6828208
50
359.6455037
51
9.8607896
0
ARC
8
DEFAULT_255_1_234
10
4.3799374
20
108.4956099
40
0.4429406
50
9.6571907
51
26.1932807
0
ARC
8
DEFAULT_255_1_234
10
4.4727363
20
108.5387118
40
0.3406537
50
26.5777228
51
40.1532208
0
ARC
8
DEFAULT_255_1_234
10
4.4983089
20
108.5586619
40
0.308246
50
40.3840491
51
80.1431104
0
ARC
8
DEFAULT_255_1_234
10
4.4656207
20
108.4137333
40
0.4566909
50
79.2152159
51
89.7445637
0
LINE
8
DEFAULT_255_1_234
10
5.3776526
20
108.9973211
11
5.3776526
21
107.8279
0
LINE
8
DEFAULT_255_1_234
10
5.3776526
20
107.8279
11
5.2234433
21
107.8279
0
LINE
8
DEFAULT_255_1_234
10
5.2234433
20
107.8279
11
5.2234433
21
108.9973211
0
LINE
8
DEFAULT_255_1_234
10
5.2234433
20
108.9973211
11
5.3776526
21
108.9973211
0
LINE
8
DEFAULT_255_1_234
10
5.8370681
20
108.3636169
11
5.8370681
21
108.4848962
0
LINE
8
DEFAULT_255_1_234
10
5.8370681
20
108.4848962
11
5.9487092
21
108.4848962
0
LINE
8
DEFAULT_255_1_234
10
5.758357
20
108.6905087
11
5.6097699
21
108.6905087
0
LINE
8
DEFAULT_255_1_234
10
5.5993286
20
108.1363188
11
5.7487189
21
108.1363188
0
LINE
8
DEFAULT_255_1_234
10
5.9487092
20
108.3636169
11
5.8370681
21
108.3636169
0
ARC
8
DEFAULT_255_1_234
10
5.9457959
20
108.8241713
40
0.3392876
50
270.4919872
51
281.8951556
0
ARC
8
DEFAULT_255_1_234
10
5.969922
20
108.7139702
40
0.2264817
50
281.6691735
51
301.2943132
0
ARC
8
DEFAULT_255_1_234
10
5.9869431
20
108.6828304
40
0.1910381
50
301.7833094
51
311.7545298
0
ARC
8
DEFAULT_255_1_234
10
5.9961006
20
108.6726748
40
0.1773635
50
311.7323931
51
354.2802411
0
ARC
8
DEFAULT_255_1_234
10
5.9234632
20
108.6851722
40
0.2509385
50
353.0937916
51
0.1181479
0
ARC
8
DEFAULT_255_1_234
10
5.8773416
20
108.6899386
40
0.2970898
50
359.1805295
51
15.0453146
0
ARC
8
DEFAULT_255_1_234
10
6.0119253
20
108.7291992
40
0.1569564
50
13.9577229
51
77.6713066
0
ARC
8
DEFAULT_255_1_234
10
5.9732783
20
108.5906949
40
0.3006298
50
76.1116566
51
90.7026153
0
ARC
8
DEFAULT_255_1_234
10
5.9673621
20
108.6180545
40
0.2732568
50
89.5324876
51
103.531937
0
ARC
8
DEFAULT_255_1_234
10
5.9473065
20
108.6979884
40
0.1908508
50
103.2931773
51
133.5619022
0
ARC
8
DEFAULT_255_1_234
10
5.9428553
20
108.7039375
40
0.1834746
50
133.8349307
51
173.5344437
0
ARC
8
DEFAULT_255_1_234
10
6.0151597
20
108.6911213
40
0.2568033
50
172.5096846
51
180.1366907
0
ARC
8
DEFAULT_255_1_234
10
5.920049
20
108.6945622
40
0.3103056
50
155.3484492
51
180.7484736
0
ARC
8
DEFAULT_255_1_234
10
5.9151579
20
108.6916846
40
0.3070957
50
131.5744599
51
154.4798489
0
ARC
8
DEFAULT_255_1_234
10
5.9464727
20
108.660031
40
0.3515643
50
96.9875458
51
131.9690667
0
ARC
8
DEFAULT_255_1_234
10
5.9684207
20
108.5354636
40
0.4779224
50
89.8596053
51
97.7825159
0
ARC
8
DEFAULT_255_1_234
10
5.973227
20
108.5092616
40
0.5041361
50
78.3655447
51
90.4131539
0
ARC
8
DEFAULT_255_1_234
10
6.0090188
20
108.6751887
40
0.3344039
50
56.6229102
51
78.638727
0
ARC
8
DEFAULT_255_1_234
10
6.0305131
20
108.7127805
40
0.2912001
50
47.0253525
51
56.0854072
0
ARC
8
DEFAULT_255_1_234
10
6.0324911
20
108.7167223
40
0.2869704
50
10.9208013
51
46.7778124
0
ARC
8
DEFAULT_255_1_234
10
5.8960978
20
108.6851857
40
0.426899
50
359.6364486
51
11.6087304
0
ARC
8
DEFAULT_255_1_234
10
6.0795822
20
108.6836752
40
0.243409
50
332.3549906
51
359.7179418
0
ARC
8
DEFAULT_255_1_234
10
6.0145423
20
108.7145142
40
0.3153459
50
325.2333722
51
332.8745602
0
ARC
8
DEFAULT_255_1_234
10
6.0298047
20
108.7038828
40
0.2967456
50
292.9802137
51
325.2392345
0
ARC
8
DEFAULT_255_1_234
10
6.0023421
20
108.7572863
40
0.3566604
50
292.5402179
51
293.6924929
0
ARC
8
DEFAULT_255_1_234
10
6.0416017
20
108.1118091
40
0.3307468
50
57.6435486
51
72.8625112
0
ARC
8
DEFAULT_255_1_234
10
6.0770517
20
108.1692549
40
0.2632492
50
36.7248896
51
57.4697979
0
ARC
8
DEFAULT_255_1_234
10
6.0759149
20
108.170522
40
0.2634081
50
8.0545065
51
36.356114
0
ARC
8
DEFAULT_255_1_234
10
5.9896335
20
108.1550174
40
0.3510261
50
359.8320645
51
8.5869982
0
ARC
8
DEFAULT_255_1_234
10
5.9521111
20
108.1502101
40
0.3885653
50
343.9829931
51
0.5571613
0
ARC
8
DEFAULT_255_1_234
10
6.0407308
20
108.1259438
40
0.2966924
50
311.6359546
51
343.7651759
0
ARC
8
DEFAULT_255_1_234
10
6.0028877
20
108.1686102
40
0.3537231
50
279.7829875
51
311.6255694
0
ARC
8
DEFAULT_255_1_234
10
5.9727653
20
108.312328
40
0.5004971
50
269.7286406
51
280.3856417
0
ARC
8
DEFAULT_255_1_234
10
5.9665726
20
108.3081996
40
0.4963778
50
256.6828919
51
270.4412052
0
ARC
8
DEFAULT_255_1_234
10
5.9327022
20
108.1697394
40
0.3538406
50
229.4223008
51
256.8556159
0
ARC
8
DEFAULT_255_1_234
10
5.8912415
20
108.1230736
40
0.2914296
50
181.818294
51
229.6455059
0
ARC
8
DEFAULT_255_1_234
10
5.9952371
20
108.1361496
40
0.3959084
50
179.9755256
51
183.2323064
0
ARC
8
DEFAULT_255_1_234
10
5.9780117
20
108.1341037
40
0.2293034
50
179.4465117
51
196.2869258
0
ARC
8
DEFAULT_255_1_234
10
5.9292525
20
108.1207651
40
0.1787621
50
196.5661473
51
227.705904
0
ARC
8
DEFAULT_255_1_234
10
5.9456619
20
108.1391155
40
0.2033784
50
227.7652068
51
257.8762805
0
ARC
8
DEFAULT_255_1_234
10
5.968159
20
108.2334156
40
0.3003081
50
257.4584385
51
270.426602
0
ARC
8
DEFAULT_255_1_234
10
5.9727156
20
108.2623996
40
0.329292
50
269.5962073
51
280.8789248
0
ARC
8
DEFAULT_255_1_234
10
5.9956685
20
108.1477685
40
0.2123908
50
280.6346389
51
299.8595945
0
ARC
8
DEFAULT_255_1_234
10
6.0147591
20
108.1115212
40
0.171457
50
300.3576302
51
314.5517981
0
ARC
8
DEFAULT_255_1_234
10
6.0064651
20
108.1175919
40
0.1816095
50
315.0728369
51
345.0431014
0
ARC
8
DEFAULT_255_1_234
10
5.9141466
20
108.1444841
40
0.2777492
50
344.5986631
51
357.9269593
0
ARC
8
DEFAULT_255_1_234
10
5.8245792
20
108.1506276
40
0.3674917
50
357.4748886
51
0.0231117
0
ARC
8
DEFAULT_255_1_234
10
5.9268901
20
108.1530679
40
0.2651907
50
359.5047933
51
13.4239635
0
ARC
8
DEFAULT_255_1_234
10
6.0135545
20
108.1752478
40
0.1757509
50
12.9498199
51
48.7551375
0
ARC
8
DEFAULT_255_1_234
10
5.9953279
20
108.15034
40
0.2065134
50
49.5088623
51
72.1836453
0
ARC
8
DEFAULT_255_1_234
10
5.9595431
20
108.0441291
40
0.3185836
50
71.9010081
51
84.3554254
0
ARC
8
DEFAULT_255_1_234
10
5.9434063
20
107.9080326
40
0.4556151
50
84.0193428
51
89.333121
0
LINE
8
DEFAULT_255_1_234
10
4.4572154
20
115.7654
11
4.1335364
21
115.7654
0
LINE
8
DEFAULT_255_1_234
10
4.1335364
20
115.7654
11
4.1335364
21
116.9348211
0
LINE
8
DEFAULT_255_1_234
10
4.1335364
20
116.9348211
11
4.4636408
21
116.9348211
0
LINE
8
DEFAULT_255_1_234
10
4.9792784
20
116.3894661
11
4.9792784
21
116.3147709
0
LINE
8
DEFAULT_255_1_234
10
4.4676567
20
116.8079196
11
4.2877458
21
116.8079196
0
LINE
8
DEFAULT_255_1_234
10
4.2877458
20
116.8079196
11
4.2877458
21
115.8914983
0
LINE
8
DEFAULT_255_1_234
10
4.2877458
20
115.8914983
11
4.4499869
21
115.8914983
0
LINE
8
DEFAULT_255_1_234
10
4.8266754
20
116.3179836
11
4.8266754
21
116.3862534
0
ARC
8
DEFAULT_255_1_234
10
4.4675351
20
116.3482894
40
0.5865446
50
75.4101064
51
90.3804066
0
ARC
8
DEFAULT_255_1_234
10
4.4904864
20
116.4439492
40
0.4881916
50
60.145586
51
75.1888407
0
ARC
8
DEFAULT_255_1_234
10
4.506364
20
116.4716199
40
0.4562893
50
26.5253612
51
60.1450928
0
ARC
8
DEFAULT_255_1_234
10
4.3943389
20
116.4122158
40
0.5830602
50
7.4030428
51
26.8320788
0
ARC
8
DEFAULT_255_1_234
10
4.2349146
20
116.3873804
40
0.7443669
50
0.1605367
51
7.7176192
0
ARC
8
DEFAULT_255_1_234
10
4.251305
20
116.3109434
40
0.7279835
50
348.7289388
51
0.3012466
0
ARC
8
DEFAULT_255_1_234
10
4.4169481
20
116.2780386
40
0.559104
50
333.0706509
51
348.7181832
0
ARC
8
DEFAULT_255_1_234
10
4.5136238
20
116.2255319
40
0.4491417
50
299.2531685
51
333.4571258
0
ARC
8
DEFAULT_255_1_234
10
4.4775378
20
116.2940828
40
0.5265881
50
278.107187
51
299.0339503
0
ARC
8
DEFAULT_255_1_234
10
4.4519457
20
116.4448216
40
0.679442
50
270.4443897
51
278.4511052
0
ARC
8
DEFAULT_255_1_234
10
4.4540287
20
116.3519213
40
0.4604407
50
269.4970433
51
284.0205042
0
ARC
8
DEFAULT_255_1_234
10
4.4895588
20
116.2153978
40
0.3193797
50
283.7700273
51
318.1555492
0
ARC
8
DEFAULT_255_1_234
10
4.4558346
20
116.2406367
40
0.3613588
50
318.7415601
51
343.6873628
0
ARC
8
DEFAULT_255_1_234
10
4.2754369
20
116.2969832
40
0.5503313
50
343.3325091
51
355.8548958
0
ARC
8
DEFAULT_255_1_234
10
4.0656054
20
116.3169319
40
0.7610708
50
355.4988528
51
0.0791727
0
ARC
8
DEFAULT_255_1_234
10
4.1438676
20
116.390478
40
0.6828208
50
359.6455037
51
9.8607896
0
ARC
8
DEFAULT_255_1_234
10
4.3799374
20
116.4331099
40
0.4429406
50
9.6571907
51
26.1932807
0
ARC
8
DEFAULT_255_1_234
10
4.4727363
20
116.4762118
40
0.3406537
50
26.5777228
51
40.1532208
0
ARC
8
DEFAULT_255_1_234
10
4.4983089
20
116.4961619
40
0.308246
50
40.3840491
51
80.1431104
0
ARC
8
DEFAULT_255_1_234
10
4.4656207
20
116.3512333
40
0.4566909
50
79.2152159
51
89.7445637
0
LINE
8
DEFAULT_255_1_234
10
5.3776526
20
116.9348211
11
5.3776526
21
115.7654
0
LINE
8
DEFAULT_255_1_234
10
5.3776526
20
115.7654
11
5.2234433
21
115.7654
0
LINE
8
DEFAULT_255_1_234
10
5.2234433
20
115.7654
11
5.2234433
21
116.9348211
0
LINE
8
DEFAULT_255_1_234
10
5.2234433
20
116.9348211
11
5.3776526
21
116.9348211
0
LINE
8
DEFAULT_255_1_234
10
6.3872421
20
115.8866792
11
6.3872421
21
115.7654
0
LINE
8
DEFAULT_255_1_234
10
6.3872421
20
115.7654
11
5.6210143
21
115.7654
0
LINE
8
DEFAULT_255_1_234
10
5.6210143
20
115.7654
11
5.6210143
21
115.8722221
0
LINE
8
DEFAULT_255_1_234
10
5.6210143
20
115.8722221
11
6.0258139
21
116.3219995
0
LINE
8
DEFAULT_255_1_234
10
5.7471126
20
116.5902595
11
5.5985254
21
116.5902595
0
LINE
8
DEFAULT_255_1_234
10
6.1133599
20
116.2264218
11
5.8001221
21
115.8866792
0
LINE
8
DEFAULT_255_1_234
10
5.8001221
20
115.8866792
11
6.3872421
21
115.8866792
0
ARC
8
DEFAULT_255_1_234
10
4.6767972
20
117.5149527
40
1.8008286
50
318.5132453
51
320.7828378
0
ARC
8
DEFAULT_255_1_234
10
5.2054947
20
117.0846426
40
1.1191493
50
320.7372736
51
323.9737074
0
ARC
8
DEFAULT_255_1_234
10
5.5974803
20
116.8006361
40
0.6350923
50
323.8961724
51
328.6421089
0
ARC
8
DEFAULT_255_1_234
10
5.8021399
20
116.6744031
40
0.3946393
50
328.8299013
51
331.789948
0
ARC
8
DEFAULT_255_1_234
10
5.9018577
20
116.6229509
40
0.2824501
50
331.4255242
51
352.9364833
0
ARC
8
DEFAULT_255_1_234
10
5.9155078
20
116.6198976
40
0.2685315
50
353.2248685
51
0.0169286
0
ARC
8
DEFAULT_255_1_234
10
5.9364955
20
116.622195
40
0.2475536
50
359.4866256
51
15.9339782
0
ARC
8
DEFAULT_255_1_234
10
5.987194
20
116.6358286
40
0.1950618
50
16.1714718
51
43.5284424
0
ARC
8
DEFAULT_255_1_234
10
5.9949248
20
116.6435573
40
0.184134
50
43.4415429
51
83.1661404
0
ARC
8
DEFAULT_255_1_234
10
5.9815167
20
116.5698771
40
0.258926
50
82.160215
51
90.1505798
0
ARC
8
DEFAULT_255_1_234
10
5.9783594
20
116.5161865
40
0.3126255
50
89.5460705
51
102.5418777
0
ARC
8
DEFAULT_255_1_234
10
5.954068
20
116.6192665
40
0.2067346
50
102.1739365
51
129.2061916
0
ARC
8
DEFAULT_255_1_234
10
5.9461752
20
116.6317094
40
0.1921118
50
129.7279328
51
135.7542026
0
ARC
8
DEFAULT_255_1_234
10
5.9583279
20
116.6220045
40
0.2075944
50
136.175737
51
166.3674722
0
ARC
8
DEFAULT_255_1_234
10
6.0590199
20
116.5950182
40
0.3118201
50
165.9092917
51
178.8683903
0
ARC
8
DEFAULT_255_1_234
10
6.145506
20
116.5903179
40
0.3983935
50
178.438168
51
180.0083905
0
ARC
8
DEFAULT_255_1_234
10
6.0053662
20
116.5942231
40
0.4068601
50
163.2878735
51
180.5581814
0
ARC
8
DEFAULT_255_1_234
10
5.9251923
20
116.616284
40
0.3237344
50
133.454115
51
162.9470031
0
ARC
8
DEFAULT_255_1_234
10
5.9430465
20
116.5973
40
0.349795
50
100.7869394
51
133.4384016
0
ARC
8
DEFAULT_255_1_234
10
5.9778236
20
116.4424319
40
0.5084616
50
89.6605301
51
101.3704185
0
ARC
8
DEFAULT_255_1_234
10
5.9844575
20
116.4485496
40
0.502348
50
78.2171172
51
90.4130393
0
ARC
8
DEFAULT_255_1_234
10
6.0199653
20
116.6109637
40
0.3361092
50
55.9268222
51
78.4888551
0
ARC
8
DEFAULT_255_1_234
10
6.0396094
20
116.6448324
40
0.2970617
50
47.9292255
51
55.4054003
0
ARC
8
DEFAULT_255_1_234
10
6.0497654
20
116.6551502
40
0.2825983
50
4.3347696
51
48.0560701
0
ARC
8
DEFAULT_255_1_234
10
5.9402048
20
116.6381601
40
0.393225
50
359.925209
51
5.5967654
0
ARC
8
DEFAULT_255_1_234
10
5.983094
20
116.6437816
40
0.3503892
50
337.8914096
51
358.9967724
0
ARC
8
DEFAULT_255_1_234
10
5.7117352
20
116.7484706
40
0.6412172
50
326.9135351
51
338.3505194
0
ARC
8
DEFAULT_255_1_234
10
5.3131656
20
117.0039284
40
1.1146189
50
319.6472867
51
327.095818
0
ARC
8
DEFAULT_255_1_234
10
4.9298659
20
117.3201
40
1.6114559
50
317.2586784
51
319.9046139
0
LINE
8
DEFAULT_255_1_234
10
4.4480154
20
123.7029
11
4.1243364
21
123.7029
0
LINE
8
DEFAULT_255_1_234
10
4.1243364
20
123.7029
11
4.1243364
21
124.8723211
0
LINE
8
DEFAULT_255_1_234
10
4.1243364
20
124.8723211
11
4.4544408
21
124.8723211
0
LINE
8
DEFAULT_255_1_234
10
4.9700784
20
124.3269661
11
4.9700784
21
124.2522709
0
LINE
8
DEFAULT_255_1_234
10
4.4584567
20
124.7454196
11
4.2785458
21
124.7454196
0
LINE
8
DEFAULT_255_1_234
10
4.2785458
20
124.7454196
11
4.2785458
21
123.8289983
0
LINE
8
DEFAULT_255_1_234
10
4.2785458
20
123.8289983
11
4.4407869
21
123.8289983
0
LINE
8
DEFAULT_255_1_234
10
4.8174754
20
124.2554836
11
4.8174754
21
124.3237534
0
ARC
8
DEFAULT_255_1_234
10
4.4583351
20
124.2857894
40
0.5865446
50
75.4101064
51
90.3804066
0
ARC
8
DEFAULT_255_1_234
10
4.4812864
20
124.3814492
40
0.4881916
50
60.145586
51
75.1888407
0
ARC
8
DEFAULT_255_1_234
10
4.497164
20
124.4091199
40
0.4562893
50
26.5253612
51
60.1450928
0
ARC
8
DEFAULT_255_1_234
10
4.3851389
20
124.3497158
40
0.5830602
50
7.4030428
51
26.8320788
0
ARC
8
DEFAULT_255_1_234
10
4.2257146
20
124.3248804
40
0.7443669
50
0.1605367
51
7.7176192
0
ARC
8
DEFAULT_255_1_234
10
4.242105
20
124.2484434
40
0.7279835
50
348.7289388
51
0.3012466
0
ARC
8
DEFAULT_255_1_234
10
4.4077481
20
124.2155386
40
0.559104
50
333.0706509
51
348.7181832
0
ARC
8
DEFAULT_255_1_234
10
4.5044238
20
124.1630319
40
0.4491417
50
299.2531685
51
333.4571258
0
ARC
8
DEFAULT_255_1_234
10
4.4683378
20
124.2315828
40
0.5265881
50
278.107187
51
299.0339503
0
ARC
8
DEFAULT_255_1_234
10
4.4427457
20
124.3823216
40
0.679442
50
270.4443897
51
278.4511052
0
ARC
8
DEFAULT_255_1_234
10
4.4448287
20
124.2894213
40
0.4604407
50
269.4970433
51
284.0205042
0
ARC
8
DEFAULT_255_1_234
10
4.4803588
20
124.1528978
40
0.3193797
50
283.7700273
51
318.1555492
0
ARC
8
DEFAULT_255_1_234
10
4.4466346
20
124.1781367
40
0.3613588
50
318.7415601
51
343.6873628
0
ARC
8
DEFAULT_255_1_234
10
4.2662369
20
124.2344832
40
0.5503313
50
343.3325091
51
355.8548958
0
ARC
8
DEFAULT_255_1_234
10
4.0564054
20
124.2544319
40
0.7610708
50
355.4988528
51
0.0791727
0
ARC
8
DEFAULT_255_1_234
10
4.1346676
20
124.327978
40
0.6828208
50
359.6455037
51
9.8607896
0
ARC
8
DEFAULT_255_1_234
10
4.3707374
20
124.3706099
40
0.4429406
50
9.6571907
51
26.1932807
0
ARC
8
DEFAULT_255_1_234
10
4.4635363
20
124.4137118
40
0.3406537
50
26.5777228
51
40.1532208
0
ARC
8
DEFAULT_255_1_234
10
4.4891089
20
124.4336619
40
0.308246
50
40.3840491
51
80.1431104
0
ARC
8
DEFAULT_255_1_234
10
4.4564207
20
124.2887333
40
0.4566909
50
79.2152159
51
89.7445637
0
LINE
8
DEFAULT_255_1_234
10
5.3684526
20
124.8723211
11
5.3684526
21
123.7029
0
LINE
8
DEFAULT_255_1_234
10
5.3684526
20
123.7029
11
5.2142433
21
123.7029
0
LINE
8
DEFAULT_255_1_234
10
5.2142433
20
123.7029
11
5.2142433
21
124.8723211
0
LINE
8
DEFAULT_255_1_234
10
5.2142433
20
124.8723211
11
5.3684526
21
124.8723211
0
LINE
8
DEFAULT_255_1_234
10
6.100144
20
124.8779433
11
6.100144
21
123.7029
0
LINE
8
DEFAULT_255_1_234
10
6.100144
20
123.7029
11
5.9507537
21
123.7029
0
LINE
8
DEFAULT_255_1_234
10
5.9507537
20
123.7029
11
5.9507537
21
124.6932133
0
LINE
8
DEFAULT_255_1_234
10
5.9507537
20
124.6932133
11
5.6511698
21
124.5831785
0
LINE
8
DEFAULT_255_1_234
10
5.6511698
20
124.5831785
11
5.6511698
21
124.7181117
0
LINE
8
DEFAULT_255_1_234
10
5.6511698
20
124.7181117
11
6.076852
21
124.8779433
0
LINE
8
DEFAULT_255_1_234
10
6.076852
20
124.8779433
11
6.100144
21
124.8779433
0
LINE
8
DEFAULT_255_1_234
10
4.4572154
20
131.6404
11
4.1335364
21
131.6404
0
LINE
8
DEFAULT_255_1_234
10
4.1335364
20
131.6404
11
4.1335364
21
132.8098211
0
LINE
8
DEFAULT_255_1_234
10
4.1335364
20
132.8098211
11
4.4636408
21
132.8098211
0
LINE
8
DEFAULT_255_1_234
10
4.9792784
20
132.2644661
11
4.9792784
21
132.1897709
0
LINE
8
DEFAULT_255_1_234
10
4.4676567
20
132.6829196
11
4.2877458
21
132.6829196
0
LINE
8
DEFAULT_255_1_234
10
4.2877458
20
132.6829196
11
4.2877458
21
131.7664983
0
LINE
8
DEFAULT_255_1_234
10
4.2877458
20
131.7664983
11
4.4499869
21
131.7664983
0
LINE
8
DEFAULT_255_1_234
10
4.8266754
20
132.1929836
11
4.8266754
21
132.2612534
0
ARC
8
DEFAULT_255_1_234
10
4.4675351
20
132.2232894
40
0.5865446
50
75.4101064
51
90.3804066
0
ARC
8
DEFAULT_255_1_234
10
4.4904864
20
132.3189492
40
0.4881916
50
60.145586
51
75.1888407
0
ARC
8
DEFAULT_255_1_234
10
4.506364
20
132.3466199
40
0.4562893
50
26.5253612
51
60.1450928
0
ARC
8
DEFAULT_255_1_234
10
4.3943389
20
132.2872158
40
0.5830602
50
7.4030428
51
26.8320788
0
ARC
8
DEFAULT_255_1_234
10
4.2349146
20
132.2623804
40
0.7443669
50
0.1605367
51
7.7176192
0
ARC
8
DEFAULT_255_1_234
10
4.251305
20
132.1859434
40
0.7279835
50
348.7289388
51
0.3012466
0
ARC
8
DEFAULT_255_1_234
10
4.4169481
20
132.1530386
40
0.559104
50
333.0706509
51
348.7181832
0
ARC
8
DEFAULT_255_1_234
10
4.5136238
20
132.1005319
40
0.4491417
50
299.2531685
51
333.4571258
0
ARC
8
DEFAULT_255_1_234
10
4.4775378
20
132.1690828
40
0.5265881
50
278.107187
51
299.0339503
0
ARC
8
DEFAULT_255_1_234
10
4.4519457
20
132.3198216
40
0.679442
50
270.4443897
51
278.4511052
0
ARC
8
DEFAULT_255_1_234
10
4.4540287
20
132.2269213
40
0.4604407
50
269.4970433
51
284.0205042
0
ARC
8
DEFAULT_255_1_234
10
4.4895588
20
132.0903978
40
0.3193797
50
283.7700273
51
318.1555492
0
ARC
8
DEFAULT_255_1_234
10
4.4558346
20
132.1156367
40
0.3613588
50
318.7415601
51
343.6873628
0
ARC
8
DEFAULT_255_1_234
10
4.2754369
20
132.1719832
40
0.5503313
50
343.3325091
51
355.8548958
0
ARC
8
DEFAULT_255_1_234
10
4.0656054
20
132.1919319
40
0.7610708
50
355.4988528
51
0.0791727
0
ARC
8
DEFAULT_255_1_234
10
4.1438676
20
132.265478
40
0.6828208
50
359.6455037
51
9.8607896
0
ARC
8
DEFAULT_255_1_234
10
4.3799374
20
132.3081099
40
0.4429406
50
9.6571907
51
26.1932807
0
ARC
8
DEFAULT_255_1_234
10
4.4727363
20
132.3512118
40
0.3406537
50
26.5777228
51
40.1532208
0
ARC
8
DEFAULT_255_1_234
10
4.4983089
20
132.3711619
40
0.308246
50
40.3840491
51
80.1431104
0
ARC
8
DEFAULT_255_1_234
10
4.4656207
20
132.2262333
40
0.4566909
50
79.2152159
51
89.7445637
0
LINE
8
DEFAULT_255_1_234
10
5.3776526
20
132.8098211
11
5.3776526
21
131.6404
0
LINE
8
DEFAULT_255_1_234
10
5.3776526
20
131.6404
11
5.2234433
21
131.6404
0
LINE
8
DEFAULT_255_1_234
10
5.2234433
20
131.6404
11
5.2234433
21
132.8098211
0
LINE
8
DEFAULT_255_1_234
10
5.2234433
20
132.8098211
11
5.3776526
21
132.8098211
0
LINE
8
DEFAULT_255_1_234
10
6.354312
20
132.3319327
11
6.354312
21
132.1391709
0
LINE
8
DEFAULT_255_1_234
10
5.6161953
20
132.1190916
11
5.6161953
21
132.3174755
0
LINE
8
DEFAULT_255_1_234
10
6.2057249
20
132.0990123
11
6.2057249
21
132.3423739
0
LINE
8
DEFAULT_255_1_234
10
5.7647824
20
132.3536184
11
5.7647824
21
132.1158789
0
ARC
8
DEFAULT_255_1_234
10
5.129601
20
132.1342805
40
1.2247208
50
353.8441951
51
0.2287902
0
ARC
8
DEFAULT_255_1_234
10
5.5935513
20
132.0824806
40
0.7578929
50
344.4934747
51
353.9765454
0
ARC
8
DEFAULT_255_1_234
10
5.8928104
20
131.9973981
40
0.4467846
50
329.2803592
51
344.7472793
0
ARC
8
DEFAULT_255_1_234
10
5.9920928
20
131.9429018
40
0.3336173
50
324.9352394
51
328.6160465
0
ARC
8
DEFAULT_255_1_234
10
6.0298037
20
131.9165427
40
0.2876076
50
280.580143
51
324.9173126
0
ARC
8
DEFAULT_255_1_234
10
5.989683
20
132.0836099
40
0.4592847
50
269.5977311
51
281.6734359
0
ARC
8
DEFAULT_255_1_234
10
5.9824735
20
132.0716173
40
0.4472986
50
256.6228859
51
270.51044
0
ARC
8
DEFAULT_255_1_234
10
5.9422713
20
131.9167877
40
0.2873874
50
215.8618325
51
257.2788573
0
ARC
8
DEFAULT_255_1_234
10
6.0443745
20
131.9852977
40
0.4102928
50
197.9693508
51
215.2623606
0
ARC
8
DEFAULT_255_1_234
10
6.292886
20
132.0691709
40
0.6725652
50
187.8816417
51
198.2346507
0
ARC
8
DEFAULT_255_1_234
10
6.6887069
20
132.1263079
40
1.0724845
50
180.8976217
51
188.0055519
0
ARC
8
DEFAULT_255_1_234
10
6.9687257
20
132.1366777
40
1.3526448
50
180.7449369
51
181.1510016
0
ARC
8
DEFAULT_255_1_234
10
6.8109986
20
132.3223042
40
1.1948131
50
173.7675579
51
180.231553
0
ARC
8
DEFAULT_255_1_234
10
6.3592132
20
132.3733666
40
0.7401564
50
164.3058563
51
173.9002247
0
ARC
8
DEFAULT_255_1_234
10
6.0680201
20
132.4572656
40
0.4371288
50
148.7922025
51
164.568378
0
ARC
8
DEFAULT_255_1_234
10
5.9728653
20
132.5103929
40
0.3282386
50
144.5883898
51
148.1176286
0
ARC
8
DEFAULT_255_1_234
10
5.9385551
20
132.5343315
40
0.2864044
50
101.6440918
51
144.514236
0
ARC
8
DEFAULT_255_1_234
10
5.9810618
20
132.3654069
40
0.4604934
50
89.5284041
51
102.5819763
0
ARC
8
DEFAULT_255_1_234
10
5.9889706
20
132.3615018
40
0.464401
50
77.0437873
51
90.5081339
0
ARC
8
DEFAULT_255_1_234
10
6.0291708
20
132.5257615
40
0.2953195
50
48.2778575
51
77.4994676
0
ARC
8
DEFAULT_255_1_234
10
6.0364339
20
132.5386746
40
0.2808655
50
36.3142134
51
47.6305865
0
ARC
8
DEFAULT_255_1_234
10
5.9495646
20
132.4801515
40
0.3855453
50
18.2931786
51
35.6769206
0
ARC
8
DEFAULT_255_1_234
10
5.6952405
20
132.3928593
40
0.654423
50
8.024666
51
18.5605216
0
ARC
8
DEFAULT_255_1_234
10
5.2789325
20
132.3313792
40
1.0752407
50
1.1274072
51
8.1718305
0
ARC
8
DEFAULT_255_1_234
10
4.9553515
20
132.3186885
40
1.3990231
50
0.5424119
51
1.3863029
0
ARC
8
DEFAULT_255_1_234
10
5.1374893
20
132.3459342
40
1.0682415
50
359.8090433
51
4.9407866
0
ARC
8
DEFAULT_255_1_234
10
5.5584907
20
132.3835113
40
0.6455691
50
4.8362157
51
12.2904523
0
ARC
8
DEFAULT_255_1_234
10
5.8340022
20
132.4448965
40
0.3633074
50
12.0805627
51
23.8173984
0
ARC
8
DEFAULT_255_1_234
10
5.9513727
20
132.4945919
40
0.2358723
50
24.2871213
51
31.3935614
0
ARC
8
DEFAULT_255_1_234
10
6.0038424
20
132.5289233
40
0.1732111
50
30.7407893
51
82.4657128
0
ARC
8
DEFAULT_255_1_234
10
5.9858559
20
132.4405691
40
0.263235
50
81.1060089
51
90.2184952
0
ARC
8
DEFAULT_255_1_234
10
5.9822858
20
132.4663924
40
0.2374236
50
89.3806855
51
105.6762551
0
ARC
8
DEFAULT_255_1_234
10
5.9639488
20
132.5330567
40
0.1682847
50
105.7981136
51
149.7388061
0
ARC
8
DEFAULT_255_1_234
10
6.0703567
20
132.469095
40
0.2924306
50
149.4208916
51
163.6286378
0
ARC
8
DEFAULT_255_1_234
10
6.2794455
20
132.405325
40
0.5110213
50
163.3763315
51
172.1410975
0
ARC
8
DEFAULT_255_1_234
10
6.6095174
20
132.3580518
40
0.8444586
50
172.0259487
51
178.0703232
0
ARC
8
DEFAULT_255_1_234
10
6.9125263
20
132.3436906
40
1.1477868
50
177.8631668
51
179.5044149
0
ARC
8
DEFAULT_255_1_234
10
6.8052668
20
132.1122389
40
1.0404907
50
179.7995573
51
185.2460446
0
ARC
8
DEFAULT_255_1_234
10
6.4009707
20
132.0739513
40
0.6343885
50
185.1411642
51
193.0079639
0
ARC
8
DEFAULT_255_1_234
10
6.1366179
20
132.0114641
40
0.3627568
50
192.7897626
51
205.2507664
0
ARC
8
DEFAULT_255_1_234
10
6.0319726
20
131.9647415
40
0.2481908
50
205.8005384
51
211.2537509
0
ARC
8
DEFAULT_255_1_234
10
5.9796167
20
131.929658
40
0.1852521
50
210.3789793
51
238.4008143
0
ARC
8
DEFAULT_255_1_234
10
5.9776689
20
131.9343376
40
0.1882621
50
239.6520629
51
265.9793761
0
ARC
8
DEFAULT_255_1_234
10
5.9861889
20
132.0015427
40
0.2559272
50
265.1315437
51
270.060332
0
ARC
8
DEFAULT_255_1_234
10
5.9890668
20
131.9691534
40
0.2235528
50
269.3314664
51
287.2178029
0
ARC
8
DEFAULT_255_1_234
10
6.002852
20
131.9188279
40
0.1714108
50
287.7958004
51
329.080874
0
ARC
8
DEFAULT_255_1_234
10
5.9070977
20
131.978593
40
0.2842745
50
328.6634704
51
343.3325132
0
ARC
8
DEFAULT_255_1_234
10
5.6897997
20
132.0462863
40
0.5118644
50
343.0499468
51
351.9393422
0
ARC
8
DEFAULT_255_1_234
10
5.3431297
20
132.0973949
40
0.8622784
50
351.8069023
51
357.7959224
0
ARC
8
DEFAULT_255_1_234
10
5.0195853
20
132.1141721
40
1.1862365
50
357.5871873
51
359.2677531
0
LINE
8
DEFAULT_255_1_234
10
23.1643817
20
140.2694327
11
23.1643817
21
140.0766709
0
LINE
8
DEFAULT_255_1_234
10
22.426265
20
140.0565916
11
22.426265
21
140.2549755
0
LINE
8
DEFAULT_255_1_234
10
23.0157946
20
140.0365123
11
23.0157946
21
140.2798739
0
LINE
8
DEFAULT_255_1_234
10
22.5748521
20
140.2911184
11
22.5748521
21
140.0533789
0
ARC
8
DEFAULT_255_1_234
10
21.9396707
20
140.0717805
40
1.2247208
50
353.8441951
51
0.2287902
0
ARC
8
DEFAULT_255_1_234
10
22.4036211
20
140.0199806
40
0.7578929
50
344.4934747
51
353.9765454
0
ARC
8
DEFAULT_255_1_234
10
22.7028801
20
139.9348981
40
0.4467846
50
329.2803592
51
344.7472793
0
ARC
8
DEFAULT_255_1_234
10
22.8021626
20
139.8804018
40
0.3336173
50
324.9352394
51
328.6160465
0
ARC
8
DEFAULT_255_1_234
10
22.8398734
20
139.8540427
40
0.2876076
50
280.580143
51
324.9173126
0
ARC
8
DEFAULT_255_1_234
10
22.7997527
20
140.0211099
40
0.4592847
50
269.5977311
51
281.6734359
0
ARC
8
DEFAULT_255_1_234
10
22.7925433
20
140.0091173
40
0.4472986
50
256.6228859
51
270.51044
0
ARC
8
DEFAULT_255_1_234
10
22.752341
20
139.8542877
40
0.2873874
50
215.8618325
51
257.2788573
0
ARC
8
DEFAULT_255_1_234
10
22.8544442
20
139.9227977
40
0.4102928
50
197.9693508
51
215.2623606
0
ARC
8
DEFAULT_255_1_234
10
23.1029558
20
140.0066709
40
0.6725652
50
187.8816417
51
198.2346507
0
ARC
8
DEFAULT_255_1_234
10
23.4987766
20
140.0638079
40
1.0724845
50
180.8976217
51
188.0055519
0
ARC
8
DEFAULT_255_1_234
10
23.7787954
20
140.0741777
40
1.3526448
50
180.7449369
51
181.1510016
0
ARC
8
DEFAULT_255_1_234
10
23.6210683
20
140.2598042
40
1.1948131
50
173.7675579
51
180.231553
0
ARC
8
DEFAULT_255_1_234
10
23.169283
20
140.3108666
40
0.7401564
50
164.3058563
51
173.9002247
0
ARC
8
DEFAULT_255_1_234
10
22.8780899
20
140.3947656
40
0.4371288
50
148.7922025
51
164.568378
0
ARC
8
DEFAULT_255_1_234
10
22.7829351
20
140.4478929
40
0.3282386
50
144.5883898
51
148.1176286
0
ARC
8
DEFAULT_255_1_234
10
22.7486249
20
140.4718315
40
0.2864044
50
101.6440918
51
144.514236
0
ARC
8
DEFAULT_255_1_234
10
22.7911315
20
140.3029069
40
0.4604934
50
89.5284041
51
102.5819763
0
ARC
8
DEFAULT_255_1_234
10
22.7990403
20
140.2990018
40
0.464401
50
77.0437873
51
90.5081339
0
ARC
8
DEFAULT_255_1_234
10
22.8392405
20
140.4632615
40
0.2953195
50
48.2778575
51
77.4994676
0
ARC
8
DEFAULT_255_1_234
10
22.8465036
20
140.4761746
40
0.2808655
50
36.3142134
51
47.6305865
0
ARC
8
DEFAULT_255_1_234
10
22.7596343
20
140.4176515
40
0.3855453
50
18.2931786
51
35.6769206
0
ARC
8
DEFAULT_255_1_234
10
22.5053102
20
140.3303593
40
0.654423
50
8.024666
51
18.5605216
0
ARC
8
DEFAULT_255_1_234
10
22.0890022
20
140.2688792
40
1.0752407
50
1.1274072
51
8.1718305
0
ARC
8
DEFAULT_255_1_234
10
21.7654213
20
140.2561885
40
1.3990231
50
0.5424119
51
1.3863029
0
ARC
8
DEFAULT_255_1_234
10
21.947559
20
140.2834342
40
1.0682415
50
359.8090433
51
4.9407866
0
ARC
8
DEFAULT_255_1_234
10
22.3685604
20
140.3210113
40
0.6455691
50
4.8362157
51
12.2904523
0
ARC
8
DEFAULT_255_1_234
10
22.6440719
20
140.3823965
40
0.3633074
50
12.0805627
51
23.8173984
0
ARC
8
DEFAULT_255_1_234
10
22.7614425
20
140.4320919
40
0.2358723
50
24.2871213
51
31.3935614
0
ARC
8
DEFAULT_255_1_234
10
22.8139122
20
140.4664233
40
0.1732111
50
30.7407893
51
82.4657128
0
ARC
8
DEFAULT_255_1_234
10
22.7959256
20
140.3780691
40
0.263235
50
81.1060089
51
90.2184952
0
ARC
8
DEFAULT_255_1_234
10
22.7923555
20
140.4038924
40
0.2374236
50
89.3806855
51
105.6762551
0
ARC
8
DEFAULT_255_1_234
10
22.7740186
20
140.4705567
40
0.1682847
50
105.7981136
51
149.7388061
0
ARC
8
DEFAULT_255_1_234
10
22.8804264
20
140.406595
40
0.2924306
50
149.4208916
51
163.6286378
0
ARC
8
DEFAULT_255_1_234
10
23.0895152
20
140.342825
40
0.5110213
50
163.3763315
51
172.1410975
0
ARC
8
DEFAULT_255_1_234
10
23.4195871
20
140.2955518
40
0.8444586
50
172.0259487
51
178.0703232
0
ARC
8
DEFAULT_255_1_234
10
23.722596
20
140.2811906
40
1.1477868
50
177.8631668
51
179.5044149
0
ARC
8
DEFAULT_255_1_234
10
23.6153365
20
140.0497389
40
1.0404907
50
179.7995573
51
185.2460446
0
ARC
8
DEFAULT_255_1_234
10
23.2110404
20
140.0114513
40
0.6343885
50
185.1411642
51
193.0079639
0
ARC
8
DEFAULT_255_1_234
10
22.9466877
20
139.9489641
40
0.3627568
50
192.7897626
51
205.2507664
0
ARC
8
DEFAULT_255_1_234
10
22.8420424
20
139.9022415
40
0.2481908
50
205.8005384
51
211.2537509
0
ARC
8
DEFAULT_255_1_234
10
22.7896864
20
139.867158
40
0.1852521
50
210.3789793
51
238.4008143
0
ARC
8
DEFAULT_255_1_234
10
22.7877386
20
139.8718376
40
0.1882621
50
239.6520629
51
265.9793761
0
ARC
8
DEFAULT_255_1_234
10
22.7962586
20
139.9390427
40
0.2559272
50
265.1315437
51
270.060332
0
ARC
8
DEFAULT_255_1_234
10
22.7991365
20
139.9066534
40
0.2235528
50
269.3314664
51
287.2178029
0
ARC
8
DEFAULT_255_1_234
10
22.8129217
20
139.8563279
40
0.1714108
50
287.7958004
51
329.080874
0
ARC
8
DEFAULT_255_1_234
10
22.7171674
20
139.916093
40
0.2842745
50
328.6634704
51
343.3325132
0
ARC
8
DEFAULT_255_1_234
10
22.4998694
20
139.9837863
40
0.5118644
50
343.0499468
51
351.9393422
0
ARC
8
DEFAULT_255_1_234
10
22.1531994
20
140.0348949
40
0.8622784
50
351.8069023
51
357.7959224
0
ARC
8
DEFAULT_255_1_234
10
21.829655
20
140.0516721
40
1.1862365
50
357.5871873
51
359.2677531
0
LINE
8
DEFAULT_255_1_234
10
23.4479021
20
140.7473211
11
23.7804161
21
139.7827093
0
LINE
8
DEFAULT_255_1_234
10
23.7804161
20
139.7827093
11
24.1145364
21
140.7473211
0
LINE
8
DEFAULT_255_1_234
10
24.1145364
20
140.7473211
11
24.2832029
21
140.7473211
0
LINE
8
DEFAULT_255_1_234
10
24.2832029
20
140.7473211
11
23.849489
21
139.5779
0
LINE
8
DEFAULT_255_1_234
10
23.849489
20
139.5779
11
23.7129495
21
139.5779
0
LINE
8
DEFAULT_255_1_234
10
23.7129495
20
139.5779
11
23.2800388
21
140.7473211
0
LINE
8
DEFAULT_255_1_234
10
23.2800388
20
140.7473211
11
23.4479021
21
140.7473211
0
LINE
8
DEFAULT_255_1_234
10
21.9467293
20
60.2029
11
21.8350881
21
60.5081061
0
LINE
8
DEFAULT_255_1_234
10
21.8350881
20
60.5081061
11
21.3451521
21
60.5081061
0
LINE
8
DEFAULT_255_1_234
10
21.3451521
20
60.5081061
11
21.2351173
21
60.2029
0
LINE
8
DEFAULT_255_1_234
10
21.2351173
20
60.2029
11
21.0760889
21
60.2029
0
LINE
8
DEFAULT_255_1_234
10
21.0760889
20
60.2029
11
21.5226535
21
61.3723211
0
LINE
8
DEFAULT_255_1_234
10
21.5226535
20
61.3723211
11
21.6575867
21
61.3723211
0
LINE
8
DEFAULT_255_1_234
10
21.6575867
20
61.3723211
11
22.1049545
21
60.2029
0
LINE
8
DEFAULT_255_1_234
10
22.1049545
20
60.2029
11
21.9467293
21
60.2029
0
LINE
8
DEFAULT_255_1_234
10
21.5901201
20
61.1819689
11
21.3917362
21
60.6350075
0
LINE
8
DEFAULT_255_1_234
10
21.3917362
20
60.6350075
11
21.7893072
21
60.6350075
0
LINE
8
DEFAULT_255_1_234
10
21.7893072
20
60.6350075
11
21.5901201
21
61.1819689
0
LINE
8
DEFAULT_255_1_234
10
23.1530964
20
60.8237534
11
23.1530964
21
60.7498614
0
LINE
8
DEFAULT_255_1_234
10
22.2125798
20
60.7394201
11
22.2125798
21
60.8237534
0
LINE
8
DEFAULT_255_1_234
10
22.9996902
20
60.7386169
11
22.9996902
21
60.8253597
0
LINE
8
DEFAULT_255_1_234
10
22.365986
20
60.835801
11
22.365986
21
60.7498614
0
ARC
8
DEFAULT_255_1_234
10
22.288899
20
60.7459015
40
0.8642064
50
350.487711
51
0.2625388
0
ARC
8
DEFAULT_255_1_234
10
22.5182232
20
60.7064578
40
0.631518
50
336.0277639
51
350.5787438
0
ARC
8
DEFAULT_255_1_234
10
22.6527055
20
60.6456892
40
0.4839466
50
319.8877444
51
336.1328423
0
ARC
8
DEFAULT_255_1_234
10
22.7129696
20
60.597458
40
0.4067874
50
302.4806467
51
319.6143626
0
ARC
8
DEFAULT_255_1_234
10
22.7014706
20
60.6196202
40
0.4316636
50
275.8195682
51
302.1884709
0
ARC
8
DEFAULT_255_1_234
10
22.6848339
20
60.7338665
40
0.5470306
50
269.9171439
51
276.3397983
0
ARC
8
DEFAULT_255_1_234
10
22.6803549
20
60.6652681
40
0.4784458
50
252.5219675
51
270.4416499
0
ARC
8
DEFAULT_255_1_234
10
22.6659808
20
60.6113592
40
0.422716
50
237.5352116
51
252.1857531
0
ARC
8
DEFAULT_255_1_234
10
22.6749004
20
60.6227363
40
0.4371052
50
209.063312
51
237.3492538
0
ARC
8
DEFAULT_255_1_234
10
22.7618852
20
60.6773685
40
0.5397041
50
205.1183774
51
209.6470015
0
ARC
8
DEFAULT_255_1_234
10
22.8415889
20
60.711183
40
0.6262326
50
188.7215458
51
204.8240747
0
ARC
8
DEFAULT_255_1_234
10
23.0413417
20
60.7448067
40
0.8287794
50
180.3723947
51
188.9252049
0
ARC
8
DEFAULT_255_1_234
10
23.0386169
20
60.8277402
40
0.8260467
50
169.5253763
51
180.2765336
0
ARC
8
DEFAULT_255_1_234
10
22.8483618
20
60.8627309
40
0.6326007
50
155.8315255
51
169.5089989
0
ARC
8
DEFAULT_255_1_234
10
22.7203119
20
60.9221348
40
0.4914567
50
139.6258461
51
156.0379525
0
ARC
8
DEFAULT_255_1_234
10
22.6613452
20
60.9695799
40
0.4158054
50
122.6416387
51
139.3430715
0
ARC
8
DEFAULT_255_1_234
10
22.6714072
20
60.9512451
40
0.4366739
50
93.0223692
51
122.455762
0
ARC
8
DEFAULT_255_1_234
10
22.6822069
20
60.8547709
40
0.5336137
50
89.975342
51
93.6341897
0
ARC
8
DEFAULT_255_1_234
10
22.6860848
20
60.8946242
40
0.4937738
50
73.746375
51
90.4233405
0
ARC
8
DEFAULT_255_1_234
10
22.7036427
20
60.9626287
40
0.4235786
50
57.662753
51
73.4518111
0
ARC
8
DEFAULT_255_1_234
10
22.7028433
20
60.9647832
40
0.4221899
50
29.1440151
51
57.414694
0
ARC
8
DEFAULT_255_1_234
10
22.6093628
20
60.9064005
40
0.5322966
50
24.0982783
51
29.7323517
0
ARC
8
DEFAULT_255_1_234
10
22.5059903
20
60.8635399
40
0.6441673
50
8.6655297
51
23.8241346
0
ARC
8
DEFAULT_255_1_234
10
22.2825641
20
60.8270854
40
0.8705386
50
359.7806941
51
8.8218784
0
ARC
8
DEFAULT_255_1_234
10
22.1678639
20
60.8296345
40
0.8318373
50
359.7055579
51
8.036044
0
ARC
8
DEFAULT_255_1_234
10
22.4678645
20
60.8733239
40
0.5286768
50
7.8928306
51
20.2962107
0
ARC
8
DEFAULT_255_1_234
10
22.6306216
20
60.9333395
40
0.3552073
50
20.3231126
51
36.4992797
0
ARC
8
DEFAULT_255_1_234
10
22.6991762
20
60.9861402
40
0.2686974
50
36.1437156
51
85.6627023
0
ARC
8
DEFAULT_255_1_234
10
22.6829308
20
60.8821221
40
0.373739
50
84.3852322
51
90.0757696
0
ARC
8
DEFAULT_255_1_234
10
22.678698
20
60.9481839
40
0.3076997
50
89.3038458
51
109.9045693
0
ARC
8
DEFAULT_255_1_234
10
22.6694371
20
60.9864062
40
0.2686424
50
110.8228367
51
143.9179474
0
ARC
8
DEFAULT_255_1_234
10
22.7628031
20
60.9151236
40
0.3860887
50
143.5289163
51
163.2980757
0
ARC
8
DEFAULT_255_1_234
10
22.9535852
20
60.8551433
40
0.5860659
50
163.0418846
51
174.3140048
0
ARC
8
DEFAULT_255_1_234
10
23.1939964
20
60.8273854
40
0.8280531
50
174.0509143
51
179.4176892
0
ARC
8
DEFAULT_255_1_234
10
23.1435703
20
60.7456954
40
0.7775954
50
179.6930361
51
188.7906598
0
ARC
8
DEFAULT_255_1_234
10
22.8772182
20
60.7030935
40
0.5078633
50
188.6331305
51
202.5629587
0
ARC
8
DEFAULT_255_1_234
10
22.7517774
20
60.6526996
40
0.3726913
50
202.8081362
51
216.1193925
0
ARC
8
DEFAULT_255_1_234
10
22.6708344
20
60.5875676
40
0.2689577
50
215.0755913
51
264.6379694
0
ARC
8
DEFAULT_255_1_234
10
22.6835294
20
60.6706513
40
0.3528978
50
263.846392
51
270.0833719
0
ARC
8
DEFAULT_255_1_234
10
22.6876684
20
60.6448374
40
0.3271036
50
269.3649385
51
287.5152008
0
ARC
8
DEFAULT_255_1_234
10
22.7054842
20
60.5801238
40
0.2600406
50
288.0630309
51
323.8113348
0
ARC
8
DEFAULT_255_1_234
10
22.6183684
20
60.6451049
40
0.3687189
50
323.6547608
51
342.6590488
0
ARC
8
DEFAULT_255_1_234
10
22.4152299
20
60.7111952
40
0.5823286
50
342.4091907
51
353.6451149
0
ARC
8
DEFAULT_255_1_234
10
22.1320809
20
60.746419
40
0.8676442
50
353.4029884
51
359.4847795
0
LINE
8
DEFAULT_255_1_234
10
23.8341878
20
61.3779433
11
23.8341878
21
60.2029
0
LINE
8
DEFAULT_255_1_234
10
23.8341878
20
60.2029
11
23.6847975
21
60.2029
0
LINE
8
DEFAULT_255_1_234
10
23.6847975
20
60.2029
11
23.6847975
21
61.1932133
0
LINE
8
DEFAULT_255_1_234
10
23.6847975
20
61.1932133
11
23.3852136
21
61.0831785
0
LINE
8
DEFAULT_255_1_234
10
23.3852136
20
61.0831785
11
23.3852136
21
61.2181117
0
LINE
8
DEFAULT_255_1_234
10
23.3852136
20
61.2181117
11
23.8108958
21
61.3779433
0
LINE
8
DEFAULT_255_1_234
10
23.8108958
20
61.3779433
11
23.8341878
21
61.3779433
0
LINE
8
DEFAULT_255_1_234
10
21.9379293
20
68.1404
11
21.8262881
21
68.4456061
0
LINE
8
DEFAULT_255_1_234
10
21.8262881
20
68.4456061
11
21.3363521
21
68.4456061
0
LINE
8
DEFAULT_255_1_234
10
21.3363521
20
68.4456061
11
21.2263173
21
68.1404
0
LINE
8
DEFAULT_255_1_234
10
21.2263173
20
68.1404
11
21.0672889
21
68.1404
0
LINE
8
DEFAULT_255_1_234
10
21.0672889
20
68.1404
11
21.5138535
21
69.3098211
0
LINE
8
DEFAULT_255_1_234
10
21.5138535
20
69.3098211
11
21.6487867
21
69.3098211
0
LINE
8
DEFAULT_255_1_234
10
21.6487867
20
69.3098211
11
22.0961545
21
68.1404
0
LINE
8
DEFAULT_255_1_234
10
22.0961545
20
68.1404
11
21.9379293
21
68.1404
0
LINE
8
DEFAULT_255_1_234
10
21.5813201
20
69.1194689
11
21.3829362
21
68.5725075
0
LINE
8
DEFAULT_255_1_234
10
21.3829362
20
68.5725075
11
21.7805072
21
68.5725075
0
LINE
8
DEFAULT_255_1_234
10
21.7805072
20
68.5725075
11
21.5813201
21
69.1194689
0
LINE
8
DEFAULT_255_1_234
10
23.1442964
20
68.7612534
11
23.1442964
21
68.6873614
0
LINE
8
DEFAULT_255_1_234
10
22.2037798
20
68.6769201
11
22.2037798
21
68.7612534
0
LINE
8
DEFAULT_255_1_234
10
22.9908902
20
68.6761169
11
22.9908902
21
68.7628597
0
LINE
8
DEFAULT_255_1_234
10
22.357186
20
68.773301
11
22.357186
21
68.6873614
0
ARC
8
DEFAULT_255_1_234
10
22.280099
20
68.6834015
40
0.8642064
50
350.487711
51
0.2625388
0
ARC
8
DEFAULT_255_1_234
10
22.5094232
20
68.6439578
40
0.631518
50
336.0277639
51
350.5787438
0
ARC
8
DEFAULT_255_1_234
10
22.6439055
20
68.5831892
40
0.4839466
50
319.8877444
51
336.1328423
0
ARC
8
DEFAULT_255_1_234
10
22.7041696
20
68.534958
40
0.4067874
50
302.4806467
51
319.6143626
0
ARC
8
DEFAULT_255_1_234
10
22.6926706
20
68.5571202
40
0.4316636
50
275.8195682
51
302.1884709
0
ARC
8
DEFAULT_255_1_234
10
22.6760339
20
68.6713665
40
0.5470306
50
269.9171439
51
276.3397983
0
ARC
8
DEFAULT_255_1_234
10
22.6715549
20
68.6027681
40
0.4784458
50
252.5219675
51
270.4416499
0
ARC
8
DEFAULT_255_1_234
10
22.6571808
20
68.5488592
40
0.422716
50
237.5352116
51
252.1857531
0
ARC
8
DEFAULT_255_1_234
10
22.6661004
20
68.5602363
40
0.4371052
50
209.063312
51
237.3492538
0
ARC
8
DEFAULT_255_1_234
10
22.7530852
20
68.6148685
40
0.5397041
50
205.1183774
51
209.6470015
0
ARC
8
DEFAULT_255_1_234
10
22.8327889
20
68.648683
40
0.6262326
50
188.7215458
51
204.8240747
0
ARC
8
DEFAULT_255_1_234
10
23.0325417
20
68.6823067
40
0.8287794
50
180.3723947
51
188.9252049
0
ARC
8
DEFAULT_255_1_234
10
23.0298169
20
68.7652402
40
0.8260467
50
169.5253763
51
180.2765336
0
ARC
8
DEFAULT_255_1_234
10
22.8395618
20
68.8002309
40
0.6326007
50
155.8315255
51
169.5089989
0
ARC
8
DEFAULT_255_1_234
10
22.7115119
20
68.8596348
40
0.4914567
50
139.6258461
51
156.0379525
0
ARC
8
DEFAULT_255_1_234
10
22.6525452
20
68.9070799
40
0.4158054
50
122.6416387
51
139.3430715
0
ARC
8
DEFAULT_255_1_234
10
22.6626072
20
68.8887451
40
0.4366739
50
93.0223692
51
122.455762
0
ARC
8
DEFAULT_255_1_234
10
22.6734069
20
68.7922709
40
0.5336137
50
89.975342
51
93.6341897
0
ARC
8
DEFAULT_255_1_234
10
22.6772848
20
68.8321242
40
0.4937738
50
73.746375
51
90.4233405
0
ARC
8
DEFAULT_255_1_234
10
22.6948427
20
68.9001287
40
0.4235786
50
57.662753
51
73.4518111
0
ARC
8
DEFAULT_255_1_234
10
22.6940433
20
68.9022832
40
0.4221899
50
29.1440151
51
57.414694
0
ARC
8
DEFAULT_255_1_234
10
22.6005628
20
68.8439005
40
0.5322966
50
24.0982783
51
29.7323517
0
ARC
8
DEFAULT_255_1_234
10
22.4971903
20
68.8010399
40
0.6441673
50
8.6655297
51
23.8241346
0
ARC
8
DEFAULT_255_1_234
10
22.2737641
20
68.7645854
40
0.8705386
50
359.7806941
51
8.8218784
0
ARC
8
DEFAULT_255_1_234
10
22.1590639
20
68.7671345
40
0.8318373
50
359.7055579
51
8.036044
0
ARC
8
DEFAULT_255_1_234
10
22.4590645
20
68.8108239
40
0.5286768
50
7.8928306
51
20.2962107
0
ARC
8
DEFAULT_255_1_234
10
22.6218216
20
68.8708395
40
0.3552073
50
20.3231126
51
36.4992797
0
ARC
8
DEFAULT_255_1_234
10
22.6903762
20
68.9236402
40
0.2686974
50
36.1437156
51
85.6627023
0
ARC
8
DEFAULT_255_1_234
10
22.6741308
20
68.8196221
40
0.373739
50
84.3852322
51
90.0757696
0
ARC
8
DEFAULT_255_1_234
10
22.669898
20
68.8856839
40
0.3076997
50
89.3038458
51
109.9045693
0
ARC
8
DEFAULT_255_1_234
10
22.6606371
20
68.9239062
40
0.2686424
50
110.8228367
51
143.9179474
0
ARC
8
DEFAULT_255_1_234
10
22.7540031
20
68.8526236
40
0.3860887
50
143.5289163
51
163.2980757
0
ARC
8
DEFAULT_255_1_234
10
22.9447852
20
68.7926433
40
0.5860659
50
163.0418846
51
174.3140048
0
ARC
8
DEFAULT_255_1_234
10
23.1851964
20
68.7648854
40
0.8280531
50
174.0509143
51
179.4176892
0
ARC
8
DEFAULT_255_1_234
10
23.1347703
20
68.6831954
40
0.7775954
50
179.6930361
51
188.7906598
0
ARC
8
DEFAULT_255_1_234
10
22.8684182
20
68.6405935
40
0.5078633
50
188.6331305
51
202.5629587
0
ARC
8
DEFAULT_255_1_234
10
22.7429774
20
68.5901996
40
0.3726913
50
202.8081362
51
216.1193925
0
ARC
8
DEFAULT_255_1_234
10
22.6620344
20
68.5250676
40
0.2689577
50
215.0755913
51
264.6379694
0
ARC
8
DEFAULT_255_1_234
10
22.6747294
20
68.6081513
40
0.3528978
50
263.846392
51
270.0833719
0
ARC
8
DEFAULT_255_1_234
10
22.6788684
20
68.5823374
40
0.3271036
50
269.3649385
51
287.5152008
0
ARC
8
DEFAULT_255_1_234
10
22.6966842
20
68.5176238
40
0.2600406
50
288.0630309
51
323.8113348
0
ARC
8
DEFAULT_255_1_234
10
22.6095684
20
68.5826049
40
0.3687189
50
323.6547608
51
342.6590488
0
ARC
8
DEFAULT_255_1_234
10
22.4064299
20
68.6486952
40
0.5823286
50
342.4091907
51
353.6451149
0
ARC
8
DEFAULT_255_1_234
10
22.1232809
20
68.683919
40
0.8676442
50
353.4029884
51
359.4847795
0
LINE
8
DEFAULT_255_1_234
10
24.0703558
20
68.8319327
11
24.0703558
21
68.6391709
0
LINE
8
DEFAULT_255_1_234
10
23.3322391
20
68.6190916
11
23.3322391
21
68.8174755
0
LINE
8
DEFAULT_255_1_234
10
23.9217687
20
68.5990123
11
23.9217687
21
68.8423739
0
LINE
8
DEFAULT_255_1_234
10
23.4808262
20
68.8536184
11
23.4808262
21
68.6158789
0
ARC
8
DEFAULT_255_1_234
10
22.8456448
20
68.6342805
40
1.2247208
50
353.8441951
51
0.2287902
0
ARC
8
DEFAULT_255_1_234
10
23.3095951
20
68.5824806
40
0.7578929
50
344.4934747
51
353.9765454
0
ARC
8
DEFAULT_255_1_234
10
23.6088542
20
68.4973981
40
0.4467846
50
329.2803592
51
344.7472793
0
ARC
8
DEFAULT_255_1_234
10
23.7081366
20
68.4429018
40
0.3336173
50
324.9352394
51
328.6160465
0
ARC
8
DEFAULT_255_1_234
10
23.7458475
20
68.4165427
40
0.2876076
50
280.580143
51
324.9173126
0
ARC
8
DEFAULT_255_1_234
10
23.7057268
20
68.5836099
40
0.4592847
50
269.5977311
51
281.6734359
0
ARC
8
DEFAULT_255_1_234
10
23.6985173
20
68.5716173
40
0.4472986
50
256.6228859
51
270.51044
0
ARC
8
DEFAULT_255_1_234
10
23.6583151
20
68.4167877
40
0.2873874
50
215.8618325
51
257.2788573
0
ARC
8
DEFAULT_255_1_234
10
23.7604183
20
68.4852977
40
0.4102928
50
197.9693508
51
215.2623606
0
ARC
8
DEFAULT_255_1_234
10
24.0089298
20
68.5691709
40
0.6725652
50
187.8816417
51
198.2346507
0
ARC
8
DEFAULT_255_1_234
10
24.4047507
20
68.6263079
40
1.0724845
50
180.8976217
51
188.0055519
0
ARC
8
DEFAULT_255_1_234
10
24.6847695
20
68.6366777
40
1.3526448
50
180.7449369
51
181.1510016
0
ARC
8
DEFAULT_255_1_234
10
24.5270424
20
68.8223042
40
1.1948131
50
173.7675579
51
180.231553
0
ARC
8
DEFAULT_255_1_234
10
24.075257
20
68.8733666
40
0.7401564
50
164.3058563
51
173.9002247
0
ARC
8
DEFAULT_255_1_234
10
23.7840639
20
68.9572656
40
0.4371288
50
148.7922025
51
164.568378
0
ARC
8
DEFAULT_255_1_234
10
23.6889091
20
69.0103929
40
0.3282386
50
144.5883898
51
148.1176286
0
ARC
8
DEFAULT_255_1_234
10
23.6545989
20
69.0343315
40
0.2864044
50
101.6440918
51
144.514236
0
ARC
8
DEFAULT_255_1_234
10
23.6971056
20
68.8654069
40
0.4604934
50
89.5284041
51
102.5819763
0
ARC
8
DEFAULT_255_1_234
10
23.7050144
20
68.8615018
40
0.464401
50
77.0437873
51
90.5081339
0
ARC
8
DEFAULT_255_1_234
10
23.7452146
20
69.0257615
40
0.2953195
50
48.2778575
51
77.4994676
0
ARC
8
DEFAULT_255_1_234
10
23.7524777
20
69.0386746
40
0.2808655
50
36.3142134
51
47.6305865
0
ARC
8
DEFAULT_255_1_234
10
23.6656084
20
68.9801515
40
0.3855453
50
18.2931786
51
35.6769206
0
ARC
8
DEFAULT_255_1_234
10
23.4112843
20
68.8928593
40
0.654423
50
8.024666
51
18.5605216
0
ARC
8
DEFAULT_255_1_234
10
22.9949763
20
68.8313792
40
1.0752407
50
1.1274072
51
8.1718305
0
ARC
8
DEFAULT_255_1_234
10
22.6713953
20
68.8186885
40
1.3990231
50
0.5424119
51
1.3863029
0
ARC
8
DEFAULT_255_1_234
10
22.8535331
20
68.8459342
40
1.0682415
50
359.8090433
51
4.9407866
0
ARC
8
DEFAULT_255_1_234
10
23.2745345
20
68.8835113
40
0.6455691
50
4.8362157
51
12.2904523
0
ARC
8
DEFAULT_255_1_234
10
23.550046
20
68.9448965
40
0.3633074
50
12.0805627
51
23.8173984
0
ARC
8
DEFAULT_255_1_234
10
23.6674165
20
68.9945919
40
0.2358723
50
24.2871213
51
31.3935614
0
ARC
8
DEFAULT_255_1_234
10
23.7198862
20
69.0289233
40
0.1732111
50
30.7407893
51
82.4657128
0
ARC
8
DEFAULT_255_1_234
10
23.7018997
20
68.9405691
40
0.263235
50
81.1060089
51
90.2184952
0
ARC
8
DEFAULT_255_1_234
10
23.6983296
20
68.9663924
40
0.2374236
50
89.3806855
51
105.6762551
0
ARC
8
DEFAULT_255_1_234
10
23.6799926
20
69.0330567
40
0.1682847
50
105.7981136
51
149.7388061
0
ARC
8
DEFAULT_255_1_234
10
23.7864005
20
68.969095
40
0.2924306
50
149.4208916
51
163.6286378
0
ARC
8
DEFAULT_255_1_234
10
23.9954893
20
68.905325
40
0.5110213
50
163.3763315
51
172.1410975
0
ARC
8
DEFAULT_255_1_234
10
24.3255612
20
68.8580518
40
0.8444586
50
172.0259487
51
178.0703232
0
ARC
8
DEFAULT_255_1_234
10
24.6285701
20
68.8436906
40
1.1477868
50
177.8631668
51
179.5044149
0
ARC
8
DEFAULT_255_1_234
10
24.5213106
20
68.6122389
40
1.0404907
50
179.7995573
51
185.2460446
0
ARC
8
DEFAULT_255_1_234
10
24.1170145
20
68.5739513
40
0.6343885
50
185.1411642
51
193.0079639
0
ARC
8
DEFAULT_255_1_234
10
23.8526617
20
68.5114641
40
0.3627568
50
192.7897626
51
205.2507664
0
ARC
8
DEFAULT_255_1_234
10
23.7480164
20
68.4647415
40
0.2481908
50
205.8005384
51
211.2537509
0
ARC
8
DEFAULT_255_1_234
10
23.6956605
20
68.429658
40
0.1852521
50
210.3789793
51
238.4008143
0
ARC
8
DEFAULT_255_1_234
10
23.6937127
20
68.4343376
40
0.1882621
50
239.6520629
51
265.9793761
0
ARC
8
DEFAULT_255_1_234
10
23.7022327
20
68.5015427
40
0.2559272
50
265.1315437
51
270.060332
0
ARC
8
DEFAULT_255_1_234
10
23.7051106
20
68.4691534
40
0.2235528
50
269.3314664
51
287.2178029
0
ARC
8
DEFAULT_255_1_234
10
23.7188958
20
68.4188279
40
0.1714108
50
287.7958004
51
329.080874
0
ARC
8
DEFAULT_255_1_234
10
23.6231415
20
68.478593
40
0.2842745
50
328.6634704
51
343.3325132
0
ARC
8
DEFAULT_255_1_234
10
23.4058435
20
68.5462863
40
0.5118644
50
343.0499468
51
351.9393422
0
ARC
8
DEFAULT_255_1_234
10
23.0591735
20
68.5973949
40
0.8622784
50
351.8069023
51
357.7959224
0
ARC
8
DEFAULT_255_1_234
10
22.7356291
20
68.6141721
40
1.1862365
50
357.5871873
51
359.2677531
0
LINE
8
DEFAULT_255_1_234
10
22.6540293
20
76.0779
11
22.5423881
21
76.3831061
0
LINE
8
DEFAULT_255_1_234
10
22.5423881
20
76.3831061
11
22.0524521
21
76.3831061
0
LINE
8
DEFAULT_255_1_234
10
22.0524521
20
76.3831061
11
21.9424173
21
76.0779
0
LINE
8
DEFAULT_255_1_234
10
21.9424173
20
76.0779
11
21.7833889
21
76.0779
0
LINE
8
DEFAULT_255_1_234
10
21.7833889
20
76.0779
11
22.2299535
21
77.2473211
0
LINE
8
DEFAULT_255_1_234
10
22.2299535
20
77.2473211
11
22.3648867
21
77.2473211
0
LINE
8
DEFAULT_255_1_234
10
22.3648867
20
77.2473211
11
22.8122545
21
76.0779
0
LINE
8
DEFAULT_255_1_234
10
22.8122545
20
76.0779
11
22.6540293
21
76.0779
0
LINE
8
DEFAULT_255_1_234
10
22.2974201
20
77.0569689
11
22.0990362
21
76.5100075
0
LINE
8
DEFAULT_255_1_234
10
22.0990362
20
76.5100075
11
22.4966072
21
76.5100075
0
LINE
8
DEFAULT_255_1_234
10
22.4966072
20
76.5100075
11
22.2974201
21
77.0569689
0
LINE
8
DEFAULT_255_1_234
10
23.1351304
20
77.2473211
11
23.1351304
21
76.0779
0
LINE
8
DEFAULT_255_1_234
10
23.1351304
20
76.0779
11
22.980921
21
76.0779
0
LINE
8
DEFAULT_255_1_234
10
22.980921
20
76.0779
11
22.980921
21
77.2473211
0
LINE
8
DEFAULT_255_1_234
10
22.980921
20
77.2473211
11
23.1351304
21
77.2473211
0
LINE
8
DEFAULT_255_1_234
10
24.1334755
20
77.2473211
11
24.1334755
21
77.163791
0
LINE
8
DEFAULT_255_1_234
10
24.1334755
20
77.163791
11
23.6491617
21
76.0779
0
LINE
8
DEFAULT_255_1_234
10
23.6491617
20
76.0779
11
23.4933459
21
76.0779
0
LINE
8
DEFAULT_255_1_234
10
23.4933459
20
76.0779
11
23.9760534
21
77.1252387
0
LINE
8
DEFAULT_255_1_234
10
23.9760534
20
77.1252387
11
23.3431524
21
77.1252387
0
LINE
8
DEFAULT_255_1_234
10
23.3431524
20
77.1252387
11
23.3431524
21
77.2473211
0
LINE
8
DEFAULT_255_1_234
10
23.3431524
20
77.2473211
11
24.1334755
21
77.2473211
0
LINE
8
DEFAULT_255_1_234
10
22.6540293
20
84.0154
11
22.5423881
21
84.3206061
0
LINE
8
DEFAULT_255_1_234
10
22.5423881
20
84.3206061
11
22.0524521
21
84.3206061
0
LINE
8
DEFAULT_255_1_234
10
22.0524521
20
84.3206061
11
21.9424173
21
84.0154
0
LINE
8
DEFAULT_255_1_234
10
21.9424173
20
84.0154
11
21.7833889
21
84.0154
0
LINE
8
DEFAULT_255_1_234
10
21.7833889
20
84.0154
11
22.2299535
21
85.1848211
0
LINE
8
DEFAULT_255_1_234
10
22.2299535
20
85.1848211
11
22.3648867
21
85.1848211
0
LINE
8
DEFAULT_255_1_234
10
22.3648867
20
85.1848211
11
22.8122545
21
84.0154
0
LINE
8
DEFAULT_255_1_234
10
22.8122545
20
84.0154
11
22.6540293
21
84.0154
0
LINE
8
DEFAULT_255_1_234
10
22.2974201
20
84.9944689
11
22.0990362
21
84.4475075
0
LINE
8
DEFAULT_255_1_234
10
22.0990362
20
84.4475075
11
22.4966072
21
84.4475075
0
LINE
8
DEFAULT_255_1_234
10
22.4966072
20
84.4475075
11
22.2974201
21
84.9944689
0
LINE
8
DEFAULT_255_1_234
10
23.1351304
20
85.1848211
11
23.1351304
21
84.0154
0
LINE
8
DEFAULT_255_1_234
10
23.1351304
20
84.0154
11
22.980921
21
84.0154
0
LINE
8
DEFAULT_255_1_234
10
22.980921
20
84.0154
11
22.980921
21
85.1848211
0
LINE
8
DEFAULT_255_1_234
10
22.980921
20
85.1848211
11
23.1351304
21
85.1848211
0
LINE
8
DEFAULT_255_1_234
10
23.9350916
20
85.1856243
11
23.9615963
21
85.1856243
0
LINE
8
DEFAULT_255_1_234
10
23.9615963
20
85.1856243
11
23.9615963
21
85.059526
0
LINE
8
DEFAULT_255_1_234
10
23.9615963
20
85.059526
11
23.9342884
21
85.059526
0
LINE
8
DEFAULT_255_1_234
10
23.387327
20
84.4603583
11
23.387327
21
84.5173836
0
LINE
8
DEFAULT_255_1_234
10
23.5367173
20
84.4981075
11
23.5367173
21
84.4434917
0
ARC
8
DEFAULT_255_1_234
10
23.9395232
20
84.5597455
40
0.4998079
50
90.6001036
51
104.514704
0
ARC
8
DEFAULT_255_1_234
10
23.9006747
20
84.7042131
40
0.3502176
50
104.2855254
51
133.862935
0
ARC
8
DEFAULT_255_1_234
10
23.9170505
20
84.693383
40
0.3693984
50
134.5302688
51
161.6210873
0
ARC
8
DEFAULT_255_1_234
10
24.0823693
20
84.6350895
40
0.5446739
50
161.2849839
51
174.2076652
0
ARC
8
DEFAULT_255_1_234
10
24.223063
20
84.6156787
40
0.6866274
50
173.7810589
51
174.9254635
0
ARC
8
DEFAULT_255_1_234
10
23.7680462
20
84.4773839
40
0.3033419
50
95.8330959
51
138.9954921
0
ARC
8
DEFAULT_255_1_234
10
23.7903818
20
84.3495375
40
0.4328947
50
89.8753725
51
97.0544009
0
ARC
8
DEFAULT_255_1_234
10
23.7951284
20
84.4330748
40
0.3493769
50
71.6407809
51
90.6240094
0
ARC
8
DEFAULT_255_1_234
10
23.8101858
20
84.4885082
40
0.2920396
50
39.6367836
51
71.019018
0
ARC
8
DEFAULT_255_1_234
10
23.7465331
20
84.4334998
40
0.3761538
50
10.658731
51
39.9043955
0
ARC
8
DEFAULT_255_1_234
10
23.5917414
20
84.3998686
40
0.5345136
50
359.682601
51
11.132623
0
ARC
8
DEFAULT_255_1_234
10
23.5877545
20
84.392801
40
0.5385081
50
347.2486944
51
0.4369317
0
ARC
8
DEFAULT_255_1_234
10
23.7545021
20
84.3526807
40
0.3670249
50
318.1409698
51
347.6118597
0
ARC
8
DEFAULT_255_1_234
10
23.7870015
20
84.3259702
40
0.3250007
50
275.6342139
51
317.8248465
0
ARC
8
DEFAULT_255_1_234
10
23.7649126
20
84.4559219
40
0.4565864
50
269.8874292
51
276.7917694
0
ARC
8
DEFAULT_255_1_234
10
23.7594196
20
84.3533743
40
0.3540676
50
246.9140195
51
270.7437342
0
ARC
8
DEFAULT_255_1_234
10
23.7600587
20
84.3391384
40
0.3412781
50
218.1665114
51
245.878116
0
ARC
8
DEFAULT_255_1_234
10
23.8480048
20
84.4127279
40
0.455911
50
191.4115814
51
218.6077802
0
ARC
8
DEFAULT_255_1_234
10
24.0418137
20
84.4561833
40
0.6545001
50
179.6345085
51
191.7836486
0
ARC
8
DEFAULT_255_1_234
10
24.6000473
20
84.5240697
40
1.2127388
50
171.4525249
51
180.3158839
0
ARC
8
DEFAULT_255_1_234
10
24.1605349
20
84.5924608
40
0.7679464
50
157.9802646
51
171.6246686
0
ARC
8
DEFAULT_255_1_234
10
23.939137
20
84.6807421
40
0.5296008
50
141.4298019
51
157.854097
0
ARC
8
DEFAULT_255_1_234
10
23.8749691
20
84.7261381
40
0.4511509
50
102.8715806
51
140.8564722
0
ARC
8
DEFAULT_255_1_234
10
23.9397306
20
84.4821552
40
0.7034845
50
90.3778349
51
103.5869322
0
ARC
8
DEFAULT_255_1_234
10
23.7659083
20
84.421673
40
0.2370698
50
89.8751008
51
126.2071704
0
ARC
8
DEFAULT_255_1_234
10
23.7704872
20
84.4062303
40
0.2522934
50
124.9745049
51
144.895901
0
ARC
8
DEFAULT_255_1_234
10
23.7529063
20
84.420556
40
0.2296779
50
145.2974905
51
160.2660252
0
ARC
8
DEFAULT_255_1_234
10
24.0601602
20
84.4403071
40
0.5234525
50
179.6514266
51
190.2855912
0
ARC
8
DEFAULT_255_1_234
10
23.8907739
20
84.4083786
40
0.3510893
50
190.0945431
51
207.5098196
0
ARC
8
DEFAULT_255_1_234
10
23.8342009
20
84.3814623
40
0.288489
50
207.9583163
51
216.3251085
0
ARC
8
DEFAULT_255_1_234
10
23.8002117
20
84.3535105
40
0.2445587
50
215.7661442
51
232.5456785
0
ARC
8
DEFAULT_255_1_234
10
23.7619099
20
84.3048482
40
0.1826382
50
232.8005391
51
270.6605633
0
ARC
8
DEFAULT_255_1_234
10
23.76648
20
84.3412612
40
0.2190529
50
269.35537
51
288.4744281
0
ARC
8
DEFAULT_255_1_234
10
23.7757697
20
84.3063118
40
0.1829749
50
289.1833337
51
322.9683818
0
ARC
8
DEFAULT_255_1_234
10
23.714622
20
84.3545391
40
0.2608399
50
322.6007884
51
346.5182367
0
ARC
8
DEFAULT_255_1_234
10
23.5988816
20
84.3840616
40
0.3802777
50
346.2582162
51
358.7741648
0
ARC
8
DEFAULT_255_1_234
10
23.4970485
20
84.3895965
40
0.4822176
50
358.3755224
51
0.0098023
0
ARC
8
DEFAULT_255_1_234
10
23.5726672
20
84.3923657
40
0.4066078
50
359.6214041
51
11.2839074
0
ARC
8
DEFAULT_255_1_234
10
23.7003819
20
84.4190066
40
0.2761514
50
11.0482309
51
31.8146458
0
ARC
8
DEFAULT_255_1_234
10
23.7312862
20
84.4357584
40
0.2410679
50
32.3035391
51
38.082671
0
ARC
8
DEFAULT_255_1_234
10
23.7733521
20
84.4738662
40
0.1844966
50
36.825067
51
85.7415724
0
ARC
8
DEFAULT_255_1_234
10
23.7666355
20
84.4238301
40
0.2349122
50
85.0140713
51
90.0513278
0
LINE
8
DEFAULT_255_1_234
10
22.6540293
20
91.9529
11
22.5423881
21
92.2581061
0
LINE
8
DEFAULT_255_1_234
10
22.5423881
20
92.2581061
11
22.0524521
21
92.2581061
0
LINE
8
DEFAULT_255_1_234
10
22.0524521
20
92.2581061
11
21.9424173
21
91.9529
0
LINE
8
DEFAULT_255_1_234
10
21.9424173
20
91.9529
11
21.7833889
21
91.9529
0
LINE
8
DEFAULT_255_1_234
10
21.7833889
20
91.9529
11
22.2299535
21
93.1223211
0
LINE
8
DEFAULT_255_1_234
10
22.2299535
20
93.1223211
11
22.3648867
21
93.1223211
0
LINE
8
DEFAULT_255_1_234
10
22.3648867
20
93.1223211
11
22.8122545
21
91.9529
0
LINE
8
DEFAULT_255_1_234
10
22.8122545
20
91.9529
11
22.6540293
21
91.9529
0
LINE
8
DEFAULT_255_1_234
10
22.2974201
20
92.9319689
11
22.0990362
21
92.3850075
0
LINE
8
DEFAULT_255_1_234
10
22.0990362
20
92.3850075
11
22.4966072
21
92.3850075
0
LINE
8
DEFAULT_255_1_234
10
22.4966072
20
92.3850075
11
22.2974201
21
92.9319689
0
LINE
8
DEFAULT_255_1_234
10
23.1351304
20
93.1223211
11
23.1351304
21
91.9529
0
LINE
8
DEFAULT_255_1_234
10
23.1351304
20
91.9529
11
22.980921
21
91.9529
0
LINE
8
DEFAULT_255_1_234
10
22.980921
20
91.9529
11
22.980921
21
93.1223211
0
LINE
8
DEFAULT_255_1_234
10
22.980921
20
93.1223211
11
23.1351304
21
93.1223211
0
LINE
8
DEFAULT_255_1_234
10
23.5656316
20
92.5086963
11
23.4467619
21
92.5392169
0
LINE
8
DEFAULT_255_1_234
10
23.4467619
20
92.5392169
11
23.5061967
21
93.1223211
0
LINE
8
DEFAULT_255_1_234
10
23.5061967
20
93.1223211
11
24.1053644
21
93.1223211
0
LINE
8
DEFAULT_255_1_234
10
24.1053644
20
93.1223211
11
24.1053644
21
92.9849784
0
LINE
8
DEFAULT_255_1_234
10
24.1053644
20
92.9849784
11
23.632295
21
92.9849784
0
LINE
8
DEFAULT_255_1_234
10
23.632295
20
92.9849784
11
23.5969554
21
92.6661184
0
LINE
8
DEFAULT_255_1_234
10
23.4049968
20
92.2605156
11
23.5455522
21
92.2605156
0
LINE
8
DEFAULT_255_1_234
10
23.6049871
20
92.5408232
11
23.5656316
21
92.5086963
0
ARC
8
DEFAULT_255_1_234
10
23.7824338
20
92.348123
40
0.3681349
50
93.7182161
51
120.2538958
0
ARC
8
DEFAULT_255_1_234
10
23.7918601
20
92.2673394
40
0.449379
50
89.9660152
51
94.2496022
0
ARC
8
DEFAULT_255_1_234
10
23.7959334
20
92.3262549
40
0.390482
50
73.8043271
51
90.5585896
0
ARC
8
DEFAULT_255_1_234
10
23.8194231
20
92.4120602
40
0.3015334
50
41.3071453
51
73.5430202
0
ARC
8
DEFAULT_255_1_234
10
23.7778059
20
92.3762324
40
0.3564457
50
13.5075983
51
41.2174222
0
ARC
8
DEFAULT_255_1_234
10
23.6136263
20
92.3332486
40
0.5261351
50
1.1331335
51
13.8829381
0
ARC
8
DEFAULT_255_1_234
10
23.4724632
20
92.3256665
40
0.6674378
50
359.9919444
51
1.544251
0
ARC
8
DEFAULT_255_1_234
10
23.6001458
20
92.321528
40
0.5397702
50
347.8572367
51
0.4293338
0
ARC
8
DEFAULT_255_1_234
10
23.7751776
20
92.2818736
40
0.3603188
50
323.673004
51
348.1672506
0
ARC
8
DEFAULT_255_1_234
10
23.8046284
20
92.2639168
40
0.3259678
50
316.8171152
51
323.1492751
0
ARC
8
DEFAULT_255_1_234
10
23.8107473
20
92.260246
40
0.3189975
50
281.8396411
51
316.5457803
0
ARC
8
DEFAULT_255_1_234
10
23.7731736
20
92.4157762
40
0.4789527
50
269.5770101
51
282.4214771
0
ARC
8
DEFAULT_255_1_234
10
23.7660548
20
92.3944125
40
0.45759
50
256.2427136
51
270.4486331
0
ARC
8
DEFAULT_255_1_234
10
23.736145
20
92.2744229
40
0.3339303
50
228.9023911
51
256.3314342
0
ARC
8
DEFAULT_255_1_234
10
23.7287683
20
92.2627746
40
0.32031
50
193.753695
51
228.5271154
0
ARC
8
DEFAULT_255_1_234
10
23.8525637
20
92.29908
40
0.4492253
50
184.924711
51
194.497588
0
ARC
8
DEFAULT_255_1_234
10
23.8718204
20
92.3026591
40
0.3289787
50
187.3600538
51
198.6732863
0
ARC
8
DEFAULT_255_1_234
10
23.7668498
20
92.2662674
40
0.217884
50
198.4451669
51
217.794479
0
ARC
8
DEFAULT_255_1_234
10
23.7372673
20
92.2453085
40
0.1816698
50
218.2887171
51
228.5612368
0
ARC
8
DEFAULT_255_1_234
10
23.747046
20
92.2584963
40
0.1980329
50
228.9654866
51
258.1234728
0
ARC
8
DEFAULT_255_1_234
10
23.767617
20
92.3465833
40
0.2884748
50
257.7258293
51
270.401361
0
ARC
8
DEFAULT_255_1_234
10
23.7721056
20
92.3020821
40
0.2439788
50
269.4204404
51
286.4209037
0
ARC
8
DEFAULT_255_1_234
10
23.7869544
20
92.2481657
40
0.1880666
50
286.7251356
51
320.600362
0
ARC
8
DEFAULT_255_1_234
10
23.7486369
20
92.2792595
40
0.2374121
50
320.6712579
51
344.5441685
0
ARC
8
DEFAULT_255_1_234
10
23.6329695
20
92.3132045
40
0.3579479
50
344.2412205
51
356.7357071
0
ARC
8
DEFAULT_255_1_234
10
23.5080843
20
92.3235444
40
0.4832297
50
356.3548756
51
0.0500261
0
ARC
8
DEFAULT_255_1_234
10
23.6417353
20
92.326665
40
0.3495889
50
359.5576869
51
12.953486
0
ARC
8
DEFAULT_255_1_234
10
23.747225
20
92.3522434
40
0.2410532
50
12.6490276
51
41.6081334
0
ARC
8
DEFAULT_255_1_234
10
23.7702621
20
92.3718321
40
0.2108218
50
41.7850273
51
85.9892764
0
ARC
8
DEFAULT_255_1_234
10
23.7579357
20
92.2905462
40
0.2928454
50
84.6957577
51
90.0676183
0
ARC
8
DEFAULT_255_1_234
10
23.7555842
20
92.2236716
40
0.3597255
50
89.6804936
51
99.1614436
0
ARC
8
DEFAULT_255_1_234
10
23.7350473
20
92.3464131
40
0.235281
50
98.9830931
51
113.8908934
0
ARC
8
DEFAULT_255_1_234
10
23.7120883
20
92.4005587
40
0.176479
50
114.1950727
51
127.3641004
0
LINE
8
DEFAULT_255_1_234
10
22.5482293
20
99.8904
11
22.4365881
21
100.1956061
0
LINE
8
DEFAULT_255_1_234
10
22.4365881
20
100.1956061
11
21.9466521
21
100.1956061
0
LINE
8
DEFAULT_255_1_234
10
21.9466521
20
100.1956061
11
21.8366173
21
99.8904
0
LINE
8
DEFAULT_255_1_234
10
21.8366173
20
99.8904
11
21.6775889
21
99.8904
0
LINE
8
DEFAULT_255_1_234
10
21.6775889
20
99.8904
11
22.1241535
21
101.0598211
0
LINE
8
DEFAULT_255_1_234
10
22.1241535
20
101.0598211
11
22.2590867
21
101.0598211
0
LINE
8
DEFAULT_255_1_234
10
22.2590867
20
101.0598211
11
22.7064545
21
99.8904
0
LINE
8
DEFAULT_255_1_234
10
22.7064545
20
99.8904
11
22.5482293
21
99.8904
0
LINE
8
DEFAULT_255_1_234
10
22.1916201
20
100.8694689
11
21.9932362
21
100.3225075
0
LINE
8
DEFAULT_255_1_234
10
21.9932362
20
100.3225075
11
22.3908072
21
100.3225075
0
LINE
8
DEFAULT_255_1_234
10
22.3908072
20
100.3225075
11
22.1916201
21
100.8694689
0
LINE
8
DEFAULT_255_1_234
10
23.0293304
20
101.0598211
11
23.0293304
21
99.8904
0
LINE
8
DEFAULT_255_1_234
10
23.0293304
20
99.8904
11
22.875121
21
99.8904
0
LINE
8
DEFAULT_255_1_234
10
22.875121
20
99.8904
11
22.875121
21
101.0598211
0
LINE
8
DEFAULT_255_1_234
10
22.875121
20
101.0598211
11
23.0293304
21
101.0598211
0
LINE
8
DEFAULT_255_1_234
10
23.8999708
20
101.0598211
11
23.8999708
21
100.283152
0
LINE
8
DEFAULT_255_1_234
10
23.8999708
20
100.283152
11
24.062212
21
100.283152
0
LINE
8
DEFAULT_255_1_234
10
24.062212
20
100.283152
11
24.062212
21
100.1618728
0
LINE
8
DEFAULT_255_1_234
10
24.062212
20
100.1618728
11
23.8999708
21
100.1618728
0
LINE
8
DEFAULT_255_1_234
10
23.8999708
20
100.1618728
11
23.8999708
21
99.8904
0
LINE
8
DEFAULT_255_1_234
10
23.8999708
20
99.8904
11
23.7505805
21
99.8904
0
LINE
8
DEFAULT_255_1_234
10
23.7505805
20
99.8904
11
23.7505805
21
100.1618728
0
LINE
8
DEFAULT_255_1_234
10
23.7505805
20
100.1618728
11
23.2180763
21
100.1618728
0
LINE
8
DEFAULT_255_1_234
10
23.2180763
20
100.1618728
11
23.2180763
21
100.2494187
0
LINE
8
DEFAULT_255_1_234
10
23.2180763
20
100.2494187
11
23.7417456
21
101.0598211
0
LINE
8
DEFAULT_255_1_234
10
23.7417456
20
101.0598211
11
23.8999708
21
101.0598211
0
LINE
8
DEFAULT_255_1_234
10
23.7329107
20
100.8244912
11
23.3867428
21
100.283152
0
LINE
8
DEFAULT_255_1_234
10
23.3867428
20
100.283152
11
23.7505805
21
100.283152
0
LINE
8
DEFAULT_255_1_234
10
23.7505805
20
100.283152
11
23.7505805
21
100.8566181
0
LINE
8
DEFAULT_255_1_234
10
23.7505805
20
100.8566181
11
23.7329107
21
100.8244912
0
LINE
8
DEFAULT_255_1_234
10
22.6540293
20
107.8279
11
22.5423881
21
108.1331061
0
LINE
8
DEFAULT_255_1_234
10
22.5423881
20
108.1331061
11
22.0524521
21
108.1331061
0
LINE
8
DEFAULT_255_1_234
10
22.0524521
20
108.1331061
11
21.9424173
21
107.8279
0
LINE
8
DEFAULT_255_1_234
10
21.9424173
20
107.8279
11
21.7833889
21
107.8279
0
LINE
8
DEFAULT_255_1_234
10
21.7833889
20
107.8279
11
22.2299535
21
108.9973211
0
LINE
8
DEFAULT_255_1_234
10
22.2299535
20
108.9973211
11
22.3648867
21
108.9973211
0
LINE
8
DEFAULT_255_1_234
10
22.3648867
20
108.9973211
11
22.8122545
21
107.8279
0
LINE
8
DEFAULT_255_1_234
10
22.8122545
20
107.8279
11
22.6540293
21
107.8279
0
LINE
8
DEFAULT_255_1_234
10
22.2974201
20
108.8069689
11
22.0990362
21
108.2600075
0
LINE
8
DEFAULT_255_1_234
10
22.0990362
20
108.2600075
11
22.4966072
21
108.2600075
0
LINE
8
DEFAULT_255_1_234
10
22.4966072
20
108.2600075
11
22.2974201
21
108.8069689
0
LINE
8
DEFAULT_255_1_234
10
23.1351304
20
108.9973211
11
23.1351304
21
107.8279
0
LINE
8
DEFAULT_255_1_234
10
23.1351304
20
107.8279
11
22.980921
21
107.8279
0
LINE
8
DEFAULT_255_1_234
10
22.980921
20
107.8279
11
22.980921
21
108.9973211
0
LINE
8
DEFAULT_255_1_234
10
22.980921
20
108.9973211
11
23.1351304
21
108.9973211
0
LINE
8
DEFAULT_255_1_234
10
23.5945458
20
108.3636169
11
23.5945458
21
108.4848962
0
LINE
8
DEFAULT_255_1_234
10
23.5945458
20
108.4848962
11
23.706187
21
108.4848962
0
LINE
8
DEFAULT_255_1_234
10
23.5158348
20
108.6905087
11
23.3672477
21
108.6905087
0
LINE
8
DEFAULT_255_1_234
10
23.3568064
20
108.1363188
11
23.5061967
21
108.1363188
0
LINE
8
DEFAULT_255_1_234
10
23.706187
20
108.3636169
11
23.5945458
21
108.3636169
0
ARC
8
DEFAULT_255_1_234
10
23.7032737
20
108.8241713
40
0.3392876
50
270.4919872
51
281.8951556
0
ARC
8
DEFAULT_255_1_234
10
23.7273998
20
108.7139702
40
0.2264817
50
281.6691735
51
301.2943132
0
ARC
8
DEFAULT_255_1_234
10
23.7444209
20
108.6828304
40
0.1910381
50
301.7833094
51
311.7545298
0
ARC
8
DEFAULT_255_1_234
10
23.7535784
20
108.6726748
40
0.1773635
50
311.7323931
51
354.2802411
0
ARC
8
DEFAULT_255_1_234
10
23.680941
20
108.6851722
40
0.2509385
50
353.0937916
51
0.1181479
0
ARC
8
DEFAULT_255_1_234
10
23.6348194
20
108.6899386
40
0.2970898
50
359.1805295
51
15.0453146
0
ARC
8
DEFAULT_255_1_234
10
23.7694031
20
108.7291992
40
0.1569564
50
13.9577229
51
77.6713066
0
ARC
8
DEFAULT_255_1_234
10
23.730756
20
108.5906949
40
0.3006298
50
76.1116566
51
90.7026153
0
ARC
8
DEFAULT_255_1_234
10
23.7248399
20
108.6180545
40
0.2732568
50
89.5324876
51
103.531937
0
ARC
8
DEFAULT_255_1_234
10
23.7047843
20
108.6979884
40
0.1908508
50
103.2931773
51
133.5619022
0
ARC
8
DEFAULT_255_1_234
10
23.7003331
20
108.7039375
40
0.1834746
50
133.8349307
51
173.5344437
0
ARC
8
DEFAULT_255_1_234
10
23.7726374
20
108.6911213
40
0.2568033
50
172.5096846
51
180.1366907
0
ARC
8
DEFAULT_255_1_234
10
23.6775268
20
108.6945622
40
0.3103056
50
155.3484492
51
180.7484736
0
ARC
8
DEFAULT_255_1_234
10
23.6726357
20
108.6916846
40
0.3070957
50
131.5744599
51
154.4798489
0
ARC
8
DEFAULT_255_1_234
10
23.7039505
20
108.660031
40
0.3515643
50
96.9875458
51
131.9690667
0
ARC
8
DEFAULT_255_1_234
10
23.7258985
20
108.5354636
40
0.4779224
50
89.8596053
51
97.7825159
0
ARC
8
DEFAULT_255_1_234
10
23.7307048
20
108.5092616
40
0.5041361
50
78.3655447
51
90.4131539
0
ARC
8
DEFAULT_255_1_234
10
23.7664966
20
108.6751887
40
0.3344039
50
56.6229102
51
78.638727
0
ARC
8
DEFAULT_255_1_234
10
23.7879909
20
108.7127805
40
0.2912001
50
47.0253525
51
56.0854072
0
ARC
8
DEFAULT_255_1_234
10
23.7899689
20
108.7167223
40
0.2869704
50
10.9208013
51
46.7778124
0
ARC
8
DEFAULT_255_1_234
10
23.6535756
20
108.6851857
40
0.426899
50
359.6364486
51
11.6087304
0
ARC
8
DEFAULT_255_1_234
10
23.83706
20
108.6836752
40
0.243409
50
332.3549906
51
359.7179418
0
ARC
8
DEFAULT_255_1_234
10
23.7720201
20
108.7145142
40
0.3153459
50
325.2333722
51
332.8745602
0
ARC
8
DEFAULT_255_1_234
10
23.7872825
20
108.7038828
40
0.2967456
50
292.9802137
51
325.2392345
0
ARC
8
DEFAULT_255_1_234
10
23.7598199
20
108.7572863
40
0.3566604
50
292.5402179
51
293.6924929
0
ARC
8
DEFAULT_255_1_234
10
23.7990795
20
108.1118091
40
0.3307468
50
57.6435486
51
72.8625112
0
ARC
8
DEFAULT_255_1_234
10
23.8345295
20
108.1692549
40
0.2632492
50
36.7248896
51
57.4697979
0
ARC
8
DEFAULT_255_1_234
10
23.8333927
20
108.170522
40
0.2634081
50
8.0545065
51
36.356114
0
ARC
8
DEFAULT_255_1_234
10
23.7471112
20
108.1550174
40
0.3510261
50
359.8320645
51
8.5869982
0
ARC
8
DEFAULT_255_1_234
10
23.7095889
20
108.1502101
40
0.3885653
50
343.9829931
51
0.5571613
0
ARC
8
DEFAULT_255_1_234
10
23.7982086
20
108.1259438
40
0.2966924
50
311.6359546
51
343.7651759
0
ARC
8
DEFAULT_255_1_234
10
23.7603655
20
108.1686102
40
0.3537231
50
279.7829875
51
311.6255694
0
ARC
8
DEFAULT_255_1_234
10
23.7302431
20
108.312328
40
0.5004971
50
269.7286406
51
280.3856417
0
ARC
8
DEFAULT_255_1_234
10
23.7240504
20
108.3081996
40
0.4963778
50
256.6828919
51
270.4412052
0
ARC
8
DEFAULT_255_1_234
10
23.69018
20
108.1697394
40
0.3538406
50
229.4223008
51
256.8556159
0
ARC
8
DEFAULT_255_1_234
10
23.6487192
20
108.1230736
40
0.2914296
50
181.818294
51
229.6455059
0
ARC
8
DEFAULT_255_1_234
10
23.7527149
20
108.1361496
40
0.3959084
50
179.9755256
51
183.2323064
0
ARC
8
DEFAULT_255_1_234
10
23.7354894
20
108.1341037
40
0.2293034
50
179.4465117
51
196.2869258
0
ARC
8
DEFAULT_255_1_234
10
23.6867302
20
108.1207651
40
0.1787621
50
196.5661473
51
227.705904
0
ARC
8
DEFAULT_255_1_234
10
23.7031397
20
108.1391155
40
0.2033784
50
227.7652068
51
257.8762805
0
ARC
8
DEFAULT_255_1_234
10
23.7256367
20
108.2334156
40
0.3003081
50
257.4584385
51
270.426602
0
ARC
8
DEFAULT_255_1_234
10
23.7301934
20
108.2623996
40
0.329292
50
269.5962073
51
280.8789248
0
ARC
8
DEFAULT_255_1_234
10
23.7531462
20
108.1477685
40
0.2123908
50
280.6346389
51
299.8595945
0
ARC
8
DEFAULT_255_1_234
10
23.7722369
20
108.1115212
40
0.171457
50
300.3576302
51
314.5517981
0
ARC
8
DEFAULT_255_1_234
10
23.7639429
20
108.1175919
40
0.1816095
50
315.0728369
51
345.0431014
0
ARC
8
DEFAULT_255_1_234
10
23.6716244
20
108.1444841
40
0.2777492
50
344.5986631
51
357.9269593
0
ARC
8
DEFAULT_255_1_234
10
23.582057
20
108.1506276
40
0.3674917
50
357.4748886
51
0.0231117
0
ARC
8
DEFAULT_255_1_234
10
23.6843679
20
108.1530679
40
0.2651907
50
359.5047933
51
13.4239635
0
ARC
8
DEFAULT_255_1_234
10
23.7710323
20
108.1752478
40
0.1757509
50
12.9498199
51
48.7551375
0
ARC
8
DEFAULT_255_1_234
10
23.7528057
20
108.15034
40
0.2065134
50
49.5088623
51
72.1836453
0
ARC
8
DEFAULT_255_1_234
10
23.7170209
20
108.0441291
40
0.3185836
50
71.9010081
51
84.3554254
0
ARC
8
DEFAULT_255_1_234
10
23.7008841
20
107.9080326
40
0.4556151
50
84.0193428
51
89.333121
0
LINE
8
DEFAULT_255_1_234
10
22.6540293
20
115.7654
11
22.5423881
21
116.0706061
0
LINE
8
DEFAULT_255_1_234
10
22.5423881
20
116.0706061
11
22.0524521
21
116.0706061
0
LINE
8
DEFAULT_255_1_234
10
22.0524521
20
116.0706061
11
21.9424173
21
115.7654
0
LINE
8
DEFAULT_255_1_234
10
21.9424173
20
115.7654
11
21.7833889
21
115.7654
0
LINE
8
DEFAULT_255_1_234
10
21.7833889
20
115.7654
11
22.2299535
21
116.9348211
0
LINE
8
DEFAULT_255_1_234
10
22.2299535
20
116.9348211
11
22.3648867
21
116.9348211
0
LINE
8
DEFAULT_255_1_234
10
22.3648867
20
116.9348211
11
22.8122545
21
115.7654
0
LINE
8
DEFAULT_255_1_234
10
22.8122545
20
115.7654
11
22.6540293
21
115.7654
0
LINE
8
DEFAULT_255_1_234
10
22.2974201
20
116.7444689
11
22.0990362
21
116.1975075
0
LINE
8
DEFAULT_255_1_234
10
22.0990362
20
116.1975075
11
22.4966072
21
116.1975075
0
LINE
8
DEFAULT_255_1_234
10
22.4966072
20
116.1975075
11
22.2974201
21
116.7444689
0
LINE
8
DEFAULT_255_1_234
10
23.1351304
20
116.9348211
11
23.1351304
21
115.7654
0
LINE
8
DEFAULT_255_1_234
10
23.1351304
20
115.7654
11
22.980921
21
115.7654
0
LINE
8
DEFAULT_255_1_234
10
22.980921
20
115.7654
11
22.980921
21
116.9348211
0
LINE
8
DEFAULT_255_1_234
10
22.980921
20
116.9348211
11
23.1351304
21
116.9348211
0
LINE
8
DEFAULT_255_1_234
10
24.1447199
20
115.8866792
11
24.1447199
21
115.7654
0
LINE
8
DEFAULT_255_1_234
10
24.1447199
20
115.7654
11
23.3784921
21
115.7654
0
LINE
8
DEFAULT_255_1_234
10
23.3784921
20
115.7654
11
23.3784921
21
115.8722221
0
LINE
8
DEFAULT_255_1_234
10
23.3784921
20
115.8722221
11
23.7832917
21
116.3219995
0
LINE
8
DEFAULT_255_1_234
10
23.5045904
20
116.5902595
11
23.3560032
21
116.5902595
0
LINE
8
DEFAULT_255_1_234
10
23.8708376
20
116.2264218
11
23.5575999
21
115.8866792
0
LINE
8
DEFAULT_255_1_234
10
23.5575999
20
115.8866792
11
24.1447199
21
115.8866792
0
ARC
8
DEFAULT_255_1_234
10
22.434275
20
117.5149527
40
1.8008286
50
318.5132453
51
320.7828378
0
ARC
8
DEFAULT_255_1_234
10
22.9629725
20
117.0846426
40
1.1191493
50
320.7372736
51
323.9737074
0
ARC
8
DEFAULT_255_1_234
10
23.3549581
20
116.8006361
40
0.6350923
50
323.8961724
51
328.6421089
0
ARC
8
DEFAULT_255_1_234
10
23.5596177
20
116.6744031
40
0.3946393
50
328.8299013
51
331.789948
0
ARC
8
DEFAULT_255_1_234
10
23.6593355
20
116.6229509
40
0.2824501
50
331.4255242
51
352.9364833
0
ARC
8
DEFAULT_255_1_234
10
23.6729856
20
116.6198976
40
0.2685315
50
353.2248685
51
0.0169286
0
ARC
8
DEFAULT_255_1_234
10
23.6939732
20
116.622195
40
0.2475536
50
359.4866256
51
15.9339782
0
ARC
8
DEFAULT_255_1_234
10
23.7446718
20
116.6358286
40
0.1950618
50
16.1714718
51
43.5284424
0
ARC
8
DEFAULT_255_1_234
10
23.7524026
20
116.6435573
40
0.184134
50
43.4415429
51
83.1661404
0
ARC
8
DEFAULT_255_1_234
10
23.7389945
20
116.5698771
40
0.258926
50
82.160215
51
90.1505798
0
ARC
8
DEFAULT_255_1_234
10
23.7358372
20
116.5161865
40
0.3126255
50
89.5460705
51
102.5418777
0
ARC
8
DEFAULT_255_1_234
10
23.7115458
20
116.6192665
40
0.2067346
50
102.1739365
51
129.2061916
0
ARC
8
DEFAULT_255_1_234
10
23.703653
20
116.6317094
40
0.1921118
50
129.7279328
51
135.7542026
0
ARC
8
DEFAULT_255_1_234
10
23.7158057
20
116.6220045
40
0.2075944
50
136.175737
51
166.3674722
0
ARC
8
DEFAULT_255_1_234
10
23.8164977
20
116.5950182
40
0.3118201
50
165.9092917
51
178.8683903
0
ARC
8
DEFAULT_255_1_234
10
23.9029838
20
116.5903179
40
0.3983935
50
178.438168
51
180.0083905
0
ARC
8
DEFAULT_255_1_234
10
23.762844
20
116.5942231
40
0.4068601
50
163.2878735
51
180.5581814
0
ARC
8
DEFAULT_255_1_234
10
23.6826701
20
116.616284
40
0.3237344
50
133.454115
51
162.9470031
0
ARC
8
DEFAULT_255_1_234
10
23.7005243
20
116.5973
40
0.349795
50
100.7869394
51
133.4384016
0
ARC
8
DEFAULT_255_1_234
10
23.7353014
20
116.4424319
40
0.5084616
50
89.6605301
51
101.3704185
0
ARC
8
DEFAULT_255_1_234
10
23.7419353
20
116.4485496
40
0.502348
50
78.2171172
51
90.4130393
0
ARC
8
DEFAULT_255_1_234
10
23.7774431
20
116.6109637
40
0.3361092
50
55.9268222
51
78.4888551
0
ARC
8
DEFAULT_255_1_234
10
23.7970872
20
116.6448324
40
0.2970617
50
47.9292255
51
55.4054003
0
ARC
8
DEFAULT_255_1_234
10
23.8072432
20
116.6551502
40
0.2825983
50
4.3347696
51
48.0560701
0
ARC
8
DEFAULT_255_1_234
10
23.6976826
20
116.6381601
40
0.393225
50
359.925209
51
5.5967654
0
ARC
8
DEFAULT_255_1_234
10
23.7405718
20
116.6437816
40
0.3503892
50
337.8914096
51
358.9967724
0
ARC
8
DEFAULT_255_1_234
10
23.469213
20
116.7484706
40
0.6412172
50
326.9135351
51
338.3505194
0
ARC
8
DEFAULT_255_1_234
10
23.0706433
20
117.0039284
40
1.1146189
50
319.6472867
51
327.095818
0
ARC
8
DEFAULT_255_1_234
10
22.6873437
20
117.3201
40
1.6114559
50
317.2586784
51
319.9046139
0
LINE
8
DEFAULT_255_1_234
10
22.6616293
20
123.7029
11
22.5499881
21
124.0081061
0
LINE
8
DEFAULT_255_1_234
10
22.5499881
20
124.0081061
11
22.0600521
21
124.0081061
0
LINE
8
DEFAULT_255_1_234
10
22.0600521
20
124.0081061
11
21.9500173
21
123.7029
0
LINE
8
DEFAULT_255_1_234
10
21.9500173
20
123.7029
11
21.7909889
21
123.7029
0
LINE
8
DEFAULT_255_1_234
10
21.7909889
20
123.7029
11
22.2375535
21
124.8723211
0
LINE
8
DEFAULT_255_1_234
10
22.2375535
20
124.8723211
11
22.3724867
21
124.8723211
0
LINE
8
DEFAULT_255_1_234
10
22.3724867
20
124.8723211
11
22.8198545
21
123.7029
0
LINE
8
DEFAULT_255_1_234
10
22.8198545
20
123.7029
11
22.6616293
21
123.7029
0
LINE
8
DEFAULT_255_1_234
10
22.3050201
20
124.6819689
11
22.1066362
21
124.1350075
0
LINE
8
DEFAULT_255_1_234
10
22.1066362
20
124.1350075
11
22.5042072
21
124.1350075
0
LINE
8
DEFAULT_255_1_234
10
22.5042072
20
124.1350075
11
22.3050201
21
124.6819689
0
LINE
8
DEFAULT_255_1_234
10
23.1427304
20
124.8723211
11
23.1427304
21
123.7029
0
LINE
8
DEFAULT_255_1_234
10
23.1427304
20
123.7029
11
22.988521
21
123.7029
0
LINE
8
DEFAULT_255_1_234
10
22.988521
20
123.7029
11
22.988521
21
124.8723211
0
LINE
8
DEFAULT_255_1_234
10
22.988521
20
124.8723211
11
23.1427304
21
124.8723211
0
LINE
8
DEFAULT_255_1_234
10
23.8744218
20
124.8779433
11
23.8744218
21
123.7029
0
LINE
8
DEFAULT_255_1_234
10
23.8744218
20
123.7029
11
23.7250314
21
123.7029
0
LINE
8
DEFAULT_255_1_234
10
23.7250314
20
123.7029
11
23.7250314
21
124.6932133
0
LINE
8
DEFAULT_255_1_234
10
23.7250314
20
124.6932133
11
23.4254476
21
124.5831785
0
LINE
8
DEFAULT_255_1_234
10
23.4254476
20
124.5831785
11
23.4254476
21
124.7181117
0
LINE
8
DEFAULT_255_1_234
10
23.4254476
20
124.7181117
11
23.8511297
21
124.8779433
0
LINE
8
DEFAULT_255_1_234
10
23.8511297
20
124.8779433
11
23.8744218
21
124.8779433
0
LINE
8
DEFAULT_255_1_234
10
22.6540293
20
131.6404
11
22.5423881
21
131.9456061
0
LINE
8
DEFAULT_255_1_234
10
22.5423881
20
131.9456061
11
22.0524521
21
131.9456061
0
LINE
8
DEFAULT_255_1_234
10
22.0524521
20
131.9456061
11
21.9424173
21
131.6404
0
LINE
8
DEFAULT_255_1_234
10
21.9424173
20
131.6404
11
21.7833889
21
131.6404
0
LINE
8
DEFAULT_255_1_234
10
21.7833889
20
131.6404
11
22.2299535
21
132.8098211
0
LINE
8
DEFAULT_255_1_234
10
22.2299535
20
132.8098211
11
22.3648867
21
132.8098211
0
LINE
8
DEFAULT_255_1_234
10
22.3648867
20
132.8098211
11
22.8122545
21
131.6404
0
LINE
8
DEFAULT_255_1_234
10
22.8122545
20
131.6404
11
22.6540293
21
131.6404
0
LINE
8
DEFAULT_255_1_234
10
22.2974201
20
132.6194689
11
22.0990362
21
132.0725075
0
LINE
8
DEFAULT_255_1_234
10
22.0990362
20
132.0725075
11
22.4966072
21
132.0725075
0
LINE
8
DEFAULT_255_1_234
10
22.4966072
20
132.0725075
11
22.2974201
21
132.6194689
0
LINE
8
DEFAULT_255_1_234
10
23.1351304
20
132.8098211
11
23.1351304
21
131.6404
0
LINE
8
DEFAULT_255_1_234
10
23.1351304
20
131.6404
11
22.980921
21
131.6404
0
LINE
8
DEFAULT_255_1_234
10
22.980921
20
131.6404
11
22.980921
21
132.8098211
0
LINE
8
DEFAULT_255_1_234
10
22.980921
20
132.8098211
11
23.1351304
21
132.8098211
0
LINE
8
DEFAULT_255_1_234
10
24.1117898
20
132.3319327
11
24.1117898
21
132.1391709
0
LINE
8
DEFAULT_255_1_234
10
23.373673
20
132.1190916
11
23.373673
21
132.3174755
0
LINE
8
DEFAULT_255_1_234
10
23.9632026
20
132.0990123
11
23.9632026
21
132.3423739
0
LINE
8
DEFAULT_255_1_234
10
23.5222602
20
132.3536184
11
23.5222602
21
132.1158789
0
ARC
8
DEFAULT_255_1_234
10
22.8870788
20
132.1342805
40
1.2247208
50
353.8441951
51
0.2287902
0
ARC
8
DEFAULT_255_1_234
10
23.3510291
20
132.0824806
40
0.7578929
50
344.4934747
51
353.9765454
0
ARC
8
DEFAULT_255_1_234
10
23.6502881
20
131.9973981
40
0.4467846
50
329.2803592
51
344.7472793
0
ARC
8
DEFAULT_255_1_234
10
23.7495706
20
131.9429018
40
0.3336173
50
324.9352394
51
328.6160465
0
ARC
8
DEFAULT_255_1_234
10
23.7872815
20
131.9165427
40
0.2876076
50
280.580143
51
324.9173126
0
ARC
8
DEFAULT_255_1_234
10
23.7471608
20
132.0836099
40
0.4592847
50
269.5977311
51
281.6734359
0
ARC
8
DEFAULT_255_1_234
10
23.7399513
20
132.0716173
40
0.4472986
50
256.6228859
51
270.51044
0
ARC
8
DEFAULT_255_1_234
10
23.6997491
20
131.9167877
40
0.2873874
50
215.8618325
51
257.2788573
0
ARC
8
DEFAULT_255_1_234
10
23.8018523
20
131.9852977
40
0.4102928
50
197.9693508
51
215.2623606
0
ARC
8
DEFAULT_255_1_234
10
24.0503638
20
132.0691709
40
0.6725652
50
187.8816417
51
198.2346507
0
ARC
8
DEFAULT_255_1_234
10
24.4461846
20
132.1263079
40
1.0724845
50
180.8976217
51
188.0055519
0
ARC
8
DEFAULT_255_1_234
10
24.7262035
20
132.1366777
40
1.3526448
50
180.7449369
51
181.1510016
0
ARC
8
DEFAULT_255_1_234
10
24.5684764
20
132.3223042
40
1.1948131
50
173.7675579
51
180.231553
0
ARC
8
DEFAULT_255_1_234
10
24.116691
20
132.3733666
40
0.7401564
50
164.3058563
51
173.9002247
0
ARC
8
DEFAULT_255_1_234
10
23.8254979
20
132.4572656
40
0.4371288
50
148.7922025
51
164.568378
0
ARC
8
DEFAULT_255_1_234
10
23.7303431
20
132.5103929
40
0.3282386
50
144.5883898
51
148.1176286
0
ARC
8
DEFAULT_255_1_234
10
23.6960329
20
132.5343315
40
0.2864044
50
101.6440918
51
144.514236
0
ARC
8
DEFAULT_255_1_234
10
23.7385396
20
132.3654069
40
0.4604934
50
89.5284041
51
102.5819763
0
ARC
8
DEFAULT_255_1_234
10
23.7464484
20
132.3615018
40
0.464401
50
77.0437873
51
90.5081339
0
ARC
8
DEFAULT_255_1_234
10
23.7866485
20
132.5257615
40
0.2953195
50
48.2778575
51
77.4994676
0
ARC
8
DEFAULT_255_1_234
10
23.7939117
20
132.5386746
40
0.2808655
50
36.3142134
51
47.6305865
0
ARC
8
DEFAULT_255_1_234
10
23.7070424
20
132.4801515
40
0.3855453
50
18.2931786
51
35.6769206
0
ARC
8
DEFAULT_255_1_234
10
23.4527183
20
132.3928593
40
0.654423
50
8.024666
51
18.5605216
0
ARC
8
DEFAULT_255_1_234
10
23.0364103
20
132.3313792
40
1.0752407
50
1.1274072
51
8.1718305
0
ARC
8
DEFAULT_255_1_234
10
22.7128293
20
132.3186885
40
1.3990231
50
0.5424119
51
1.3863029
0
ARC
8
DEFAULT_255_1_234
10
22.8949671
20
132.3459342
40
1.0682415
50
359.8090433
51
4.9407866
0
ARC
8
DEFAULT_255_1_234
10
23.3159685
20
132.3835113
40
0.6455691
50
4.8362157
51
12.2904523
0
ARC
8
DEFAULT_255_1_234
10
23.59148
20
132.4448965
40
0.3633074
50
12.0805627
51
23.8173984
0
ARC
8
DEFAULT_255_1_234
10
23.7088505
20
132.4945919
40
0.2358723
50
24.2871213
51
31.3935614
0
ARC
8
DEFAULT_255_1_234
10
23.7613202
20
132.5289233
40
0.1732111
50
30.7407893
51
82.4657128
0
ARC
8
DEFAULT_255_1_234
10
23.7433337
20
132.4405691
40
0.263235
50
81.1060089
51
90.2184952
0
ARC
8
DEFAULT_255_1_234
10
23.7397636
20
132.4663924
40
0.2374236
50
89.3806855
51
105.6762551
0
ARC
8
DEFAULT_255_1_234
10
23.7214266
20
132.5330567
40
0.1682847
50
105.7981136
51
149.7388061
0
ARC
8
DEFAULT_255_1_234
10
23.8278344
20
132.469095
40
0.2924306
50
149.4208916
51
163.6286378
0
ARC
8
DEFAULT_255_1_234
10
24.0369233
20
132.405325
40
0.5110213
50
163.3763315
51
172.1410975
0
ARC
8
DEFAULT_255_1_234
10
24.3669951
20
132.3580518
40
0.8444586
50
172.0259487
51
178.0703232
0
ARC
8
DEFAULT_255_1_234
10
24.6700041
20
132.3436906
40
1.1477868
50
177.8631668
51
179.5044149
0
ARC
8
DEFAULT_255_1_234
10
24.5627445
20
132.1122389
40
1.0404907
50
179.7995573
51
185.2460446
0
ARC
8
DEFAULT_255_1_234
10
24.1584485
20
132.0739513
40
0.6343885
50
185.1411642
51
193.0079639
0
ARC
8
DEFAULT_255_1_234
10
23.8940957
20
132.0114641
40
0.3627568
50
192.7897626
51
205.2507664
0
ARC
8
DEFAULT_255_1_234
10
23.7894504
20
131.9647415
40
0.2481908
50
205.8005384
51
211.2537509
0
ARC
8
DEFAULT_255_1_234
10
23.7370945
20
131.929658
40
0.1852521
50
210.3789793
51
238.4008143
0
ARC
8
DEFAULT_255_1_234
10
23.7351467
20
131.9343376
40
0.1882621
50
239.6520629
51
265.9793761
0
ARC
8
DEFAULT_255_1_234
10
23.7436667
20
132.0015427
40
0.2559272
50
265.1315437
51
270.060332
0
ARC
8
DEFAULT_255_1_234
10
23.7465446
20
131.9691534
40
0.2235528
50
269.3314664
51
287.2178029
0
ARC
8
DEFAULT_255_1_234
10
23.7603298
20
131.9188279
40
0.1714108
50
287.7958004
51
329.080874
0
ARC
8
DEFAULT_255_1_234
10
23.6645754
20
131.978593
40
0.2842745
50
328.6634704
51
343.3325132
0
ARC
8
DEFAULT_255_1_234
10
23.4472774
20
132.0462863
40
0.5118644
50
343.0499468
51
351.9393422
0
ARC
8
DEFAULT_255_1_234
10
23.1006074
20
132.0973949
40
0.8622784
50
351.8069023
51
357.7959224
0
ARC
8
DEFAULT_255_1_234
10
22.777063
20
132.1141721
40
1.1862365
50
357.5871873
51
359.2677531
0
ENDSEC
0
EOF