0
SECTION
2
HEADER
9
$MEASUREMENT
70
1
0
ENDSEC
0
SECTION
2
TABLES
0
TABLE
2
LTYPE
0
LTYPE
72
65
70
64
2
CONTINUOUS
3
______
73
0
40
0
0
ENDTAB
0
TABLE
2
LAYER
0
LAYER
2
DEFAULT_255_2_778
70
0
62
255
6
CONTINUOUS
0
LAYER
2
DEFAULT_255_1_234
70
0
62
255
6
CONTINUOUS
0
LAYER
2
DEFAULT_255_2_778_1
70
0
62
255
6
CONTINUOUS
0
ENDTAB
0
ENDSEC
0
SECTION
2
ENTITIES
0
ARC
8
DEFAULT_255_2_778
10
3.5700693
20
59.9302032
40
0.7914215
50
129.1312896
51
180.1450914
0
ARC
8
DEFAULT_255_2_778
10
3.5703345
20
59.9306904
40
0.7912112
50
89.854026
51
129.1684493
0
ARC
8
DEFAULT_255_2_778
10
25.7993937
20
59.9303769
40
0.7915249
50
39.4792447
51
90.147911
0
ARC
8
DEFAULT_255_2_778
10
25.7999935
20
59.9302236
40
0.7911595
50
359.8533901
51
39.5154338
0
ARC
8
DEFAULT_255_2_778
10
25.7996693
20
-1.986349
40
0.7914836
50
309.4761667
51
0.1482649
0
ARC
8
DEFAULT_255_2_778
10
25.799398
20
-1.9867801
40
0.7913235
50
269.8517415
51
309.511178
0
ARC
8
DEFAULT_255_2_778
10
3.570342
20
-1.9867219
40
0.7913815
50
219.1282118
51
270.1454017
0
ARC
8
DEFAULT_255_2_778
10
3.5700247
20
-1.9863394
40
0.7913769
50
179.8524075
51
219.1641908
0
LINE
8
DEFAULT_255_2_778
10
3.5723503
20
60.7218991
11
25.7973503
21
60.7218991
0
LINE
8
DEFAULT_255_2_778
10
26.5911503
20
59.9281991
11
26.5911503
21
-1.9843009
0
LINE
8
DEFAULT_255_2_778
10
25.7973503
20
-2.7781009
11
3.5723503
21
-2.7781009
0
LINE
8
DEFAULT_255_2_778
10
2.7786503
20
-1.9843009
11
2.7786503
21
59.9281991
0
LINE
8
DEFAULT_255_1_234
10
12.6118293
20
-0.6513
11
12.5001881
21
-0.3460939
0
LINE
8
DEFAULT_255_1_234
10
12.5001881
20
-0.3460939
11
12.0102521
21
-0.3460939
0
LINE
8
DEFAULT_255_1_234
10
12.0102521
20
-0.3460939
11
11.9002173
21
-0.6513
0
LINE
8
DEFAULT_255_1_234
10
11.9002173
20
-0.6513
11
11.7411889
21
-0.6513
0
LINE
8
DEFAULT_255_1_234
10
11.7411889
20
-0.6513
11
12.1877535
21
0.5181211
0
LINE
8
DEFAULT_255_1_234
10
12.1877535
20
0.5181211
11
12.3226867
21
0.5181211
0
LINE
8
DEFAULT_255_1_234
10
12.3226867
20
0.5181211
11
12.7700545
21
-0.6513
0
LINE
8
DEFAULT_255_1_234
10
12.7700545
20
-0.6513
11
12.6118293
21
-0.6513
0
LINE
8
DEFAULT_255_1_234
10
12.2552201
20
0.3277689
11
12.0568362
21
-0.2191925
0
LINE
8
DEFAULT_255_1_234
10
12.0568362
20
-0.2191925
11
12.4544072
21
-0.2191925
0
LINE
8
DEFAULT_255_1_234
10
12.4544072
20
-0.2191925
11
12.2552201
21
0.3277689
0
LINE
8
DEFAULT_255_1_234
10
13.0270702
20
0.5181211
11
13.3089842
21
0.0699501
0
LINE
8
DEFAULT_255_1_234
10
13.3089842
20
0.0699501
11
13.5892918
21
0.5181211
0
LINE
8
DEFAULT_255_1_234
10
13.5892918
20
0.5181211
11
13.7708091
21
0.5181211
0
LINE
8
DEFAULT_255_1_234
10
13.7708091
20
0.5181211
11
13.4013492
21
-0.0617704
0
LINE
8
DEFAULT_255_1_234
10
13.4013492
20
-0.0617704
11
13.779644
21
-0.6513
0
LINE
8
DEFAULT_255_1_234
10
13.779644
20
-0.6513
11
13.5965204
21
-0.6513
0
LINE
8
DEFAULT_255_1_234
10
13.5965204
20
-0.6513
11
13.3089842
21
-0.1950973
0
LINE
8
DEFAULT_255_1_234
10
13.3089842
20
-0.1950973
11
13.0198416
21
-0.6513
0
LINE
8
DEFAULT_255_1_234
10
13.0198416
20
-0.6513
11
12.8375211
21
-0.6513
0
LINE
8
DEFAULT_255_1_234
10
12.8375211
20
-0.6513
11
13.2166192
21
-0.0617704
0
LINE
8
DEFAULT_255_1_234
10
13.2166192
20
-0.0617704
11
12.8463561
21
0.5181211
0
LINE
8
DEFAULT_255_1_234
10
12.8463561
20
0.5181211
11
13.0270702
21
0.5181211
0
LINE
8
DEFAULT_255_1_234
10
14.107339
20
-0.0955037
11
13.9884692
21
-0.0649831
0
LINE
8
DEFAULT_255_1_234
10
13.9884692
20
-0.0649831
11
14.0479041
21
0.5181211
0
LINE
8
DEFAULT_255_1_234
10
14.0479041
20
0.5181211
11
14.6470718
21
0.5181211
0
LINE
8
DEFAULT_255_1_234
10
14.6470718
20
0.5181211
11
14.6470718
21
0.3807784
0
LINE
8
DEFAULT_255_1_234
10
14.6470718
20
0.3807784
11
14.1740024
21
0.3807784
0
LINE
8
DEFAULT_255_1_234
10
14.1740024
20
0.3807784
11
14.1386627
21
0.0619184
0
LINE
8
DEFAULT_255_1_234
10
13.9467042
20
-0.3436844
11
14.0872596
21
-0.3436844
0
LINE
8
DEFAULT_255_1_234
10
14.1466945
20
-0.0633768
11
14.107339
21
-0.0955037
0
ARC
8
DEFAULT_255_1_234
10
14.3241411
20
-0.256077
40
0.3681349
50
93.7182161
51
120.2538958
0
ARC
8
DEFAULT_255_1_234
10
14.3335674
20
-0.3368606
40
0.449379
50
89.9660152
51
94.2496022
0
ARC
8
DEFAULT_255_1_234
10
14.3376408
20
-0.2779451
40
0.390482
50
73.8043271
51
90.5585896
0
ARC
8
DEFAULT_255_1_234
10
14.3611305
20
-0.1921398
40
0.3015334
50
41.3071453
51
73.5430202
0
ARC
8
DEFAULT_255_1_234
10
14.3195133
20
-0.2279676
40
0.3564457
50
13.5075983
51
41.2174222
0
ARC
8
DEFAULT_255_1_234
10
14.1553336
20
-0.2709514
40
0.5261351
50
1.1331335
51
13.8829381
0
ARC
8
DEFAULT_255_1_234
10
14.0141705
20
-0.2785335
40
0.6674378
50
359.9919444
51
1.544251
0
ARC
8
DEFAULT_255_1_234
10
14.1418532
20
-0.282672
40
0.5397702
50
347.8572367
51
0.4293338
0
ARC
8
DEFAULT_255_1_234
10
14.3168849
20
-0.3223264
40
0.3603188
50
323.673004
51
348.1672506
0
ARC
8
DEFAULT_255_1_234
10
14.3463357
20
-0.3402832
40
0.3259678
50
316.8171152
51
323.1492751
0
ARC
8
DEFAULT_255_1_234
10
14.3524546
20
-0.343954
40
0.3189975
50
281.8396411
51
316.5457803
0
ARC
8
DEFAULT_255_1_234
10
14.314881
20
-0.1884238
40
0.4789527
50
269.5770101
51
282.4214771
0
ARC
8
DEFAULT_255_1_234
10
14.3077622
20
-0.2097875
40
0.45759
50
256.2427136
51
270.4486331
0
ARC
8
DEFAULT_255_1_234
10
14.2778524
20
-0.3297771
40
0.3339303
50
228.9023911
51
256.3314342
0
ARC
8
DEFAULT_255_1_234
10
14.2704757
20
-0.3414254
40
0.32031
50
193.753695
51
228.5271154
0
ARC
8
DEFAULT_255_1_234
10
14.394271
20
-0.30512
40
0.4492253
50
184.924711
51
194.497588
0
ARC
8
DEFAULT_255_1_234
10
14.4135277
20
-0.3015409
40
0.3289787
50
187.3600538
51
198.6732863
0
ARC
8
DEFAULT_255_1_234
10
14.3085571
20
-0.3379326
40
0.217884
50
198.4451669
51
217.794479
0
ARC
8
DEFAULT_255_1_234
10
14.2789747
20
-0.3588915
40
0.1816698
50
218.2887171
51
228.5612368
0
ARC
8
DEFAULT_255_1_234
10
14.2887534
20
-0.3457037
40
0.1980329
50
228.9654866
51
258.1234728
0
ARC
8
DEFAULT_255_1_234
10
14.3093243
20
-0.2576167
40
0.2884748
50
257.7258293
51
270.401361
0
ARC
8
DEFAULT_255_1_234
10
14.313813
20
-0.3021179
40
0.2439788
50
269.4204404
51
286.4209037
0
ARC
8
DEFAULT_255_1_234
10
14.3286617
20
-0.3560343
40
0.1880666
50
286.7251356
51
320.600362
0
ARC
8
DEFAULT_255_1_234
10
14.2903442
20
-0.3249405
40
0.2374121
50
320.6712579
51
344.5441685
0
ARC
8
DEFAULT_255_1_234
10
14.1746768
20
-0.2909955
40
0.3579479
50
344.2412205
51
356.7357071
0
ARC
8
DEFAULT_255_1_234
10
14.0497917
20
-0.2806556
40
0.4832297
50
356.3548756
51
0.0500261
0
ARC
8
DEFAULT_255_1_234
10
14.1834426
20
-0.277535
40
0.3495889
50
359.5576869
51
12.953486
0
ARC
8
DEFAULT_255_1_234
10
14.2889324
20
-0.2519566
40
0.2410532
50
12.6490276
51
41.6081334
0
ARC
8
DEFAULT_255_1_234
10
14.3119695
20
-0.2323679
40
0.2108218
50
41.7850273
51
85.9892764
0
ARC
8
DEFAULT_255_1_234
10
14.2996431
20
-0.3136538
40
0.2928454
50
84.6957577
51
90.0676183
0
ARC
8
DEFAULT_255_1_234
10
14.2972915
20
-0.3805284
40
0.3597255
50
89.6804936
51
99.1614436
0
ARC
8
DEFAULT_255_1_234
10
14.2767547
20
-0.2577869
40
0.235281
50
98.9830931
51
113.8908934
0
ARC
8
DEFAULT_255_1_234
10
14.2537957
20
-0.2036413
40
0.176479
50
114.1950727
51
127.3641004
0
LINE
8
DEFAULT_255_1_234
10
15.6100772
20
-0.5300208
11
15.6100772
21
-0.6513
0
LINE
8
DEFAULT_255_1_234
10
15.6100772
20
-0.6513
11
14.8438494
21
-0.6513
0
LINE
8
DEFAULT_255_1_234
10
14.8438494
20
-0.6513
11
14.8438494
21
-0.5444779
0
LINE
8
DEFAULT_255_1_234
10
14.8438494
20
-0.5444779
11
15.248649
21
-0.0947005
0
LINE
8
DEFAULT_255_1_234
10
14.9699477
20
0.1735595
11
14.8213605
21
0.1735595
0
LINE
8
DEFAULT_255_1_234
10
15.3361949
20
-0.1902782
11
15.0229571
21
-0.5300208
0
LINE
8
DEFAULT_255_1_234
10
15.0229571
20
-0.5300208
11
15.6100772
21
-0.5300208
0
ARC
8
DEFAULT_255_1_234
10
13.8996323
20
1.0982527
40
1.8008286
50
318.5132453
51
320.7828378
0
ARC
8
DEFAULT_255_1_234
10
14.4283297
20
0.6679426
40
1.1191493
50
320.7372736
51
323.9737074
0
ARC
8
DEFAULT_255_1_234
10
14.8203154
20
0.3839361
40
0.6350923
50
323.8961724
51
328.6421089
0
ARC
8
DEFAULT_255_1_234
10
15.0249749
20
0.2577031
40
0.3946393
50
328.8299013
51
331.789948
0
ARC
8
DEFAULT_255_1_234
10
15.1246928
20
0.2062509
40
0.2824501
50
331.4255242
51
352.9364833
0
ARC
8
DEFAULT_255_1_234
10
15.1383428
20
0.2031976
40
0.2685315
50
353.2248685
51
0.0169286
0
ARC
8
DEFAULT_255_1_234
10
15.1593305
20
0.205495
40
0.2475536
50
359.4866256
51
15.9339782
0
ARC
8
DEFAULT_255_1_234
10
15.2100291
20
0.2191286
40
0.1950618
50
16.1714718
51
43.5284424
0
ARC
8
DEFAULT_255_1_234
10
15.2177599
20
0.2268573
40
0.184134
50
43.4415429
51
83.1661404
0
ARC
8
DEFAULT_255_1_234
10
15.2043517
20
0.1531771
40
0.258926
50
82.160215
51
90.1505798
0
ARC
8
DEFAULT_255_1_234
10
15.2011945
20
0.0994865
40
0.3126255
50
89.5460705
51
102.5418777
0
ARC
8
DEFAULT_255_1_234
10
15.1769031
20
0.2025665
40
0.2067346
50
102.1739365
51
129.2061916
0
ARC
8
DEFAULT_255_1_234
10
15.1690103
20
0.2150094
40
0.1921118
50
129.7279328
51
135.7542026
0
ARC
8
DEFAULT_255_1_234
10
15.181163
20
0.2053045
40
0.2075944
50
136.175737
51
166.3674722
0
ARC
8
DEFAULT_255_1_234
10
15.2818549
20
0.1783182
40
0.3118201
50
165.9092917
51
178.8683903
0
ARC
8
DEFAULT_255_1_234
10
15.3683411
20
0.1736179
40
0.3983935
50
178.438168
51
180.0083905
0
ARC
8
DEFAULT_255_1_234
10
15.2282013
20
0.1775231
40
0.4068601
50
163.2878735
51
180.5581814
0
ARC
8
DEFAULT_255_1_234
10
15.1480274
20
0.199584
40
0.3237344
50
133.454115
51
162.9470031
0
ARC
8
DEFAULT_255_1_234
10
15.1658816
20
0.1806
40
0.349795
50
100.7869394
51
133.4384016
0
ARC
8
DEFAULT_255_1_234
10
15.2006587
20
0.0257319
40
0.5084616
50
89.6605301
51
101.3704185
0
ARC
8
DEFAULT_255_1_234
10
15.2072926
20
0.0318496
40
0.502348
50
78.2171172
51
90.4130393
0
ARC
8
DEFAULT_255_1_234
10
15.2428004
20
0.1942637
40
0.3361092
50
55.9268222
51
78.4888551
0
ARC
8
DEFAULT_255_1_234
10
15.2624444
20
0.2281324
40
0.2970617
50
47.9292255
51
55.4054003
0
ARC
8
DEFAULT_255_1_234
10
15.2726005
20
0.2384502
40
0.2825983
50
4.3347696
51
48.0560701
0
ARC
8
DEFAULT_255_1_234
10
15.1630399
20
0.2214601
40
0.393225
50
359.925209
51
5.5967654
0
ARC
8
DEFAULT_255_1_234
10
15.205929
20
0.2270816
40
0.3503892
50
337.8914096
51
358.9967724
0
ARC
8
DEFAULT_255_1_234
10
14.9345702
20
0.3317706
40
0.6412172
50
326.9135351
51
338.3505194
0
ARC
8
DEFAULT_255_1_234
10
14.5360006
20
0.5872284
40
1.1146189
50
319.6472867
51
327.095818
0
ARC
8
DEFAULT_255_1_234
10
14.1527009
20
0.9034
40
1.6114559
50
317.2586784
51
319.9046139
0
LINE
8
DEFAULT_255_1_234
10
16.255829
20
0.5237433
11
16.255829
21
-0.6513
0
LINE
8
DEFAULT_255_1_234
10
16.255829
20
-0.6513
11
16.1064386
21
-0.6513
0
LINE
8
DEFAULT_255_1_234
10
16.1064386
20
-0.6513
11
16.1064386
21
0.3390133
0
LINE
8
DEFAULT_255_1_234
10
16.1064386
20
0.3390133
11
15.8068548
21
0.2289785
0
LINE
8
DEFAULT_255_1_234
10
15.8068548
20
0.2289785
11
15.8068548
21
0.3639117
0
LINE
8
DEFAULT_255_1_234
10
15.8068548
20
0.3639117
11
16.2325369
21
0.5237433
0
LINE
8
DEFAULT_255_1_234
10
16.2325369
20
0.5237433
11
16.255829
21
0.5237433
0
LINE
8
DEFAULT_255_1_234
10
12.5963293
20
54.2497
11
12.4846881
21
54.5549061
0
LINE
8
DEFAULT_255_1_234
10
12.4846881
20
54.5549061
11
11.9947521
21
54.5549061
0
LINE
8
DEFAULT_255_1_234
10
11.9947521
20
54.5549061
11
11.8847173
21
54.2497
0
LINE
8
DEFAULT_255_1_234
10
11.8847173
20
54.2497
11
11.7256889
21
54.2497
0
LINE
8
DEFAULT_255_1_234
10
11.7256889
20
54.2497
11
12.1722535
21
55.4191211
0
LINE
8
DEFAULT_255_1_234
10
12.1722535
20
55.4191211
11
12.3071867
21
55.4191211
0
LINE
8
DEFAULT_255_1_234
10
12.3071867
20
55.4191211
11
12.7545545
21
54.2497
0
LINE
8
DEFAULT_255_1_234
10
12.7545545
20
54.2497
11
12.5963293
21
54.2497
0
LINE
8
DEFAULT_255_1_234
10
12.2397201
20
55.2287689
11
12.0413362
21
54.6818075
0
LINE
8
DEFAULT_255_1_234
10
12.0413362
20
54.6818075
11
12.4389072
21
54.6818075
0
LINE
8
DEFAULT_255_1_234
10
12.4389072
20
54.6818075
11
12.2397201
21
55.2287689
0
LINE
8
DEFAULT_255_1_234
10
13.6083283
20
54.6207663
11
13.7633409
21
54.6207663
0
LINE
8
DEFAULT_255_1_234
10
12.862983
20
54.7797947
11
12.862983
21
54.8922391
0
LINE
8
DEFAULT_255_1_234
10
13.7633409
20
55.0432357
11
13.6083283
21
55.0432357
0
LINE
8
DEFAULT_255_1_234
10
13.0179956
20
54.8882232
11
13.0179956
21
54.7749757
0
ARC
8
DEFAULT_255_1_234
10
13.2152796
20
54.6804846
40
0.5513052
50
340.1774281
51
353.7814284
0
ARC
8
DEFAULT_255_1_234
10
13.3724148
20
54.6219582
40
0.3836379
50
311.4558989
51
340.4421614
0
ARC
8
DEFAULT_255_1_234
10
13.3690816
20
54.6330528
40
0.3941894
50
282.4333181
51
310.7513653
0
ARC
8
DEFAULT_255_1_234
10
13.3251555
20
54.8145679
40
0.5809175
50
269.9358511
51
282.809604
0
ARC
8
DEFAULT_255_1_234
10
13.3199622
20
54.9603212
40
0.7266847
50
270.0021091
51
270.3581957
0
ARC
8
DEFAULT_255_1_234
10
13.3147039
20
54.7002585
40
0.4666519
50
250.7884749
51
270.6489167
0
ARC
8
DEFAULT_255_1_234
10
13.2978873
20
54.6365319
40
0.4009729
50
219.3627325
51
250.0611886
0
ARC
8
DEFAULT_255_1_234
10
13.3808084
20
54.7070042
40
0.5097822
50
193.5479632
51
219.5756669
0
ARC
8
DEFAULT_255_1_234
10
13.6179705
20
54.7685919
40
0.7547848
50
181.1218675
51
193.87563
0
ARC
8
DEFAULT_255_1_234
10
13.8249886
20
54.779658
40
0.9620055
50
179.9918545
51
181.5394234
0
ARC
8
DEFAULT_255_1_234
10
13.6398988
20
54.8959788
40
0.7769248
50
169.5837241
51
180.2757934
0
ARC
8
DEFAULT_255_1_234
10
13.4561926
20
54.9299229
40
0.590109
50
155.0365899
51
169.6003176
0
ARC
8
DEFAULT_255_1_234
10
13.342639
20
54.9846677
40
0.4640625
50
136.783148
51
155.2472683
0
ARC
8
DEFAULT_255_1_234
10
13.3036867
20
55.0177562
40
0.4130255
50
121.7633186
51
136.428115
0
ARC
8
DEFAULT_255_1_234
10
13.3171829
20
54.9928227
40
0.4413323
50
95.6459699
51
121.5490577
0
ARC
8
DEFAULT_255_1_234
10
13.3329111
20
54.8819949
40
0.55319
50
89.924208
51
96.1377933
0
ARC
8
DEFAULT_255_1_234
10
13.3379544
20
54.8938542
40
0.5413475
50
76.6779277
51
90.4563316
0
ARC
8
DEFAULT_255_1_234
10
13.3773167
20
55.0529114
40
0.3775041
50
47.485847
51
76.9287264
0
ARC
8
DEFAULT_255_1_234
10
13.362614
20
55.0429159
40
0.3948286
50
16.5424086
51
46.8933463
0
ARC
8
DEFAULT_255_1_234
10
13.2018297
20
54.9900861
40
0.564021
50
5.4072051
51
17.0365086
0
ARC
8
DEFAULT_255_1_234
10
13.0579314
20
54.9669679
40
0.5556559
50
7.8891745
51
15.9239216
0
ARC
8
DEFAULT_255_1_234
10
13.2566328
20
55.0246631
40
0.3487515
50
15.7653144
51
27.9410532
0
ARC
8
DEFAULT_255_1_234
10
13.3670546
20
55.083779
40
0.2235026
50
27.8166557
51
46.4008329
0
ARC
8
DEFAULT_255_1_234
10
13.3720188
20
55.0832082
40
0.2205286
50
47.4371857
51
75.0698205
0
ARC
8
DEFAULT_255_1_234
10
13.3411583
20
54.9757765
40
0.3322915
50
74.7008593
51
87.8124495
0
ARC
8
DEFAULT_255_1_234
10
13.333827
20
54.8701844
40
0.4380987
50
87.3814673
51
90.0240855
0
ARC
8
DEFAULT_255_1_234
10
13.3299814
20
54.9879291
40
0.3203749
50
89.3451631
51
108.5745436
0
ARC
8
DEFAULT_255_1_234
10
13.3162919
20
55.0392908
40
0.2673494
50
109.2998449
51
143.3037509
0
ARC
8
DEFAULT_255_1_234
10
13.3924992
20
54.9806881
40
0.3634757
50
143.0753173
51
163.1916937
0
ARC
8
DEFAULT_255_1_234
10
13.5876719
20
54.9190967
40
0.5681262
50
162.9373603
51
174.6208611
0
ARC
8
DEFAULT_255_1_234
10
13.8502761
20
54.890301
40
0.8322832
50
174.3419979
51
180.1430411
0
ARC
8
DEFAULT_255_1_234
10
13.7571918
20
54.7708698
40
0.7392076
50
179.6817502
51
189.150529
0
ARC
8
DEFAULT_255_1_234
10
13.5071166
20
54.729219
40
0.4856932
50
188.9910863
51
203.5773039
0
ARC
8
DEFAULT_255_1_234
10
13.3991498
20
54.6844211
40
0.3688271
50
203.9077269
51
215.1312379
0
ARC
8
DEFAULT_255_1_234
10
13.3068592
20
54.6128941
40
0.2522457
50
213.9071664
51
263.8849284
0
ARC
8
DEFAULT_255_1_234
10
13.3193921
20
54.6913518
40
0.3316174
50
263.1758525
51
270.1031083
0
ARC
8
DEFAULT_255_1_234
10
13.3226013
20
54.8160365
40
0.4563091
50
269.6719807
51
279.0609165
0
ARC
8
DEFAULT_255_1_234
10
13.3492781
20
54.6547907
40
0.2928759
50
278.8750225
51
293.6346586
0
ARC
8
DEFAULT_255_1_234
10
13.3812989
20
54.57959
40
0.2111472
50
293.8553404
51
310.0518804
0
ARC
8
DEFAULT_255_1_234
10
13.3817843
20
54.5733516
40
0.2060917
50
311.0646779
51
332.0108348
0
ARC
8
DEFAULT_255_1_234
10
13.262557
20
54.6390978
40
0.3422352
50
331.6588543
51
343.2878891
0
ARC
8
DEFAULT_255_1_234
10
13.0563085
20
54.7024798
40
0.5580003
50
343.1446044
51
351.010618
0
ARC
8
DEFAULT_255_1_234
10
12.9021731
20
54.7305871
40
0.7146438
50
350.7157277
51
351.1602153
0
LINE
8
DEFAULT_255_1_234
10
14.1223596
20
54.8054963
11
14.0034898
21
54.8360169
0
LINE
8
DEFAULT_255_1_234
10
14.0034898
20
54.8360169
11
14.0629247
21
55.4191211
0
LINE
8
DEFAULT_255_1_234
10
14.0629247
20
55.4191211
11
14.6620924
21
55.4191211
0
LINE
8
DEFAULT_255_1_234
10
14.6620924
20
55.4191211
11
14.6620924
21
55.2817784
0
LINE
8
DEFAULT_255_1_234
10
14.6620924
20
55.2817784
11
14.189023
21
55.2817784
0
LINE
8
DEFAULT_255_1_234
10
14.189023
20
55.2817784
11
14.1536833
21
54.9629184
0
LINE
8
DEFAULT_255_1_234
10
13.9617248
20
54.5573156
11
14.1022802
21
54.5573156
0
LINE
8
DEFAULT_255_1_234
10
14.1617151
20
54.8376232
11
14.1223596
21
54.8054963
0
ARC
8
DEFAULT_255_1_234
10
14.3391617
20
54.644923
40
0.3681349
50
93.7182161
51
120.2538958
0
ARC
8
DEFAULT_255_1_234
10
14.348588
20
54.5641394
40
0.449379
50
89.9660152
51
94.2496022
0
ARC
8
DEFAULT_255_1_234
10
14.3526614
20
54.6230549
40
0.390482
50
73.8043271
51
90.5585896
0
ARC
8
DEFAULT_255_1_234
10
14.3761511
20
54.7088602
40
0.3015334
50
41.3071453
51
73.5430202
0
ARC
8
DEFAULT_255_1_234
10
14.3345339
20
54.6730324
40
0.3564457
50
13.5075983
51
41.2174222
0
ARC
8
DEFAULT_255_1_234
10
14.1703542
20
54.6300486
40
0.5261351
50
1.1331335
51
13.8829381
0
ARC
8
DEFAULT_255_1_234
10
14.0291911
20
54.6224665
40
0.6674378
50
359.9919444
51
1.544251
0
ARC
8
DEFAULT_255_1_234
10
14.1568738
20
54.618328
40
0.5397702
50
347.8572367
51
0.4293338
0
ARC
8
DEFAULT_255_1_234
10
14.3319055
20
54.5786736
40
0.3603188
50
323.673004
51
348.1672506
0
ARC
8
DEFAULT_255_1_234
10
14.3613563
20
54.5607168
40
0.3259678
50
316.8171152
51
323.1492751
0
ARC
8
DEFAULT_255_1_234
10
14.3674752
20
54.557046
40
0.3189975
50
281.8396411
51
316.5457803
0
ARC
8
DEFAULT_255_1_234
10
14.3299016
20
54.7125762
40
0.4789527
50
269.5770101
51
282.4214771
0
ARC
8
DEFAULT_255_1_234
10
14.3227828
20
54.6912125
40
0.45759
50
256.2427136
51
270.4486331
0
ARC
8
DEFAULT_255_1_234
10
14.292873
20
54.5712229
40
0.3339303
50
228.9023911
51
256.3314342
0
ARC
8
DEFAULT_255_1_234
10
14.2854963
20
54.5595746
40
0.32031
50
193.753695
51
228.5271154
0
ARC
8
DEFAULT_255_1_234
10
14.4092917
20
54.59588
40
0.4492253
50
184.924711
51
194.497588
0
ARC
8
DEFAULT_255_1_234
10
14.4285483
20
54.5994591
40
0.3289787
50
187.3600538
51
198.6732863
0
ARC
8
DEFAULT_255_1_234
10
14.3235777
20
54.5630674
40
0.217884
50
198.4451669
51
217.794479
0
ARC
8
DEFAULT_255_1_234
10
14.2939953
20
54.5421085
40
0.1816698
50
218.2887171
51
228.5612368
0
ARC
8
DEFAULT_255_1_234
10
14.303774
20
54.5552963
40
0.1980329
50
228.9654866
51
258.1234728
0
ARC
8
DEFAULT_255_1_234
10
14.324345
20
54.6433833
40
0.2884748
50
257.7258293
51
270.401361
0
ARC
8
DEFAULT_255_1_234
10
14.3288336
20
54.5988821
40
0.2439788
50
269.4204404
51
286.4209037
0
ARC
8
DEFAULT_255_1_234
10
14.3436823
20
54.5449657
40
0.1880666
50
286.7251356
51
320.600362
0
ARC
8
DEFAULT_255_1_234
10
14.3053648
20
54.5760595
40
0.2374121
50
320.6712579
51
344.5441685
0
ARC
8
DEFAULT_255_1_234
10
14.1896975
20
54.6100045
40
0.3579479
50
344.2412205
51
356.7357071
0
ARC
8
DEFAULT_255_1_234
10
14.0648123
20
54.6203444
40
0.4832297
50
356.3548756
51
0.0500261
0
ARC
8
DEFAULT_255_1_234
10
14.1984632
20
54.623465
40
0.3495889
50
359.5576869
51
12.953486
0
ARC
8
DEFAULT_255_1_234
10
14.303953
20
54.6490434
40
0.2410532
50
12.6490276
51
41.6081334
0
ARC
8
DEFAULT_255_1_234
10
14.3269901
20
54.6686321
40
0.2108218
50
41.7850273
51
85.9892764
0
ARC
8
DEFAULT_255_1_234
10
14.3146637
20
54.5873462
40
0.2928454
50
84.6957577
51
90.0676183
0
ARC
8
DEFAULT_255_1_234
10
14.3123121
20
54.5204716
40
0.3597255
50
89.6804936
51
99.1614436
0
ARC
8
DEFAULT_255_1_234
10
14.2917753
20
54.6432131
40
0.235281
50
98.9830931
51
113.8908934
0
ARC
8
DEFAULT_255_1_234
10
14.2688163
20
54.6973587
40
0.176479
50
114.1950727
51
127.3641004
0
LINE
8
DEFAULT_255_1_234
10
15.5921677
20
54.9412327
11
15.5921677
21
54.7484709
0
LINE
8
DEFAULT_255_1_234
10
14.8540509
20
54.7283916
11
14.8540509
21
54.9267755
0
LINE
8
DEFAULT_255_1_234
10
15.4435805
20
54.7083123
11
15.4435805
21
54.9516739
0
LINE
8
DEFAULT_255_1_234
10
15.0026381
20
54.9629184
11
15.0026381
21
54.7251789
0
ARC
8
DEFAULT_255_1_234
10
14.3674566
20
54.7435805
40
1.2247208
50
353.8441951
51
0.2287902
0
ARC
8
DEFAULT_255_1_234
10
14.831407
20
54.6917806
40
0.7578929
50
344.4934747
51
353.9765454
0
ARC
8
DEFAULT_255_1_234
10
15.130666
20
54.6066981
40
0.4467846
50
329.2803592
51
344.7472793
0
ARC
8
DEFAULT_255_1_234
10
15.2299485
20
54.5522018
40
0.3336173
50
324.9352394
51
328.6160465
0
ARC
8
DEFAULT_255_1_234
10
15.2676594
20
54.5258427
40
0.2876076
50
280.580143
51
324.9173126
0
ARC
8
DEFAULT_255_1_234
10
15.2275386
20
54.6929099
40
0.4592847
50
269.5977311
51
281.6734359
0
ARC
8
DEFAULT_255_1_234
10
15.2203292
20
54.6809173
40
0.4472986
50
256.6228859
51
270.51044
0
ARC
8
DEFAULT_255_1_234
10
15.180127
20
54.5260877
40
0.2873874
50
215.8618325
51
257.2788573
0
ARC
8
DEFAULT_255_1_234
10
15.2822301
20
54.5945977
40
0.4102928
50
197.9693508
51
215.2623606
0
ARC
8
DEFAULT_255_1_234
10
15.5307417
20
54.6784709
40
0.6725652
50
187.8816417
51
198.2346507
0
ARC
8
DEFAULT_255_1_234
10
15.9265625
20
54.7356079
40
1.0724845
50
180.8976217
51
188.0055519
0
ARC
8
DEFAULT_255_1_234
10
16.2065813
20
54.7459777
40
1.3526448
50
180.7449369
51
181.1510016
0
ARC
8
DEFAULT_255_1_234
10
16.0488542
20
54.9316042
40
1.1948131
50
173.7675579
51
180.231553
0
ARC
8
DEFAULT_255_1_234
10
15.5970689
20
54.9826666
40
0.7401564
50
164.3058563
51
173.9002247
0
ARC
8
DEFAULT_255_1_234
10
15.3058758
20
55.0665656
40
0.4371288
50
148.7922025
51
164.568378
0
ARC
8
DEFAULT_255_1_234
10
15.210721
20
55.1196929
40
0.3282386
50
144.5883898
51
148.1176286
0
ARC
8
DEFAULT_255_1_234
10
15.1764108
20
55.1436315
40
0.2864044
50
101.6440918
51
144.514236
0
ARC
8
DEFAULT_255_1_234
10
15.2189175
20
54.9747069
40
0.4604934
50
89.5284041
51
102.5819763
0
ARC
8
DEFAULT_255_1_234
10
15.2268263
20
54.9708018
40
0.464401
50
77.0437873
51
90.5081339
0
ARC
8
DEFAULT_255_1_234
10
15.2670264
20
55.1350615
40
0.2953195
50
48.2778575
51
77.4994676
0
ARC
8
DEFAULT_255_1_234
10
15.2742896
20
55.1479746
40
0.2808655
50
36.3142134
51
47.6305865
0
ARC
8
DEFAULT_255_1_234
10
15.1874203
20
55.0894515
40
0.3855453
50
18.2931786
51
35.6769206
0
ARC
8
DEFAULT_255_1_234
10
14.9330961
20
55.0021593
40
0.654423
50
8.024666
51
18.5605216
0
ARC
8
DEFAULT_255_1_234
10
14.5167881
20
54.9406792
40
1.0752407
50
1.1274072
51
8.1718305
0
ARC
8
DEFAULT_255_1_234
10
14.1932072
20
54.9279885
40
1.3990231
50
0.5424119
51
1.3863029
0
ARC
8
DEFAULT_255_1_234
10
14.375345
20
54.9552342
40
1.0682415
50
359.8090433
51
4.9407866
0
ARC
8
DEFAULT_255_1_234
10
14.7963464
20
54.9928113
40
0.6455691
50
4.8362157
51
12.2904523
0
ARC
8
DEFAULT_255_1_234
10
15.0718579
20
55.0541965
40
0.3633074
50
12.0805627
51
23.8173984
0
ARC
8
DEFAULT_255_1_234
10
15.1892284
20
55.1038919
40
0.2358723
50
24.2871213
51
31.3935614
0
ARC
8
DEFAULT_255_1_234
10
15.2416981
20
55.1382233
40
0.1732111
50
30.7407893
51
82.4657128
0
ARC
8
DEFAULT_255_1_234
10
15.2237115
20
55.0498691
40
0.263235
50
81.1060089
51
90.2184952
0
ARC
8
DEFAULT_255_1_234
10
15.2201414
20
55.0756924
40
0.2374236
50
89.3806855
51
105.6762551
0
ARC
8
DEFAULT_255_1_234
10
15.2018045
20
55.1423567
40
0.1682847
50
105.7981136
51
149.7388061
0
ARC
8
DEFAULT_255_1_234
10
15.3082123
20
55.078395
40
0.2924306
50
149.4208916
51
163.6286378
0
ARC
8
DEFAULT_255_1_234
10
15.5173011
20
55.014625
40
0.5110213
50
163.3763315
51
172.1410975
0
ARC
8
DEFAULT_255_1_234
10
15.847373
20
54.9673518
40
0.8444586
50
172.0259487
51
178.0703232
0
ARC
8
DEFAULT_255_1_234
10
16.150382
20
54.9529906
40
1.1477868
50
177.8631668
51
179.5044149
0
ARC
8
DEFAULT_255_1_234
10
16.0431224
20
54.7215389
40
1.0404907
50
179.7995573
51
185.2460446
0
ARC
8
DEFAULT_255_1_234
10
15.6388264
20
54.6832513
40
0.6343885
50
185.1411642
51
193.0079639
0
ARC
8
DEFAULT_255_1_234
10
15.3744736
20
54.6207641
40
0.3627568
50
192.7897626
51
205.2507664
0
ARC
8
DEFAULT_255_1_234
10
15.2698283
20
54.5740415
40
0.2481908
50
205.8005384
51
211.2537509
0
ARC
8
DEFAULT_255_1_234
10
15.2174724
20
54.538958
40
0.1852521
50
210.3789793
51
238.4008143
0
ARC
8
DEFAULT_255_1_234
10
15.2155245
20
54.5436376
40
0.1882621
50
239.6520629
51
265.9793761
0
ARC
8
DEFAULT_255_1_234
10
15.2240446
20
54.6108427
40
0.2559272
50
265.1315437
51
270.060332
0
ARC
8
DEFAULT_255_1_234
10
15.2269224
20
54.5784534
40
0.2235528
50
269.3314664
51
287.2178029
0
ARC
8
DEFAULT_255_1_234
10
15.2407076
20
54.5281279
40
0.1714108
50
287.7958004
51
329.080874
0
ARC
8
DEFAULT_255_1_234
10
15.1449533
20
54.587893
40
0.2842745
50
328.6634704
51
343.3325132
0
ARC
8
DEFAULT_255_1_234
10
14.9276553
20
54.6555863
40
0.5118644
50
343.0499468
51
351.9393422
0
ARC
8
DEFAULT_255_1_234
10
14.5809853
20
54.7066949
40
0.8622784
50
351.8069023
51
357.7959224
0
ARC
8
DEFAULT_255_1_234
10
14.2574409
20
54.7234721
40
1.1862365
50
357.5871873
51
359.2677531
0
LINE
8
DEFAULT_255_1_234
10
16.5158176
20
54.9412327
11
16.5158176
21
54.7484709
0
LINE
8
DEFAULT_255_1_234
10
15.7777008
20
54.7283916
11
15.7777008
21
54.9267755
0
LINE
8
DEFAULT_255_1_234
10
16.3672304
20
54.7083123
11
16.3672304
21
54.9516739
0
LINE
8
DEFAULT_255_1_234
10
15.926288
20
54.9629184
11
15.926288
21
54.7251789
0
ARC
8
DEFAULT_255_1_234
10
15.2911065
20
54.7435805
40
1.2247208
50
353.8441951
51
0.2287902
0
ARC
8
DEFAULT_255_1_234
10
15.7550569
20
54.6917806
40
0.7578929
50
344.4934747
51
353.9765454
0
ARC
8
DEFAULT_255_1_234
10
16.0543159
20
54.6066981
40
0.4467846
50
329.2803592
51
344.7472793
0
ARC
8
DEFAULT_255_1_234
10
16.1535984
20
54.5522018
40
0.3336173
50
324.9352394
51
328.6160465
0
ARC
8
DEFAULT_255_1_234
10
16.1913093
20
54.5258427
40
0.2876076
50
280.580143
51
324.9173126
0
ARC
8
DEFAULT_255_1_234
10
16.1511885
20
54.6929099
40
0.4592847
50
269.5977311
51
281.6734359
0
ARC
8
DEFAULT_255_1_234
10
16.1439791
20
54.6809173
40
0.4472986
50
256.6228859
51
270.51044
0
ARC
8
DEFAULT_255_1_234
10
16.1037769
20
54.5260877
40
0.2873874
50
215.8618325
51
257.2788573
0
ARC
8
DEFAULT_255_1_234
10
16.20588
20
54.5945977
40
0.4102928
50
197.9693508
51
215.2623606
0
ARC
8
DEFAULT_255_1_234
10
16.4543916
20
54.6784709
40
0.6725652
50
187.8816417
51
198.2346507
0
ARC
8
DEFAULT_255_1_234
10
16.8502124
20
54.7356079
40
1.0724845
50
180.8976217
51
188.0055519
0
ARC
8
DEFAULT_255_1_234
10
17.1302312
20
54.7459777
40
1.3526448
50
180.7449369
51
181.1510016
0
ARC
8
DEFAULT_255_1_234
10
16.9725042
20
54.9316042
40
1.1948131
50
173.7675579
51
180.231553
0
ARC
8
DEFAULT_255_1_234
10
16.5207188
20
54.9826666
40
0.7401564
50
164.3058563
51
173.9002247
0
ARC
8
DEFAULT_255_1_234
10
16.2295257
20
55.0665656
40
0.4371288
50
148.7922025
51
164.568378
0
ARC
8
DEFAULT_255_1_234
10
16.1343709
20
55.1196929
40
0.3282386
50
144.5883898
51
148.1176286
0
ARC
8
DEFAULT_255_1_234
10
16.1000607
20
55.1436315
40
0.2864044
50
101.6440918
51
144.514236
0
ARC
8
DEFAULT_255_1_234
10
16.1425674
20
54.9747069
40
0.4604934
50
89.5284041
51
102.5819763
0
ARC
8
DEFAULT_255_1_234
10
16.1504762
20
54.9708018
40
0.464401
50
77.0437873
51
90.5081339
0
ARC
8
DEFAULT_255_1_234
10
16.1906763
20
55.1350615
40
0.2953195
50
48.2778575
51
77.4994676
0
ARC
8
DEFAULT_255_1_234
10
16.1979395
20
55.1479746
40
0.2808655
50
36.3142134
51
47.6305865
0
ARC
8
DEFAULT_255_1_234
10
16.1110702
20
55.0894515
40
0.3855453
50
18.2931786
51
35.6769206
0
ARC
8
DEFAULT_255_1_234
10
15.856746
20
55.0021593
40
0.654423
50
8.024666
51
18.5605216
0
ARC
8
DEFAULT_255_1_234
10
15.440438
20
54.9406792
40
1.0752407
50
1.1274072
51
8.1718305
0
ARC
8
DEFAULT_255_1_234
10
15.1168571
20
54.9279885
40
1.3990231
50
0.5424119
51
1.3863029
0
ARC
8
DEFAULT_255_1_234
10
15.2989949
20
54.9552342
40
1.0682415
50
359.8090433
51
4.9407866
0
ARC
8
DEFAULT_255_1_234
10
15.7199963
20
54.9928113
40
0.6455691
50
4.8362157
51
12.2904523
0
ARC
8
DEFAULT_255_1_234
10
15.9955078
20
55.0541965
40
0.3633074
50
12.0805627
51
23.8173984
0
ARC
8
DEFAULT_255_1_234
10
16.1128783
20
55.1038919
40
0.2358723
50
24.2871213
51
31.3935614
0
ARC
8
DEFAULT_255_1_234
10
16.165348
20
55.1382233
40
0.1732111
50
30.7407893
51
82.4657128
0
ARC
8
DEFAULT_255_1_234
10
16.1473615
20
55.0498691
40
0.263235
50
81.1060089
51
90.2184952
0
ARC
8
DEFAULT_255_1_234
10
16.1437913
20
55.0756924
40
0.2374236
50
89.3806855
51
105.6762551
0
ARC
8
DEFAULT_255_1_234
10
16.1254544
20
55.1423567
40
0.1682847
50
105.7981136
51
149.7388061
0
ARC
8
DEFAULT_255_1_234
10
16.2318622
20
55.078395
40
0.2924306
50
149.4208916
51
163.6286378
0
ARC
8
DEFAULT_255_1_234
10
16.440951
20
55.014625
40
0.5110213
50
163.3763315
51
172.1410975
0
ARC
8
DEFAULT_255_1_234
10
16.7710229
20
54.9673518
40
0.8444586
50
172.0259487
51
178.0703232
0
ARC
8
DEFAULT_255_1_234
10
17.0740319
20
54.9529906
40
1.1477868
50
177.8631668
51
179.5044149
0
ARC
8
DEFAULT_255_1_234
10
16.9667723
20
54.7215389
40
1.0404907
50
179.7995573
51
185.2460446
0
ARC
8
DEFAULT_255_1_234
10
16.5624763
20
54.6832513
40
0.6343885
50
185.1411642
51
193.0079639
0
ARC
8
DEFAULT_255_1_234
10
16.2981235
20
54.6207641
40
0.3627568
50
192.7897626
51
205.2507664
0
ARC
8
DEFAULT_255_1_234
10
16.1934782
20
54.5740415
40
0.2481908
50
205.8005384
51
211.2537509
0
ARC
8
DEFAULT_255_1_234
10
16.1411223
20
54.538958
40
0.1852521
50
210.3789793
51
238.4008143
0
ARC
8
DEFAULT_255_1_234
10
16.1391744
20
54.5436376
40
0.1882621
50
239.6520629
51
265.9793761
0
ARC
8
DEFAULT_255_1_234
10
16.1476945
20
54.6108427
40
0.2559272
50
265.1315437
51
270.060332
0
ARC
8
DEFAULT_255_1_234
10
16.1505723
20
54.5784534
40
0.2235528
50
269.3314664
51
287.2178029
0
ARC
8
DEFAULT_255_1_234
10
16.1643575
20
54.5281279
40
0.1714108
50
287.7958004
51
329.080874
0
ARC
8
DEFAULT_255_1_234
10
16.0686032
20
54.587893
40
0.2842745
50
328.6634704
51
343.3325132
0
ARC
8
DEFAULT_255_1_234
10
15.8513052
20
54.6555863
40
0.5118644
50
343.0499468
51
351.9393422
0
ARC
8
DEFAULT_255_1_234
10
15.5046352
20
54.7066949
40
0.8622784
50
351.8069023
51
357.7959224
0
ARC
8
DEFAULT_255_1_234
10
15.1810908
20
54.7234721
40
1.1862365
50
357.5871873
51
359.2677531
0
ARC
8
DEFAULT_255_2_778
10
17.2644097
20
57.5776171
40
0.9020291
50
36.6388597
51
62.8867982
0
ARC
8
DEFAULT_255_2_778
10
17.3470568
20
58.8451537
40
0.5690038
50
305.2567636
51
359.2313325
0
ARC
8
DEFAULT_255_2_778
10
17.3487044
20
58.8409224
40
0.5673153
50
359.6564073
51
359.9965367
0
ARC
8
DEFAULT_255_2_778
10
17.3579024
20
58.8407304
40
0.5581173
50
0.0161948
51
44.9914988
0
ARC
8
DEFAULT_255_2_778
10
17.3578898
20
58.8409752
40
0.5579531
50
44.9727995
51
90.0082066
0
ARC
8
DEFAULT_255_2_778
10
17.3578103
20
58.8361243
40
0.5628041
50
90.0000418
51
90.3054948
0
ARC
8
DEFAULT_255_2_778
10
17.2854142
20
57.6302344
40
0.8779024
50
272.428255
51
302.0472027
0
ARC
8
DEFAULT_255_2_778
10
17.2988911
20
57.5957487
40
0.841549
50
302.5153244
51
0.4882776
0
ARC
8
DEFAULT_255_2_778
10
17.3076108
20
57.6237449
40
0.833059
50
358.5675863
51
29.0157619
0
ARC
8
DEFAULT_255_2_778
10
15.0986513
20
57.5765655
40
0.9032652
50
36.6636783
51
62.8800292
0
ARC
8
DEFAULT_255_2_778
10
15.181148
20
58.8455795
40
0.5698185
50
305.2984654
51
359.1896208
0
ARC
8
DEFAULT_255_2_778
10
15.1825372
20
58.8409256
40
0.5683825
50
359.6567283
51
359.9965559
0
ARC
8
DEFAULT_255_2_778
10
15.1929628
20
58.8407968
40
0.5579568
50
0.0097156
51
44.9837975
0
ARC
8
DEFAULT_255_2_778
10
15.192701
20
58.8407544
40
0.5581721
50
44.9678738
51
90.0065375
0
ARC
8
DEFAULT_255_2_778
10
15.1926813
20
58.8233869
40
0.5755396
50
90.0043847
51
90.2659865
0
ARC
8
DEFAULT_255_2_778
10
15.1204968
20
57.6303822
40
0.8780507
50
272.42898
51
302.0445025
0
ARC
8
DEFAULT_255_2_778
10
15.1340929
20
57.5957943
40
0.8415468
50
302.5093151
51
0.4851764
0
ARC
8
DEFAULT_255_2_778
10
15.1418024
20
57.6234974
40
0.8340609
50
358.5863171
51
28.9970314
0
LINE
8
DEFAULT_255_2_778
10
13.3940095
20
58.1159203
11
12.9371095
21
59.3989203
0
LINE
8
DEFAULT_255_2_778
10
12.9371095
20
59.3989203
11
12.5923095
21
59.3989203
0
LINE
8
DEFAULT_255_2_778
10
12.5923095
20
59.3989203
11
12.5923095
21
58.1159203
0
LINE
8
DEFAULT_255_2_778
10
12.5923095
20
58.1159203
11
13.3940095
21
58.1159203
0
LINE
8
DEFAULT_255_2_778
10
12.5923095
20
57.3142203
11
13.0173095
21
57.3142203
0
LINE
8
DEFAULT_255_2_778
10
13.0173095
20
57.3142203
11
13.2096095
21
56.7531203
0
LINE
8
DEFAULT_255_2_778
10
13.2096095
20
56.7531203
11
13.8750095
21
56.7531203
0
LINE
8
DEFAULT_255_2_778
10
13.8750095
20
56.7531203
11
13.4181095
21
58.0358203
0
LINE
8
DEFAULT_255_2_778
10
13.4181095
20
58.0358203
11
12.5923095
21
58.0358203
0
LINE
8
DEFAULT_255_2_778
10
12.5923095
20
58.0358203
11
12.5923095
21
57.3142203
0
LINE
8
DEFAULT_255_2_778
10
12.5122095
20
59.3989203
11
12.1674095
21
59.3989203
0
LINE
8
DEFAULT_255_2_778
10
12.1674095
20
59.3989203
11
11.7105095
21
58.1159203
0
LINE
8
DEFAULT_255_2_778
10
11.7105095
20
58.1159203
11
12.5122095
21
58.1159203
0
LINE
8
DEFAULT_255_2_778
10
12.5122095
20
58.1159203
11
12.5122095
21
59.3989203
0
LINE
8
DEFAULT_255_2_778
10
11.6864095
20
58.0358203
11
11.2292095
21
56.7531203
0
LINE
8
DEFAULT_255_2_778
10
11.2292095
20
56.7531203
11
11.8946095
21
56.7531203
0
LINE
8
DEFAULT_255_2_778
10
11.8946095
20
56.7531203
11
12.0870095
21
57.3142203
0
LINE
8
DEFAULT_255_2_778
10
12.0870095
20
57.3142203
11
12.5119095
21
57.3142203
0
LINE
8
DEFAULT_255_2_778
10
12.5119095
20
57.3142203
11
12.5119095
21
58.0358203
0
LINE
8
DEFAULT_255_2_778
10
12.5119095
20
58.0358203
11
11.6864095
21
58.0358203
0
LINE
8
DEFAULT_255_2_778
10
16.2804095
20
59.3989203
11
17.0820095
21
59.3989203
0
LINE
8
DEFAULT_255_2_778
10
17.0820095
20
59.3989203
11
17.0820095
21
58.1159203
0
LINE
8
DEFAULT_255_2_778
10
17.0820095
20
58.1159203
11
16.2804095
21
58.1159203
0
LINE
8
DEFAULT_255_2_778
10
16.2804095
20
58.1159203
11
16.2804095
21
59.3989203
0
LINE
8
DEFAULT_255_2_778
10
17.3548095
20
59.3989203
11
17.1625095
21
59.3989203
0
LINE
8
DEFAULT_255_2_778
10
17.1625095
20
59.3989203
11
17.1625095
21
58.1159203
0
LINE
8
DEFAULT_255_2_778
10
17.1625095
20
58.1159203
11
17.9882095
21
58.1159203
0
LINE
8
DEFAULT_255_2_778
10
17.9882095
20
58.1159203
11
17.9882095
21
58.1159203
0
LINE
8
DEFAULT_255_2_778
10
16.2804095
20
58.0358203
11
17.0820095
21
58.0358203
0
LINE
8
DEFAULT_255_2_778
10
17.0820095
20
58.0358203
11
17.0820095
21
56.7531203
0
LINE
8
DEFAULT_255_2_778
10
17.0820095
20
56.7531203
11
16.2804095
21
56.7531203
0
LINE
8
DEFAULT_255_2_778
10
16.2804095
20
56.7531203
11
16.2804095
21
58.0358203
0
LINE
8
DEFAULT_255_2_778
10
17.1622095
20
56.7531203
11
17.3226095
21
56.7531203
0
LINE
8
DEFAULT_255_2_778
10
18.0361095
20
58.0278203
11
17.1622095
21
58.0278203
0
LINE
8
DEFAULT_255_2_778
10
17.1622095
20
58.0278203
11
17.1622095
21
56.7531203
0
LINE
8
DEFAULT_255_2_778
10
17.1622095
20
56.7531203
11
17.1622095
21
56.7531203
0
LINE
8
DEFAULT_255_2_778
10
14.1155095
20
59.3989203
11
14.9172095
21
59.3989203
0
LINE
8
DEFAULT_255_2_778
10
14.9172095
20
59.3989203
11
14.9172095
21
58.1159203
0
LINE
8
DEFAULT_255_2_778
10
14.9172095
20
58.1159203
11
14.1155095
21
58.1159203
0
LINE
8
DEFAULT_255_2_778
10
14.1155095
20
58.1159203
11
14.1155095
21
59.3989203
0
LINE
8
DEFAULT_255_2_778
10
15.1900095
20
59.3989203
11
14.9977095
21
59.3989203
0
LINE
8
DEFAULT_255_2_778
10
14.9977095
20
59.3989203
11
14.9977095
21
58.1159203
0
LINE
8
DEFAULT_255_2_778
10
14.9977095
20
58.1159203
11
15.8234095
21
58.1159203
0
LINE
8
DEFAULT_255_2_778
10
15.8234095
20
58.1159203
11
15.8232095
21
58.1159203
0
LINE
8
DEFAULT_255_2_778
10
14.1155095
20
58.0358203
11
14.9172095
21
58.0358203
0
LINE
8
DEFAULT_255_2_778
10
14.9172095
20
58.0358203
11
14.9172095
21
56.7531203
0
LINE
8
DEFAULT_255_2_778
10
14.9172095
20
56.7531203
11
14.1155095
21
56.7531203
0
LINE
8
DEFAULT_255_2_778
10
14.1155095
20
56.7531203
11
14.1155095
21
58.0358203
0
LINE
8
DEFAULT_255_2_778
10
14.9974095
20
56.7531203
11
15.1577095
21
56.7531203
0
LINE
8
DEFAULT_255_2_778
10
15.8713095
20
58.0278203
11
14.9974095
21
58.0278203
0
LINE
8
DEFAULT_255_2_778
10
14.9974095
20
58.0278203
11
14.9974095
21
56.7531203
0
LINE
8
DEFAULT_255_2_778
10
14.9974095
20
56.7531203
11
14.9974095
21
56.7531203
0
LINE
8
DEFAULT_255_2_778
10
9.3932417
20
36.9094082
11
10.7161417
21
36.9094082
0
LINE
8
DEFAULT_255_2_778
10
10.7161417
20
36.9094082
11
10.7161417
21
27.6490082
0
LINE
8
DEFAULT_255_2_778
10
9.3932834
20
27.6489333
11
12.0390834
21
27.6489333
0
LINE
8
DEFAULT_255_2_778
10
12.0390834
20
27.6489333
11
12.0390834
21
22.3572333
0
LINE
8
DEFAULT_255_2_778
10
12.0390834
20
22.3572333
11
9.3932834
21
22.3572333
0
LINE
8
DEFAULT_255_2_778
10
9.3932834
20
22.3572333
11
9.3932834
21
27.6489333
0
ARC
8
DEFAULT_255_2_778_1
10
13.1931093
20
22.4591014
40
4.8170853
50
120.9433603
51
122.3507015
0
ARC
8
DEFAULT_255_2_778_1
10
12.7461038
20
23.1633847
40
3.9829221
50
122.3397244
51
124.1937515
0
ARC
8
DEFAULT_255_2_778_1
10
12.3065747
20
23.8093798
40
3.2015802
50
124.1846593
51
126.4326997
0
ARC
8
DEFAULT_255_2_778_1
10
11.9203674
20
24.3325048
40
2.5513373
50
126.4315193
51
128.8866284
0
ARC
8
DEFAULT_255_2_778_1
10
11.5855558
20
24.7469163
40
2.0185751
50
128.8737413
51
131.8715456
0
ARC
8
DEFAULT_255_2_778_1
10
11.288321
20
25.0780578
40
1.5735995
50
131.8602881
51
135.4159792
0
ARC
8
DEFAULT_255_2_778_1
10
11.0256267
20
25.336144
40
1.2053382
50
135.3881787
51
139.9675704
0
ARC
8
DEFAULT_255_2_778_1
10
10.7927929
20
25.5309514
40
0.9017578
50
139.9292361
51
145.9248399
0
ARC
8
DEFAULT_255_2_778_1
10
10.5965937
20
25.6630002
40
0.6652613
50
145.8774658
51
153.8137102
0
ARC
8
DEFAULT_255_2_778_1
10
10.4445289
20
25.7373584
40
0.4959902
50
153.7699933
51
164.3475994
0
ARC
8
DEFAULT_255_2_778_1
10
10.3431712
20
25.7655709
40
0.3907795
50
164.3211971
51
179.8086094
0
ARC
8
DEFAULT_255_2_778_1
10
10.364224
20
25.7737045
40
0.4118868
50
180.9498805
51
213.8115801
0
ARC
8
DEFAULT_255_2_778_1
10
10.6401277
20
25.9432791
40
0.7355981
50
212.8273456
51
224.258786
0
ARC
8
DEFAULT_255_2_778_1
10
11.0230021
20
26.3126447
40
1.2675939
50
224.1380843
51
231.4510938
0
ARC
8
DEFAULT_255_2_778_1
10
11.6656086
20
27.1155497
40
2.2959891
50
231.3959152
51
236.1261501
0
ARC
8
DEFAULT_255_2_778_1
10
13.4977386
20
29.8618226
40
5.5973037
50
236.2236313
51
239.1319841
0
ARC
8
DEFAULT_255_2_778_1
10
25.44793
20
49.5903296
40
28.6628078
50
238.8610976
51
239.0715198
0
ARC
8
DEFAULT_255_2_778_1
10
6.2759964
20
17.493101
40
8.7244052
50
57.2424849
51
59.4068306
0
ARC
8
DEFAULT_255_2_778_1
10
9.5034336
20
22.5237081
40
2.7475194
50
52.8293541
51
57.0795464
0
ARC
8
DEFAULT_255_2_778_1
10
10.2780944
20
23.5440614
40
1.4664186
50
46.3045833
51
52.860304
0
ARC
8
DEFAULT_255_2_778_1
10
10.7102649
20
23.9941451
40
0.8424453
50
36.2180257
51
46.4093296
0
ARC
8
DEFAULT_255_2_778_1
10
10.994804
20
24.1990061
40
0.4918506
50
17.4004011
51
36.5495579
0
ARC
8
DEFAULT_255_2_778_1
10
11.1088821
20
24.238864
40
0.3710943
50
0.067873
51
16.7952822
0
ARC
8
DEFAULT_255_2_778_1
10
11.0878458
20
24.2407332
40
0.3921328
50
343.8036427
51
359.7911248
0
ARC
8
DEFAULT_255_2_778_1
10
10.9815867
20
24.2712038
40
0.502674
50
333.2506199
51
343.8466729
0
ARC
8
DEFAULT_255_2_778_1
10
10.8277744
20
24.3479168
40
0.6745539
50
325.6600211
51
333.3122631
0
ARC
8
DEFAULT_255_2_778_1
10
10.6323392
20
24.4807073
40
0.9108335
50
319.7561437
51
325.6977425
0
ARC
8
DEFAULT_255_2_778_1
10
10.4042094
20
24.6724727
40
1.2088543
50
315.4577629
51
319.8038562
0
ARC
8
DEFAULT_255_2_778_1
10
10.1408322
20
24.9313077
40
1.578128
50
311.7299879
51
315.4672579
0
ARC
8
DEFAULT_255_2_778_1
10
9.8318145
20
25.2768549
40
2.0416949
50
308.7231184
51
311.7471999
0
ARC
8
DEFAULT_255_2_778_1
10
9.4777678
20
25.7178927
40
2.6072594
50
306.1164816
51
308.7302597
0
ARC
8
DEFAULT_255_2_778_1
10
9.0747329
20
26.2692635
40
3.2902284
50
303.9558771
51
306.1266851
0
ARC
8
DEFAULT_255_2_778_1
10
8.6627948
20
26.879078
40
4.0261398
50
302.373487
51
303.9711747
0
ARC
8
DEFAULT_255_2_778_1
10
8.243509
20
27.5400653
40
4.8088943
50
300.9435453
51
302.3758968
0
LINE
8
DEFAULT_255_2_778
10
10.7161335
20
22.3572497
11
10.7161335
21
13.0968497
0
LINE
8
DEFAULT_255_2_778
10
10.7161335
20
13.0968497
11
9.3932335
21
13.0968497
0
LINE
8
DEFAULT_255_2_778
10
19.9765335
20
36.9093497
11
18.6536335
21
36.9093497
0
LINE
8
DEFAULT_255_2_778
10
18.6536335
20
36.9093497
11
18.6536335
21
23.6801497
0
LINE
8
DEFAULT_255_2_778
10
17.3307834
20
23.6802333
11
19.9765834
21
23.6802333
0
LINE
8
DEFAULT_255_2_778
10
19.9765834
20
23.6802333
11
19.9765834
21
18.3885333
0
LINE
8
DEFAULT_255_2_778
10
19.9765834
20
18.3885333
11
17.3307834
21
18.3885333
0
LINE
8
DEFAULT_255_2_778
10
17.3307834
20
18.3885333
11
17.3307834
21
23.6802333
0
ARC
8
DEFAULT_255_2_778_1
10
21.130363
20
18.490977
40
4.816461
50
120.9442904
51
122.351755
0
ARC
8
DEFAULT_255_2_778_1
10
20.6837561
20
19.1946039
40
3.9830657
50
122.3407904
51
124.1946752
0
ARC
8
DEFAULT_255_2_778_1
10
20.2438503
20
19.8411306
40
3.2010724
50
124.1855758
51
126.4338849
0
ARC
8
DEFAULT_255_2_778_1
10
19.8579167
20
20.3638611
40
2.5513094
50
126.4326926
51
128.8877368
0
ARC
8
DEFAULT_255_2_778_1
10
19.5231006
20
20.7782658
40
2.0185498
50
128.8749205
51
131.8726567
0
ARC
8
DEFAULT_255_2_778_1
10
19.2259715
20
21.1092854
40
1.5737356
50
131.8616166
51
135.4168838
0
ARC
8
DEFAULT_255_2_778_1
10
18.9631718
20
21.3674765
40
1.2053256
50
135.3893975
51
139.9687014
0
ARC
8
DEFAULT_255_2_778_1
10
18.7302927
20
21.5623102
40
0.9016937
50
139.9301659
51
145.9260426
0
ARC
8
DEFAULT_255_2_778_1
10
18.5341578
20
21.6943104
40
0.6652776
50
145.8787362
51
153.8146208
0
ARC
8
DEFAULT_255_2_778_1
10
18.3820592
20
21.7686797
40
0.4959714
50
153.770634
51
164.3484794
0
ARC
8
DEFAULT_255_2_778_1
10
18.2807425
20
21.7968786
40
0.3908039
50
164.3220276
51
179.8083066
0
ARC
8
DEFAULT_255_2_778_1
10
18.3017827
20
21.805015
40
0.4118985
50
180.9499449
51
213.8111542
0
ARC
8
DEFAULT_255_2_778_1
10
18.5776866
20
21.9745896
40
0.73561
50
212.8271214
51
224.258472
0
ARC
8
DEFAULT_255_2_778_1
10
18.9605373
20
22.3439236
40
1.267567
50
224.1376218
51
231.4508261
0
ARC
8
DEFAULT_255_2_778_1
10
19.6032233
20
23.1469168
40
2.2960809
50
231.3955893
51
236.1256478
0
ARC
8
DEFAULT_255_2_778_1
10
21.4355261
20
25.8934293
40
5.5976905
50
236.2233172
51
239.1314682
0
ARC
8
DEFAULT_255_2_778_1
10
33.3854308
20
45.6211568
40
28.6623793
50
238.8606853
51
239.0711101
0
ARC
8
DEFAULT_255_2_778_1
10
14.2132319
20
13.5240653
40
8.7248518
50
57.2420924
51
59.4062964
0
ARC
8
DEFAULT_255_2_778_1
10
17.4409279
20
18.5550102
40
2.747542
50
52.8289294
51
57.079028
0
ARC
8
DEFAULT_255_2_778_1
10
18.2155821
20
19.5753488
40
1.466457
50
46.3041868
51
52.8596521
0
ARC
8
DEFAULT_255_2_778_1
10
18.6478111
20
20.0254842
40
0.8424061
50
36.2174211
51
46.4090895
0
ARC
8
DEFAULT_255_2_778_1
10
18.9323127
20
20.2303128
40
0.4918609
50
17.400375
51
36.5489745
0
ARC
8
DEFAULT_255_2_778_1
10
19.0464032
20
20.2701754
40
0.3710912
50
0.0676858
51
16.7951297
0
ARC
8
DEFAULT_255_2_778_1
10
19.0253651
20
20.2720428
40
0.3921317
50
343.8035191
51
359.7912046
0
ARC
8
DEFAULT_255_2_778_1
10
18.919095
20
20.3025167
40
0.5026844
50
333.2506233
51
343.8465691
0
ARC
8
DEFAULT_255_2_778_1
10
18.7652796
20
20.3792313
40
0.6745679
50
325.6600948
51
333.3122657
0
ARC
8
DEFAULT_255_2_778_1
10
18.5698382
20
20.5120296
40
0.9108568
50
319.7560915
51
325.6976089
0
ARC
8
DEFAULT_255_2_778_1
10
18.3417028
20
20.7038002
40
1.2088854
50
315.4577584
51
319.8037947
0
ARC
8
DEFAULT_255_2_778_1
10
18.0783165
20
20.9626507
40
1.5781764
50
311.7298824
51
315.4670864
0
ARC
8
DEFAULT_255_2_778_1
10
17.7692917
20
21.3082074
40
2.0417554
50
308.723055
51
311.7470879
0
ARC
8
DEFAULT_255_2_778_1
10
17.4150928
20
21.7494492
40
2.6075745
50
306.1165163
51
308.7300151
0
ARC
8
DEFAULT_255_2_778_1
10
17.0121129
20
22.3007523
40
3.2904564
50
303.9559446
51
306.1266333
0
ARC
8
DEFAULT_255_2_778_1
10
16.600547
20
22.910015
40
4.0257023
50
302.3733397
51
303.9712246
0
ARC
8
DEFAULT_255_2_778_1
10
16.1809385
20
23.5715058
40
4.8090549
50
300.9434827
51
302.3758078
0
LINE
8
DEFAULT_255_2_778
10
18.6536417
20
18.3885831
11
18.6536417
21
5.1593831
0
LINE
8
DEFAULT_255_2_778
10
18.6536417
20
5.1593831
11
19.9765417
21
5.1593831
0
LINE
8
DEFAULT_255_1_234
10
4.2446489
20
53.4348211
11
4.2446489
21
52.3914983
0
LINE
8
DEFAULT_255_1_234
10
4.2446489
20
52.3914983
11
4.7988389
21
52.3914983
0
LINE
8
DEFAULT_255_1_234
10
4.7988389
20
52.3914983
11
4.7988389
21
52.2654
0
LINE
8
DEFAULT_255_1_234
10
4.7988389
20
52.2654
11
4.0896364
21
52.2654
0
LINE
8
DEFAULT_255_1_234
10
4.0896364
20
52.2654
11
4.0896364
21
53.4348211
0
LINE
8
DEFAULT_255_1_234
10
4.0896364
20
53.4348211
11
4.2446489
21
53.4348211
0
LINE
8
DEFAULT_255_1_234
10
5.377124
20
53.2340276
11
5.377124
21
52.8926788
0
LINE
8
DEFAULT_255_1_234
10
5.377124
20
52.8926788
11
5.7032126
21
52.8926788
0
LINE
8
DEFAULT_255_1_234
10
5.7032126
20
52.8926788
11
5.7032126
21
52.7521233
0
LINE
8
DEFAULT_255_1_234
10
5.7032126
20
52.7521233
11
5.377124
21
52.7521233
0
LINE
8
DEFAULT_255_1_234
10
5.377124
20
52.7521233
11
5.377124
21
52.3826634
0
LINE
8
DEFAULT_255_1_234
10
5.377124
20
52.3826634
11
5.2277337
21
52.3826634
0
LINE
8
DEFAULT_255_1_234
10
5.2277337
20
52.3826634
11
5.2277337
21
52.7521233
0
LINE
8
DEFAULT_255_1_234
10
5.2277337
20
52.7521233
11
4.9016451
21
52.7521233
0
LINE
8
DEFAULT_255_1_234
10
4.9016451
20
52.7521233
11
4.9016451
21
52.8926788
0
LINE
8
DEFAULT_255_1_234
10
4.9016451
20
52.8926788
11
5.2277337
21
52.8926788
0
LINE
8
DEFAULT_255_1_234
10
5.2277337
20
52.8926788
11
5.2277337
21
53.2340276
0
LINE
8
DEFAULT_255_1_234
10
5.2277337
20
53.2340276
11
5.377124
21
53.2340276
0
LINE
8
DEFAULT_255_1_234
10
4.2857902
20
13.7473211
11
4.2857902
21
12.5779
0
LINE
8
DEFAULT_255_1_234
10
4.2857902
20
12.5779
11
4.1315808
21
12.5779
0
LINE
8
DEFAULT_255_1_234
10
4.1315808
20
12.5779
11
4.1315808
21
13.7473211
0
LINE
8
DEFAULT_255_1_234
10
4.1315808
20
13.7473211
11
4.2857902
21
13.7473211
0
LINE
8
DEFAULT_255_1_234
10
4.7452056
20
13.1136169
11
4.7452056
21
13.2348962
0
LINE
8
DEFAULT_255_1_234
10
4.7452056
20
13.2348962
11
4.8568468
21
13.2348962
0
LINE
8
DEFAULT_255_1_234
10
4.6664946
20
13.4405087
11
4.5179074
21
13.4405087
0
LINE
8
DEFAULT_255_1_234
10
4.5074662
20
12.8863188
11
4.6568565
21
12.8863188
0
LINE
8
DEFAULT_255_1_234
10
4.8568468
20
13.1136169
11
4.7452056
21
13.1136169
0
ARC
8
DEFAULT_255_1_234
10
4.8539334
20
13.5741713
40
0.3392876
50
270.4919872
51
281.8951556
0
ARC
8
DEFAULT_255_1_234
10
4.8780596
20
13.4639702
40
0.2264817
50
281.6691735
51
301.2943132
0
ARC
8
DEFAULT_255_1_234
10
4.8950806
20
13.4328304
40
0.1910381
50
301.7833094
51
311.7545298
0
ARC
8
DEFAULT_255_1_234
10
4.9042382
20
13.4226748
40
0.1773635
50
311.7323931
51
354.2802411
0
ARC
8
DEFAULT_255_1_234
10
4.8316007
20
13.4351722
40
0.2509385
50
353.0937916
51
0.1181479
0
ARC
8
DEFAULT_255_1_234
10
4.7854792
20
13.4399386
40
0.2970898
50
359.1805295
51
15.0453146
0
ARC
8
DEFAULT_255_1_234
10
4.9200629
20
13.4791992
40
0.1569564
50
13.9577229
51
77.6713066
0
ARC
8
DEFAULT_255_1_234
10
4.8814158
20
13.3406949
40
0.3006298
50
76.1116566
51
90.7026153
0
ARC
8
DEFAULT_255_1_234
10
4.8754996
20
13.3680545
40
0.2732568
50
89.5324876
51
103.531937
0
ARC
8
DEFAULT_255_1_234
10
4.8554441
20
13.4479884
40
0.1908508
50
103.2931773
51
133.5619022
0
ARC
8
DEFAULT_255_1_234
10
4.8509929
20
13.4539375
40
0.1834746
50
133.8349307
51
173.5344437
0
ARC
8
DEFAULT_255_1_234
10
4.9232972
20
13.4411213
40
0.2568033
50
172.5096846
51
180.1366907
0
ARC
8
DEFAULT_255_1_234
10
4.8281866
20
13.4445622
40
0.3103056
50
155.3484492
51
180.7484736
0
ARC
8
DEFAULT_255_1_234
10
4.8232955
20
13.4416846
40
0.3070957
50
131.5744599
51
154.4798489
0
ARC
8
DEFAULT_255_1_234
10
4.8546102
20
13.410031
40
0.3515643
50
96.9875458
51
131.9690667
0
ARC
8
DEFAULT_255_1_234
10
4.8765582
20
13.2854636
40
0.4779224
50
89.8596053
51
97.7825159
0
ARC
8
DEFAULT_255_1_234
10
4.8813645
20
13.2592616
40
0.5041361
50
78.3655447
51
90.4131539
0
ARC
8
DEFAULT_255_1_234
10
4.9171563
20
13.4251887
40
0.3344039
50
56.6229102
51
78.638727
0
ARC
8
DEFAULT_255_1_234
10
4.9386507
20
13.4627805
40
0.2912001
50
47.0253525
51
56.0854072
0
ARC
8
DEFAULT_255_1_234
10
4.9406287
20
13.4667223
40
0.2869704
50
10.9208013
51
46.7778124
0
ARC
8
DEFAULT_255_1_234
10
4.8042354
20
13.4351857
40
0.426899
50
359.6364486
51
11.6087304
0
ARC
8
DEFAULT_255_1_234
10
4.9877198
20
13.4336752
40
0.243409
50
332.3549906
51
359.7179418
0
ARC
8
DEFAULT_255_1_234
10
4.9226799
20
13.4645142
40
0.3153459
50
325.2333722
51
332.8745602
0
ARC
8
DEFAULT_255_1_234
10
4.9379423
20
13.4538828
40
0.2967456
50
292.9802137
51
325.2392345
0
ARC
8
DEFAULT_255_1_234
10
4.9104797
20
13.5072863
40
0.3566604
50
292.5402179
51
293.6924929
0
ARC
8
DEFAULT_255_1_234
10
4.9497393
20
12.8618091
40
0.3307468
50
57.6435486
51
72.8625112
0
ARC
8
DEFAULT_255_1_234
10
4.9851892
20
12.9192549
40
0.2632492
50
36.7248896
51
57.4697979
0
ARC
8
DEFAULT_255_1_234
10
4.9840525
20
12.920522
40
0.2634081
50
8.0545065
51
36.356114
0
ARC
8
DEFAULT_255_1_234
10
4.897771
20
12.9050174
40
0.3510261
50
359.8320645
51
8.5869982
0
ARC
8
DEFAULT_255_1_234
10
4.8602486
20
12.9002101
40
0.3885653
50
343.9829931
51
0.5571613
0
ARC
8
DEFAULT_255_1_234
10
4.9488684
20
12.8759438
40
0.2966924
50
311.6359546
51
343.7651759
0
ARC
8
DEFAULT_255_1_234
10
4.9110253
20
12.9186102
40
0.3537231
50
279.7829875
51
311.6255694
0
ARC
8
DEFAULT_255_1_234
10
4.8809029
20
13.062328
40
0.5004971
50
269.7286406
51
280.3856417
0
ARC
8
DEFAULT_255_1_234
10
4.8747102
20
13.0581996
40
0.4963778
50
256.6828919
51
270.4412052
0
ARC
8
DEFAULT_255_1_234
10
4.8408397
20
12.9197394
40
0.3538406
50
229.4223008
51
256.8556159
0
ARC
8
DEFAULT_255_1_234
10
4.799379
20
12.8730736
40
0.2914296
50
181.818294
51
229.6455059
0
ARC
8
DEFAULT_255_1_234
10
4.9033746
20
12.8861496
40
0.3959084
50
179.9755256
51
183.2323064
0
ARC
8
DEFAULT_255_1_234
10
4.8861492
20
12.8841037
40
0.2293034
50
179.4465117
51
196.2869258
0
ARC
8
DEFAULT_255_1_234
10
4.83739
20
12.8707651
40
0.1787621
50
196.5661473
51
227.705904
0
ARC
8
DEFAULT_255_1_234
10
4.8537995
20
12.8891155
40
0.2033784
50
227.7652068
51
257.8762805
0
ARC
8
DEFAULT_255_1_234
10
4.8762965
20
12.9834156
40
0.3003081
50
257.4584385
51
270.426602
0
ARC
8
DEFAULT_255_1_234
10
4.8808531
20
13.0123996
40
0.329292
50
269.5962073
51
280.8789248
0
ARC
8
DEFAULT_255_1_234
10
4.903806
20
12.8977685
40
0.2123908
50
280.6346389
51
299.8595945
0
ARC
8
DEFAULT_255_1_234
10
4.9228967
20
12.8615212
40
0.171457
50
300.3576302
51
314.5517981
0
ARC
8
DEFAULT_255_1_234
10
4.9146027
20
12.8675919
40
0.1816095
50
315.0728369
51
345.0431014
0
ARC
8
DEFAULT_255_1_234
10
4.8222841
20
12.8944841
40
0.2777492
50
344.5986631
51
357.9269593
0
ARC
8
DEFAULT_255_1_234
10
4.7327168
20
12.9006276
40
0.3674917
50
357.4748886
51
0.0231117
0
ARC
8
DEFAULT_255_1_234
10
4.8350277
20
12.9030679
40
0.2651907
50
359.5047933
51
13.4239635
0
ARC
8
DEFAULT_255_1_234
10
4.9216921
20
12.9252478
40
0.1757509
50
12.9498199
51
48.7551375
0
ARC
8
DEFAULT_255_1_234
10
4.9034655
20
12.90034
40
0.2065134
50
49.5088623
51
72.1836453
0
ARC
8
DEFAULT_255_1_234
10
4.8676807
20
12.7941291
40
0.3185836
50
71.9010081
51
84.3554254
0
ARC
8
DEFAULT_255_1_234
10
4.8515439
20
12.6580326
40
0.4556151
50
84.0193428
51
89.333121
0
LINE
8
DEFAULT_255_1_234
10
5.8937442
20
13.5465276
11
5.8937442
21
13.2051788
0
LINE
8
DEFAULT_255_1_234
10
5.8937442
20
13.2051788
11
6.2198328
21
13.2051788
0
LINE
8
DEFAULT_255_1_234
10
6.2198328
20
13.2051788
11
6.2198328
21
13.0646233
0
LINE
8
DEFAULT_255_1_234
10
6.2198328
20
13.0646233
11
5.8937442
21
13.0646233
0
LINE
8
DEFAULT_255_1_234
10
5.8937442
20
13.0646233
11
5.8937442
21
12.6951634
0
LINE
8
DEFAULT_255_1_234
10
5.8937442
20
12.6951634
11
5.7443539
21
12.6951634
0
LINE
8
DEFAULT_255_1_234
10
5.7443539
20
12.6951634
11
5.7443539
21
13.0646233
0
LINE
8
DEFAULT_255_1_234
10
5.7443539
20
13.0646233
11
5.4182653
21
13.0646233
0
LINE
8
DEFAULT_255_1_234
10
5.4182653
20
13.0646233
11
5.4182653
21
13.2051788
0
LINE
8
DEFAULT_255_1_234
10
5.4182653
20
13.2051788
11
5.7443539
21
13.2051788
0
LINE
8
DEFAULT_255_1_234
10
5.7443539
20
13.2051788
11
5.7443539
21
13.5465276
0
LINE
8
DEFAULT_255_1_234
10
5.7443539
20
13.5465276
11
5.8937442
21
13.5465276
0
LINE
8
DEFAULT_255_1_234
10
4.2857902
20
21.6848211
11
4.2857902
21
20.5154
0
LINE
8
DEFAULT_255_1_234
10
4.2857902
20
20.5154
11
4.1315808
21
20.5154
0
LINE
8
DEFAULT_255_1_234
10
4.1315808
20
20.5154
11
4.1315808
21
21.6848211
0
LINE
8
DEFAULT_255_1_234
10
4.1315808
20
21.6848211
11
4.2857902
21
21.6848211
0
LINE
8
DEFAULT_255_1_234
10
5.2953797
20
20.6366792
11
5.2953797
21
20.5154
0
LINE
8
DEFAULT_255_1_234
10
5.2953797
20
20.5154
11
4.5291519
21
20.5154
0
LINE
8
DEFAULT_255_1_234
10
4.5291519
20
20.5154
11
4.5291519
21
20.6222221
0
LINE
8
DEFAULT_255_1_234
10
4.5291519
20
20.6222221
11
4.9339515
21
21.0719995
0
LINE
8
DEFAULT_255_1_234
10
4.6552501
20
21.3402595
11
4.506663
21
21.3402595
0
LINE
8
DEFAULT_255_1_234
10
5.0214974
20
20.9764218
11
4.7082596
21
20.6366792
0
LINE
8
DEFAULT_255_1_234
10
4.7082596
20
20.6366792
11
5.2953797
21
20.6366792
0
ARC
8
DEFAULT_255_1_234
10
3.5849348
20
22.2649527
40
1.8008286
50
318.5132453
51
320.7828378
0
ARC
8
DEFAULT_255_1_234
10
4.1136322
20
21.8346426
40
1.1191493
50
320.7372736
51
323.9737074
0
ARC
8
DEFAULT_255_1_234
10
4.5056179
20
21.5506361
40
0.6350923
50
323.8961724
51
328.6421089
0
ARC
8
DEFAULT_255_1_234
10
4.7102774
20
21.4244031
40
0.3946393
50
328.8299013
51
331.789948
0
ARC
8
DEFAULT_255_1_234
10
4.8099953
20
21.3729509
40
0.2824501
50
331.4255242
51
352.9364833
0
ARC
8
DEFAULT_255_1_234
10
4.8236453
20
21.3698976
40
0.2685315
50
353.2248685
51
0.0169286
0
ARC
8
DEFAULT_255_1_234
10
4.844633
20
21.372195
40
0.2475536
50
359.4866256
51
15.9339782
0
ARC
8
DEFAULT_255_1_234
10
4.8953316
20
21.3858286
40
0.1950618
50
16.1714718
51
43.5284424
0
ARC
8
DEFAULT_255_1_234
10
4.9030624
20
21.3935573
40
0.184134
50
43.4415429
51
83.1661404
0
ARC
8
DEFAULT_255_1_234
10
4.8896542
20
21.3198771
40
0.258926
50
82.160215
51
90.1505798
0
ARC
8
DEFAULT_255_1_234
10
4.886497
20
21.2661865
40
0.3126255
50
89.5460705
51
102.5418777
0
ARC
8
DEFAULT_255_1_234
10
4.8622056
20
21.3692665
40
0.2067346
50
102.1739365
51
129.2061916
0
ARC
8
DEFAULT_255_1_234
10
4.8543127
20
21.3817094
40
0.1921118
50
129.7279328
51
135.7542026
0
ARC
8
DEFAULT_255_1_234
10
4.8664655
20
21.3720045
40
0.2075944
50
136.175737
51
166.3674722
0
ARC
8
DEFAULT_255_1_234
10
4.9671574
20
21.3450182
40
0.3118201
50
165.9092917
51
178.8683903
0
ARC
8
DEFAULT_255_1_234
10
5.0536436
20
21.3403179
40
0.3983935
50
178.438168
51
180.0083905
0
ARC
8
DEFAULT_255_1_234
10
4.9135038
20
21.3442231
40
0.4068601
50
163.2878735
51
180.5581814
0
ARC
8
DEFAULT_255_1_234
10
4.8333299
20
21.366284
40
0.3237344
50
133.454115
51
162.9470031
0
ARC
8
DEFAULT_255_1_234
10
4.8511841
20
21.3473
40
0.349795
50
100.7869394
51
133.4384016
0
ARC
8
DEFAULT_255_1_234
10
4.8859612
20
21.1924319
40
0.5084616
50
89.6605301
51
101.3704185
0
ARC
8
DEFAULT_255_1_234
10
4.8925951
20
21.1985496
40
0.502348
50
78.2171172
51
90.4130393
0
ARC
8
DEFAULT_255_1_234
10
4.9281029
20
21.3609637
40
0.3361092
50
55.9268222
51
78.4888551
0
ARC
8
DEFAULT_255_1_234
10
4.9477469
20
21.3948324
40
0.2970617
50
47.9292255
51
55.4054003
0
ARC
8
DEFAULT_255_1_234
10
4.957903
20
21.4051502
40
0.2825983
50
4.3347696
51
48.0560701
0
ARC
8
DEFAULT_255_1_234
10
4.8483424
20
21.3881601
40
0.393225
50
359.925209
51
5.5967654
0
ARC
8
DEFAULT_255_1_234
10
4.8912315
20
21.3937816
40
0.3503892
50
337.8914096
51
358.9967724
0
ARC
8
DEFAULT_255_1_234
10
4.6198727
20
21.4984706
40
0.6412172
50
326.9135351
51
338.3505194
0
ARC
8
DEFAULT_255_1_234
10
4.2213031
20
21.7539284
40
1.1146189
50
319.6472867
51
327.095818
0
ARC
8
DEFAULT_255_1_234
10
3.8380034
20
22.0701
40
1.6114559
50
317.2586784
51
319.9046139
0
LINE
8
DEFAULT_255_1_234
10
5.8937442
20
21.4840276
11
5.8937442
21
21.1426788
0
LINE
8
DEFAULT_255_1_234
10
5.8937442
20
21.1426788
11
6.2198328
21
21.1426788
0
LINE
8
DEFAULT_255_1_234
10
6.2198328
20
21.1426788
11
6.2198328
21
21.0021233
0
LINE
8
DEFAULT_255_1_234
10
6.2198328
20
21.0021233
11
5.8937442
21
21.0021233
0
LINE
8
DEFAULT_255_1_234
10
5.8937442
20
21.0021233
11
5.8937442
21
20.6326634
0
LINE
8
DEFAULT_255_1_234
10
5.8937442
20
20.6326634
11
5.7443539
21
20.6326634
0
LINE
8
DEFAULT_255_1_234
10
5.7443539
20
20.6326634
11
5.7443539
21
21.0021233
0
LINE
8
DEFAULT_255_1_234
10
5.7443539
20
21.0021233
11
5.4182653
21
21.0021233
0
LINE
8
DEFAULT_255_1_234
10
5.4182653
20
21.0021233
11
5.4182653
21
21.1426788
0
LINE
8
DEFAULT_255_1_234
10
5.4182653
20
21.1426788
11
5.7443539
21
21.1426788
0
LINE
8
DEFAULT_255_1_234
10
5.7443539
20
21.1426788
11
5.7443539
21
21.4840276
0
LINE
8
DEFAULT_255_1_234
10
5.7443539
20
21.4840276
11
5.8937442
21
21.4840276
0
LINE
8
DEFAULT_255_1_234
10
4.2857902
20
29.6223211
11
4.2857902
21
28.4529
0
LINE
8
DEFAULT_255_1_234
10
4.2857902
20
28.4529
11
4.1315808
21
28.4529
0
LINE
8
DEFAULT_255_1_234
10
4.1315808
20
28.4529
11
4.1315808
21
29.6223211
0
LINE
8
DEFAULT_255_1_234
10
4.1315808
20
29.6223211
11
4.2857902
21
29.6223211
0
LINE
8
DEFAULT_255_1_234
10
5.0174815
20
29.6279433
11
5.0174815
21
28.4529
0
LINE
8
DEFAULT_255_1_234
10
5.0174815
20
28.4529
11
4.8680912
21
28.4529
0
LINE
8
DEFAULT_255_1_234
10
4.8680912
20
28.4529
11
4.8680912
21
29.4432133
0
LINE
8
DEFAULT_255_1_234
10
4.8680912
20
29.4432133
11
4.5685074
21
29.3331785
0
LINE
8
DEFAULT_255_1_234
10
4.5685074
20
29.3331785
11
4.5685074
21
29.4681117
0
LINE
8
DEFAULT_255_1_234
10
4.5685074
20
29.4681117
11
4.9941895
21
29.6279433
0
LINE
8
DEFAULT_255_1_234
10
4.9941895
20
29.6279433
11
5.0174815
21
29.6279433
0
LINE
8
DEFAULT_255_1_234
10
5.8937442
20
29.4215276
11
5.8937442
21
29.0801788
0
LINE
8
DEFAULT_255_1_234
10
5.8937442
20
29.0801788
11
6.2198328
21
29.0801788
0
LINE
8
DEFAULT_255_1_234
10
6.2198328
20
29.0801788
11
6.2198328
21
28.9396233
0
LINE
8
DEFAULT_255_1_234
10
6.2198328
20
28.9396233
11
5.8937442
21
28.9396233
0
LINE
8
DEFAULT_255_1_234
10
5.8937442
20
28.9396233
11
5.8937442
21
28.5701634
0
LINE
8
DEFAULT_255_1_234
10
5.8937442
20
28.5701634
11
5.7443539
21
28.5701634
0
LINE
8
DEFAULT_255_1_234
10
5.7443539
20
28.5701634
11
5.7443539
21
28.9396233
0
LINE
8
DEFAULT_255_1_234
10
5.7443539
20
28.9396233
11
5.4182653
21
28.9396233
0
LINE
8
DEFAULT_255_1_234
10
5.4182653
20
28.9396233
11
5.4182653
21
29.0801788
0
LINE
8
DEFAULT_255_1_234
10
5.4182653
20
29.0801788
11
5.7443539
21
29.0801788
0
LINE
8
DEFAULT_255_1_234
10
5.7443539
20
29.0801788
11
5.7443539
21
29.4215276
0
LINE
8
DEFAULT_255_1_234
10
5.7443539
20
29.4215276
11
5.8937442
21
29.4215276
0
LINE
8
DEFAULT_255_1_234
10
4.2857902
20
37.5598211
11
4.2857902
21
36.3904
0
LINE
8
DEFAULT_255_1_234
10
4.2857902
20
36.3904
11
4.1315808
21
36.3904
0
LINE
8
DEFAULT_255_1_234
10
4.1315808
20
36.3904
11
4.1315808
21
37.5598211
0
LINE
8
DEFAULT_255_1_234
10
4.1315808
20
37.5598211
11
4.2857902
21
37.5598211
0
LINE
8
DEFAULT_255_1_234
10
5.2624496
20
37.0819327
11
5.2624496
21
36.8891709
0
LINE
8
DEFAULT_255_1_234
10
4.5243328
20
36.8690916
11
4.5243328
21
37.0674755
0
LINE
8
DEFAULT_255_1_234
10
5.1138624
20
36.8490123
11
5.1138624
21
37.0923739
0
LINE
8
DEFAULT_255_1_234
10
4.67292
20
37.1036184
11
4.67292
21
36.8658789
0
ARC
8
DEFAULT_255_1_234
10
4.0377385
20
36.8842805
40
1.2247208
50
353.8441951
51
0.2287902
0
ARC
8
DEFAULT_255_1_234
10
4.5016889
20
36.8324806
40
0.7578929
50
344.4934747
51
353.9765454
0
ARC
8
DEFAULT_255_1_234
10
4.8009479
20
36.7473981
40
0.4467846
50
329.2803592
51
344.7472793
0
ARC
8
DEFAULT_255_1_234
10
4.9002304
20
36.6929018
40
0.3336173
50
324.9352394
51
328.6160465
0
ARC
8
DEFAULT_255_1_234
10
4.9379413
20
36.6665427
40
0.2876076
50
280.580143
51
324.9173126
0
ARC
8
DEFAULT_255_1_234
10
4.8978205
20
36.8336099
40
0.4592847
50
269.5977311
51
281.6734359
0
ARC
8
DEFAULT_255_1_234
10
4.8906111
20
36.8216173
40
0.4472986
50
256.6228859
51
270.51044
0
ARC
8
DEFAULT_255_1_234
10
4.8504089
20
36.6667877
40
0.2873874
50
215.8618325
51
257.2788573
0
ARC
8
DEFAULT_255_1_234
10
4.952512
20
36.7352977
40
0.4102928
50
197.9693508
51
215.2623606
0
ARC
8
DEFAULT_255_1_234
10
5.2010236
20
36.8191709
40
0.6725652
50
187.8816417
51
198.2346507
0
ARC
8
DEFAULT_255_1_234
10
5.5968444
20
36.8763079
40
1.0724845
50
180.8976217
51
188.0055519
0
ARC
8
DEFAULT_255_1_234
10
5.8768632
20
36.8866777
40
1.3526448
50
180.7449369
51
181.1510016
0
ARC
8
DEFAULT_255_1_234
10
5.7191361
20
37.0723042
40
1.1948131
50
173.7675579
51
180.231553
0
ARC
8
DEFAULT_255_1_234
10
5.2673508
20
37.1233666
40
0.7401564
50
164.3058563
51
173.9002247
0
ARC
8
DEFAULT_255_1_234
10
4.9761577
20
37.2072656
40
0.4371288
50
148.7922025
51
164.568378
0
ARC
8
DEFAULT_255_1_234
10
4.8810029
20
37.2603929
40
0.3282386
50
144.5883898
51
148.1176286
0
ARC
8
DEFAULT_255_1_234
10
4.8466927
20
37.2843315
40
0.2864044
50
101.6440918
51
144.514236
0
ARC
8
DEFAULT_255_1_234
10
4.8891994
20
37.1154069
40
0.4604934
50
89.5284041
51
102.5819763
0
ARC
8
DEFAULT_255_1_234
10
4.8971081
20
37.1115018
40
0.464401
50
77.0437873
51
90.5081339
0
ARC
8
DEFAULT_255_1_234
10
4.9373083
20
37.2757615
40
0.2953195
50
48.2778575
51
77.4994676
0
ARC
8
DEFAULT_255_1_234
10
4.9445714
20
37.2886746
40
0.2808655
50
36.3142134
51
47.6305865
0
ARC
8
DEFAULT_255_1_234
10
4.8577021
20
37.2301515
40
0.3855453
50
18.2931786
51
35.6769206
0
ARC
8
DEFAULT_255_1_234
10
4.603378
20
37.1428593
40
0.654423
50
8.024666
51
18.5605216
0
ARC
8
DEFAULT_255_1_234
10
4.18707
20
37.0813792
40
1.0752407
50
1.1274072
51
8.1718305
0
ARC
8
DEFAULT_255_1_234
10
3.8634891
20
37.0686885
40
1.3990231
50
0.5424119
51
1.3863029
0
ARC
8
DEFAULT_255_1_234
10
4.0456269
20
37.0959342
40
1.0682415
50
359.8090433
51
4.9407866
0
ARC
8
DEFAULT_255_1_234
10
4.4666283
20
37.1335113
40
0.6455691
50
4.8362157
51
12.2904523
0
ARC
8
DEFAULT_255_1_234
10
4.7421398
20
37.1948965
40
0.3633074
50
12.0805627
51
23.8173984
0
ARC
8
DEFAULT_255_1_234
10
4.8595103
20
37.2445919
40
0.2358723
50
24.2871213
51
31.3935614
0
ARC
8
DEFAULT_255_1_234
10
4.91198
20
37.2789233
40
0.1732111
50
30.7407893
51
82.4657128
0
ARC
8
DEFAULT_255_1_234
10
4.8939934
20
37.1905691
40
0.263235
50
81.1060089
51
90.2184952
0
ARC
8
DEFAULT_255_1_234
10
4.8904233
20
37.2163924
40
0.2374236
50
89.3806855
51
105.6762551
0
ARC
8
DEFAULT_255_1_234
10
4.8720864
20
37.2830567
40
0.1682847
50
105.7981136
51
149.7388061
0
ARC
8
DEFAULT_255_1_234
10
4.9784942
20
37.219095
40
0.2924306
50
149.4208916
51
163.6286378
0
ARC
8
DEFAULT_255_1_234
10
5.187583
20
37.155325
40
0.5110213
50
163.3763315
51
172.1410975
0
ARC
8
DEFAULT_255_1_234
10
5.5176549
20
37.1080518
40
0.8444586
50
172.0259487
51
178.0703232
0
ARC
8
DEFAULT_255_1_234
10
5.8206639
20
37.0936906
40
1.1477868
50
177.8631668
51
179.5044149
0
ARC
8
DEFAULT_255_1_234
10
5.7134043
20
36.8622389
40
1.0404907
50
179.7995573
51
185.2460446
0
ARC
8
DEFAULT_255_1_234
10
5.3091083
20
36.8239513
40
0.6343885
50
185.1411642
51
193.0079639
0
ARC
8
DEFAULT_255_1_234
10
5.0447555
20
36.7614641
40
0.3627568
50
192.7897626
51
205.2507664
0
ARC
8
DEFAULT_255_1_234
10
4.9401102
20
36.7147415
40
0.2481908
50
205.8005384
51
211.2537509
0
ARC
8
DEFAULT_255_1_234
10
4.8877543
20
36.679658
40
0.1852521
50
210.3789793
51
238.4008143
0
ARC
8
DEFAULT_255_1_234
10
4.8858064
20
36.6843376
40
0.1882621
50
239.6520629
51
265.9793761
0
ARC
8
DEFAULT_255_1_234
10
4.8943265
20
36.7515427
40
0.2559272
50
265.1315437
51
270.060332
0
ARC
8
DEFAULT_255_1_234
10
4.8972043
20
36.7191534
40
0.2235528
50
269.3314664
51
287.2178029
0
ARC
8
DEFAULT_255_1_234
10
4.9109895
20
36.6688279
40
0.1714108
50
287.7958004
51
329.080874
0
ARC
8
DEFAULT_255_1_234
10
4.8152352
20
36.728593
40
0.2842745
50
328.6634704
51
343.3325132
0
ARC
8
DEFAULT_255_1_234
10
4.5979372
20
36.7962863
40
0.5118644
50
343.0499468
51
351.9393422
0
ARC
8
DEFAULT_255_1_234
10
4.2512672
20
36.8473949
40
0.8622784
50
351.8069023
51
357.7959224
0
ARC
8
DEFAULT_255_1_234
10
3.9277228
20
36.8641721
40
1.1862365
50
357.5871873
51
359.2677531
0
LINE
8
DEFAULT_255_1_234
10
5.8937442
20
37.3590276
11
5.8937442
21
37.0176788
0
LINE
8
DEFAULT_255_1_234
10
5.8937442
20
37.0176788
11
6.2198328
21
37.0176788
0
LINE
8
DEFAULT_255_1_234
10
6.2198328
20
37.0176788
11
6.2198328
21
36.8771233
0
LINE
8
DEFAULT_255_1_234
10
6.2198328
20
36.8771233
11
5.8937442
21
36.8771233
0
LINE
8
DEFAULT_255_1_234
10
5.8937442
20
36.8771233
11
5.8937442
21
36.5076634
0
LINE
8
DEFAULT_255_1_234
10
5.8937442
20
36.5076634
11
5.7443539
21
36.5076634
0
LINE
8
DEFAULT_255_1_234
10
5.7443539
20
36.5076634
11
5.7443539
21
36.8771233
0
LINE
8
DEFAULT_255_1_234
10
5.7443539
20
36.8771233
11
5.4182653
21
36.8771233
0
LINE
8
DEFAULT_255_1_234
10
5.4182653
20
36.8771233
11
5.4182653
21
37.0176788
0
LINE
8
DEFAULT_255_1_234
10
5.4182653
20
37.0176788
11
5.7443539
21
37.0176788
0
LINE
8
DEFAULT_255_1_234
10
5.7443539
20
37.0176788
11
5.7443539
21
37.3590276
0
LINE
8
DEFAULT_255_1_234
10
5.7443539
20
37.3590276
11
5.8937442
21
37.3590276
0
LINE
8
DEFAULT_255_1_234
10
4.2446489
20
45.4973211
11
4.2446489
21
44.4539983
0
LINE
8
DEFAULT_255_1_234
10
4.2446489
20
44.4539983
11
4.7988389
21
44.4539983
0
LINE
8
DEFAULT_255_1_234
10
4.7988389
20
44.4539983
11
4.7988389
21
44.3279
0
LINE
8
DEFAULT_255_1_234
10
4.7988389
20
44.3279
11
4.0896364
21
44.3279
0
LINE
8
DEFAULT_255_1_234
10
4.0896364
20
44.3279
11
4.0896364
21
45.4973211
0
LINE
8
DEFAULT_255_1_234
10
4.0896364
20
45.4973211
11
4.2446489
21
45.4973211
0
LINE
8
DEFAULT_255_1_234
10
5.377124
20
45.2965276
11
5.377124
21
44.9551788
0
LINE
8
DEFAULT_255_1_234
10
5.377124
20
44.9551788
11
5.7032126
21
44.9551788
0
LINE
8
DEFAULT_255_1_234
10
5.7032126
20
44.9551788
11
5.7032126
21
44.8146233
0
LINE
8
DEFAULT_255_1_234
10
5.7032126
20
44.8146233
11
5.377124
21
44.8146233
0
LINE
8
DEFAULT_255_1_234
10
5.377124
20
44.8146233
11
5.377124
21
44.4451634
0
LINE
8
DEFAULT_255_1_234
10
5.377124
20
44.4451634
11
5.2277337
21
44.4451634
0
LINE
8
DEFAULT_255_1_234
10
5.2277337
20
44.4451634
11
5.2277337
21
44.8146233
0
LINE
8
DEFAULT_255_1_234
10
5.2277337
20
44.8146233
11
4.9016451
21
44.8146233
0
LINE
8
DEFAULT_255_1_234
10
4.9016451
20
44.8146233
11
4.9016451
21
44.9551788
0
LINE
8
DEFAULT_255_1_234
10
4.9016451
20
44.9551788
11
5.2277337
21
44.9551788
0
LINE
8
DEFAULT_255_1_234
10
5.2277337
20
44.9551788
11
5.2277337
21
45.2965276
0
LINE
8
DEFAULT_255_1_234
10
5.2277337
20
45.2965276
11
5.377124
21
45.2965276
0
LINE
8
DEFAULT_255_1_234
10
23.0463364
20
53.4348211
11
23.2455235
21
53.4348211
0
LINE
8
DEFAULT_255_1_234
10
23.2455235
20
53.4348211
11
23.6278342
21
52.4806506
0
LINE
8
DEFAULT_255_1_234
10
23.6278342
20
52.4806506
11
24.010145
21
53.4348211
0
LINE
8
DEFAULT_255_1_234
10
24.010145
20
53.4348211
11
24.2101353
21
53.4348211
0
LINE
8
DEFAULT_255_1_234
10
24.2101353
20
53.4348211
11
24.2101353
21
52.2654
0
LINE
8
DEFAULT_255_1_234
10
24.2101353
20
52.2654
11
24.0559259
21
52.2654
0
LINE
8
DEFAULT_255_1_234
10
24.0559259
20
52.2654
11
24.0559259
21
52.7207996
0
LINE
8
DEFAULT_255_1_234
10
24.0559259
20
52.7207996
11
24.070383
21
53.2123419
0
LINE
8
DEFAULT_255_1_234
10
24.070383
20
53.2123419
11
23.6864659
21
52.2654
0
LINE
8
DEFAULT_255_1_234
10
23.6864659
20
52.2654
11
23.5683994
21
52.2654
0
LINE
8
DEFAULT_255_1_234
10
23.5683994
20
52.2654
11
23.1852854
21
53.2099324
0
LINE
8
DEFAULT_255_1_234
10
23.1852854
20
53.2099324
11
23.2005458
21
52.7207996
0
LINE
8
DEFAULT_255_1_234
10
23.2005458
20
52.7207996
11
23.2005458
21
52.2654
0
LINE
8
DEFAULT_255_1_234
10
23.2005458
20
52.2654
11
23.0463364
21
52.2654
0
LINE
8
DEFAULT_255_1_234
10
23.0463364
20
52.2654
11
23.0463364
21
53.4348211
0
LINE
8
DEFAULT_255_1_234
10
23.187485
20
5.2829391
11
23.187485
21
5.1568408
0
LINE
8
DEFAULT_255_1_234
10
23.187485
20
5.1568408
11
22.6967458
21
5.1568408
0
LINE
8
DEFAULT_255_1_234
10
22.6967458
20
5.1568408
11
22.6967458
21
4.6404
0
LINE
8
DEFAULT_255_1_234
10
22.6967458
20
4.6404
11
22.5425364
21
4.6404
0
LINE
8
DEFAULT_255_1_234
10
22.5425364
20
4.6404
11
22.5425364
21
5.8098211
0
LINE
8
DEFAULT_255_1_234
10
22.5425364
20
5.8098211
11
23.2669992
21
5.8098211
0
LINE
8
DEFAULT_255_1_234
10
23.2669992
20
5.8098211
11
23.2669992
21
5.6829196
0
LINE
8
DEFAULT_255_1_234
10
23.2669992
20
5.6829196
11
22.6967458
21
5.6829196
0
LINE
8
DEFAULT_255_1_234
10
22.6967458
20
5.6829196
11
22.6967458
21
5.2829391
0
LINE
8
DEFAULT_255_1_234
10
22.6967458
20
5.2829391
11
23.187485
21
5.2829391
0
LINE
8
DEFAULT_255_1_234
10
24.1127412
20
5.3070343
11
24.1127412
21
5.180936
0
LINE
8
DEFAULT_255_1_234
10
24.1127412
20
5.180936
11
23.6059385
21
5.180936
0
LINE
8
DEFAULT_255_1_234
10
23.6059385
20
5.180936
11
23.6059385
21
4.7664983
0
LINE
8
DEFAULT_255_1_234
10
23.6059385
20
4.7664983
11
24.1946649
21
4.7664983
0
LINE
8
DEFAULT_255_1_234
10
24.1946649
20
4.7664983
11
24.1946649
21
4.6404
0
LINE
8
DEFAULT_255_1_234
10
24.1946649
20
4.6404
11
23.4517292
21
4.6404
0
LINE
8
DEFAULT_255_1_234
10
23.4517292
20
4.6404
11
23.4517292
21
5.8098211
0
LINE
8
DEFAULT_255_1_234
10
23.4517292
20
5.8098211
11
24.1866332
21
5.8098211
0
LINE
8
DEFAULT_255_1_234
10
24.1866332
20
5.8098211
11
24.1866332
21
5.6829196
0
LINE
8
DEFAULT_255_1_234
10
24.1866332
20
5.6829196
11
23.6059385
21
5.6829196
0
LINE
8
DEFAULT_255_1_234
10
23.6059385
20
5.6829196
11
23.6059385
21
5.3070343
0
LINE
8
DEFAULT_255_1_234
10
23.6059385
20
5.3070343
11
24.1127412
21
5.3070343
0
LINE
8
DEFAULT_255_1_234
10
22.3315911
20
13.1987534
11
22.3315911
21
13.1248614
0
LINE
8
DEFAULT_255_1_234
10
21.3910745
20
13.1144201
11
21.3910745
21
13.1987534
0
LINE
8
DEFAULT_255_1_234
10
22.1781849
20
13.1136169
11
22.1781849
21
13.2003597
0
LINE
8
DEFAULT_255_1_234
10
21.5444807
20
13.210801
11
21.5444807
21
13.1248614
0
ARC
8
DEFAULT_255_1_234
10
21.4673937
20
13.1209015
40
0.8642064
50
350.487711
51
0.2625388
0
ARC
8
DEFAULT_255_1_234
10
21.6967178
20
13.0814578
40
0.631518
50
336.0277639
51
350.5787438
0
ARC
8
DEFAULT_255_1_234
10
21.8312002
20
13.0206892
40
0.4839466
50
319.8877444
51
336.1328423
0
ARC
8
DEFAULT_255_1_234
10
21.8914643
20
12.972458
40
0.4067874
50
302.4806467
51
319.6143626
0
ARC
8
DEFAULT_255_1_234
10
21.8799653
20
12.9946202
40
0.4316636
50
275.8195682
51
302.1884709
0
ARC
8
DEFAULT_255_1_234
10
21.8633286
20
13.1088665
40
0.5470306
50
269.9171439
51
276.3397983
0
ARC
8
DEFAULT_255_1_234
10
21.8588496
20
13.0402681
40
0.4784458
50
252.5219675
51
270.4416499
0
ARC
8
DEFAULT_255_1_234
10
21.8444755
20
12.9863592
40
0.422716
50
237.5352116
51
252.1857531
0
ARC
8
DEFAULT_255_1_234
10
21.8533951
20
12.9977363
40
0.4371052
50
209.063312
51
237.3492538
0
ARC
8
DEFAULT_255_1_234
10
21.9403799
20
13.0523685
40
0.5397041
50
205.1183774
51
209.6470015
0
ARC
8
DEFAULT_255_1_234
10
22.0200836
20
13.086183
40
0.6262326
50
188.7215458
51
204.8240747
0
ARC
8
DEFAULT_255_1_234
10
22.2198364
20
13.1198067
40
0.8287794
50
180.3723947
51
188.9252049
0
ARC
8
DEFAULT_255_1_234
10
22.2171116
20
13.2027402
40
0.8260467
50
169.5253763
51
180.2765336
0
ARC
8
DEFAULT_255_1_234
10
22.0268564
20
13.2377309
40
0.6326007
50
155.8315255
51
169.5089989
0
ARC
8
DEFAULT_255_1_234
10
21.8988066
20
13.2971348
40
0.4914567
50
139.6258461
51
156.0379525
0
ARC
8
DEFAULT_255_1_234
10
21.8398399
20
13.3445799
40
0.4158054
50
122.6416387
51
139.3430715
0
ARC
8
DEFAULT_255_1_234
10
21.8499019
20
13.3262451
40
0.4366739
50
93.0223692
51
122.455762
0
ARC
8
DEFAULT_255_1_234
10
21.8607016
20
13.2297709
40
0.5336137
50
89.975342
51
93.6341897
0
ARC
8
DEFAULT_255_1_234
10
21.8645795
20
13.2696242
40
0.4937738
50
73.746375
51
90.4233405
0
ARC
8
DEFAULT_255_1_234
10
21.8821373
20
13.3376287
40
0.4235786
50
57.662753
51
73.4518111
0
ARC
8
DEFAULT_255_1_234
10
21.881338
20
13.3397832
40
0.4221899
50
29.1440151
51
57.414694
0
ARC
8
DEFAULT_255_1_234
10
21.7878574
20
13.2814005
40
0.5322966
50
24.0982783
51
29.7323517
0
ARC
8
DEFAULT_255_1_234
10
21.684485
20
13.2385399
40
0.6441673
50
8.6655297
51
23.8241346
0
ARC
8
DEFAULT_255_1_234
10
21.4610588
20
13.2020854
40
0.8705386
50
359.7806941
51
8.8218784
0
ARC
8
DEFAULT_255_1_234
10
21.3463586
20
13.2046345
40
0.8318373
50
359.7055579
51
8.036044
0
ARC
8
DEFAULT_255_1_234
10
21.6463592
20
13.2483239
40
0.5286768
50
7.8928306
51
20.2962107
0
ARC
8
DEFAULT_255_1_234
10
21.8091162
20
13.3083395
40
0.3552073
50
20.3231126
51
36.4992797
0
ARC
8
DEFAULT_255_1_234
10
21.8776708
20
13.3611402
40
0.2686974
50
36.1437156
51
85.6627023
0
ARC
8
DEFAULT_255_1_234
10
21.8614254
20
13.2571221
40
0.373739
50
84.3852322
51
90.0757696
0
ARC
8
DEFAULT_255_1_234
10
21.8571927
20
13.3231839
40
0.3076997
50
89.3038458
51
109.9045693
0
ARC
8
DEFAULT_255_1_234
10
21.8479318
20
13.3614062
40
0.2686424
50
110.8228367
51
143.9179474
0
ARC
8
DEFAULT_255_1_234
10
21.9412978
20
13.2901236
40
0.3860887
50
143.5289163
51
163.2980757
0
ARC
8
DEFAULT_255_1_234
10
22.1320799
20
13.2301433
40
0.5860659
50
163.0418846
51
174.3140048
0
ARC
8
DEFAULT_255_1_234
10
22.3724911
20
13.2023854
40
0.8280531
50
174.0509143
51
179.4176892
0
ARC
8
DEFAULT_255_1_234
10
22.322065
20
13.1206954
40
0.7775954
50
179.6930361
51
188.7906598
0
ARC
8
DEFAULT_255_1_234
10
22.0557129
20
13.0780935
40
0.5078633
50
188.6331305
51
202.5629587
0
ARC
8
DEFAULT_255_1_234
10
21.9302721
20
13.0276996
40
0.3726913
50
202.8081362
51
216.1193925
0
ARC
8
DEFAULT_255_1_234
10
21.8493291
20
12.9625676
40
0.2689577
50
215.0755913
51
264.6379694
0
ARC
8
DEFAULT_255_1_234
10
21.862024
20
13.0456513
40
0.3528978
50
263.846392
51
270.0833719
0
ARC
8
DEFAULT_255_1_234
10
21.8661631
20
13.0198374
40
0.3271036
50
269.3649385
51
287.5152008
0
ARC
8
DEFAULT_255_1_234
10
21.8839788
20
12.9551238
40
0.2600406
50
288.0630309
51
323.8113348
0
ARC
8
DEFAULT_255_1_234
10
21.796863
20
13.0201049
40
0.3687189
50
323.6547608
51
342.6590488
0
ARC
8
DEFAULT_255_1_234
10
21.5937245
20
13.0861952
40
0.5823286
50
342.4091907
51
353.6451149
0
ARC
8
DEFAULT_255_1_234
10
21.3105756
20
13.121419
40
0.8676442
50
353.4029884
51
359.4847795
0
LINE
8
DEFAULT_255_1_234
10
22.7404065
20
13.1136169
11
22.7404065
21
13.2348962
0
LINE
8
DEFAULT_255_1_234
10
22.7404065
20
13.2348962
11
22.8520477
21
13.2348962
0
LINE
8
DEFAULT_255_1_234
10
22.6616955
20
13.4405087
11
22.5131083
21
13.4405087
0
LINE
8
DEFAULT_255_1_234
10
22.5026671
20
12.8863188
11
22.6520574
21
12.8863188
0
LINE
8
DEFAULT_255_1_234
10
22.8520477
20
13.1136169
11
22.7404065
21
13.1136169
0
ARC
8
DEFAULT_255_1_234
10
22.8491343
20
13.5741713
40
0.3392876
50
270.4919872
51
281.8951556
0
ARC
8
DEFAULT_255_1_234
10
22.8732605
20
13.4639702
40
0.2264817
50
281.6691735
51
301.2943132
0
ARC
8
DEFAULT_255_1_234
10
22.8902815
20
13.4328304
40
0.1910381
50
301.7833094
51
311.7545298
0
ARC
8
DEFAULT_255_1_234
10
22.8994391
20
13.4226748
40
0.1773635
50
311.7323931
51
354.2802411
0
ARC
8
DEFAULT_255_1_234
10
22.8268016
20
13.4351722
40
0.2509385
50
353.0937916
51
0.1181479
0
ARC
8
DEFAULT_255_1_234
10
22.7806801
20
13.4399386
40
0.2970898
50
359.1805295
51
15.0453146
0
ARC
8
DEFAULT_255_1_234
10
22.9152638
20
13.4791992
40
0.1569564
50
13.9577229
51
77.6713066
0
ARC
8
DEFAULT_255_1_234
10
22.8766167
20
13.3406949
40
0.3006298
50
76.1116566
51
90.7026153
0
ARC
8
DEFAULT_255_1_234
10
22.8707006
20
13.3680545
40
0.2732568
50
89.5324876
51
103.531937
0
ARC
8
DEFAULT_255_1_234
10
22.850645
20
13.4479884
40
0.1908508
50
103.2931773
51
133.5619022
0
ARC
8
DEFAULT_255_1_234
10
22.8461938
20
13.4539375
40
0.1834746
50
133.8349307
51
173.5344437
0
ARC
8
DEFAULT_255_1_234
10
22.9184981
20
13.4411213
40
0.2568033
50
172.5096846
51
180.1366907
0
ARC
8
DEFAULT_255_1_234
10
22.8233875
20
13.4445622
40
0.3103056
50
155.3484492
51
180.7484736
0
ARC
8
DEFAULT_255_1_234
10
22.8184964
20
13.4416846
40
0.3070957
50
131.5744599
51
154.4798489
0
ARC
8
DEFAULT_255_1_234
10
22.8498112
20
13.410031
40
0.3515643
50
96.9875458
51
131.9690667
0
ARC
8
DEFAULT_255_1_234
10
22.8717591
20
13.2854636
40
0.4779224
50
89.8596053
51
97.7825159
0
ARC
8
DEFAULT_255_1_234
10
22.8765655
20
13.2592616
40
0.5041361
50
78.3655447
51
90.4131539
0
ARC
8
DEFAULT_255_1_234
10
22.9123573
20
13.4251887
40
0.3344039
50
56.6229102
51
78.638727
0
ARC
8
DEFAULT_255_1_234
10
22.9338516
20
13.4627805
40
0.2912001
50
47.0253525
51
56.0854072
0
ARC
8
DEFAULT_255_1_234
10
22.9358296
20
13.4667223
40
0.2869704
50
10.9208013
51
46.7778124
0
ARC
8
DEFAULT_255_1_234
10
22.7994363
20
13.4351857
40
0.426899
50
359.6364486
51
11.6087304
0
ARC
8
DEFAULT_255_1_234
10
22.9829207
20
13.4336752
40
0.243409
50
332.3549906
51
359.7179418
0
ARC
8
DEFAULT_255_1_234
10
22.9178808
20
13.4645142
40
0.3153459
50
325.2333722
51
332.8745602
0
ARC
8
DEFAULT_255_1_234
10
22.9331432
20
13.4538828
40
0.2967456
50
292.9802137
51
325.2392345
0
ARC
8
DEFAULT_255_1_234
10
22.9056806
20
13.5072863
40
0.3566604
50
292.5402179
51
293.6924929
0
ARC
8
DEFAULT_255_1_234
10
22.9449402
20
12.8618091
40
0.3307468
50
57.6435486
51
72.8625112
0
ARC
8
DEFAULT_255_1_234
10
22.9803901
20
12.9192549
40
0.2632492
50
36.7248896
51
57.4697979
0
ARC
8
DEFAULT_255_1_234
10
22.9792534
20
12.920522
40
0.2634081
50
8.0545065
51
36.356114
0
ARC
8
DEFAULT_255_1_234
10
22.8929719
20
12.9050174
40
0.3510261
50
359.8320645
51
8.5869982
0
ARC
8
DEFAULT_255_1_234
10
22.8554496
20
12.9002101
40
0.3885653
50
343.9829931
51
0.5571613
0
ARC
8
DEFAULT_255_1_234
10
22.9440693
20
12.8759438
40
0.2966924
50
311.6359546
51
343.7651759
0
ARC
8
DEFAULT_255_1_234
10
22.9062262
20
12.9186102
40
0.3537231
50
279.7829875
51
311.6255694
0
ARC
8
DEFAULT_255_1_234
10
22.8761038
20
13.062328
40
0.5004971
50
269.7286406
51
280.3856417
0
ARC
8
DEFAULT_255_1_234
10
22.8699111
20
13.0581996
40
0.4963778
50
256.6828919
51
270.4412052
0
ARC
8
DEFAULT_255_1_234
10
22.8360407
20
12.9197394
40
0.3538406
50
229.4223008
51
256.8556159
0
ARC
8
DEFAULT_255_1_234
10
22.7945799
20
12.8730736
40
0.2914296
50
181.818294
51
229.6455059
0
ARC
8
DEFAULT_255_1_234
10
22.8985756
20
12.8861496
40
0.3959084
50
179.9755256
51
183.2323064
0
ARC
8
DEFAULT_255_1_234
10
22.8813501
20
12.8841037
40
0.2293034
50
179.4465117
51
196.2869258
0
ARC
8
DEFAULT_255_1_234
10
22.8325909
20
12.8707651
40
0.1787621
50
196.5661473
51
227.705904
0
ARC
8
DEFAULT_255_1_234
10
22.8490004
20
12.8891155
40
0.2033784
50
227.7652068
51
257.8762805
0
ARC
8
DEFAULT_255_1_234
10
22.8714974
20
12.9834156
40
0.3003081
50
257.4584385
51
270.426602
0
ARC
8
DEFAULT_255_1_234
10
22.8760541
20
13.0123996
40
0.329292
50
269.5962073
51
280.8789248
0
ARC
8
DEFAULT_255_1_234
10
22.8990069
20
12.8977685
40
0.2123908
50
280.6346389
51
299.8595945
0
ARC
8
DEFAULT_255_1_234
10
22.9180976
20
12.8615212
40
0.171457
50
300.3576302
51
314.5517981
0
ARC
8
DEFAULT_255_1_234
10
22.9098036
20
12.8675919
40
0.1816095
50
315.0728369
51
345.0431014
0
ARC
8
DEFAULT_255_1_234
10
22.8174851
20
12.8944841
40
0.2777492
50
344.5986631
51
357.9269593
0
ARC
8
DEFAULT_255_1_234
10
22.7279177
20
12.9006276
40
0.3674917
50
357.4748886
51
0.0231117
0
ARC
8
DEFAULT_255_1_234
10
22.8302286
20
12.9030679
40
0.2651907
50
359.5047933
51
13.4239635
0
ARC
8
DEFAULT_255_1_234
10
22.916893
20
12.9252478
40
0.1757509
50
12.9498199
51
48.7551375
0
ARC
8
DEFAULT_255_1_234
10
22.8986664
20
12.90034
40
0.2065134
50
49.5088623
51
72.1836453
0
ARC
8
DEFAULT_255_1_234
10
22.8628816
20
12.7941291
40
0.3185836
50
71.9010081
51
84.3554254
0
ARC
8
DEFAULT_255_1_234
10
22.8467448
20
12.6580326
40
0.4556151
50
84.0193428
51
89.333121
0
LINE
8
DEFAULT_255_1_234
10
23.8889451
20
13.5465276
11
23.8889451
21
13.2051788
0
LINE
8
DEFAULT_255_1_234
10
23.8889451
20
13.2051788
11
24.2150337
21
13.2051788
0
LINE
8
DEFAULT_255_1_234
10
24.2150337
20
13.2051788
11
24.2150337
21
13.0646233
0
LINE
8
DEFAULT_255_1_234
10
24.2150337
20
13.0646233
11
23.8889451
21
13.0646233
0
LINE
8
DEFAULT_255_1_234
10
23.8889451
20
13.0646233
11
23.8889451
21
12.6951634
0
LINE
8
DEFAULT_255_1_234
10
23.8889451
20
12.6951634
11
23.7395548
21
12.6951634
0
LINE
8
DEFAULT_255_1_234
10
23.7395548
20
12.6951634
11
23.7395548
21
13.0646233
0
LINE
8
DEFAULT_255_1_234
10
23.7395548
20
13.0646233
11
23.4134662
21
13.0646233
0
LINE
8
DEFAULT_255_1_234
10
23.4134662
20
13.0646233
11
23.4134662
21
13.2051788
0
LINE
8
DEFAULT_255_1_234
10
23.4134662
20
13.2051788
11
23.7395548
21
13.2051788
0
LINE
8
DEFAULT_255_1_234
10
23.7395548
20
13.2051788
11
23.7395548
21
13.5465276
0
LINE
8
DEFAULT_255_1_234
10
23.7395548
20
13.5465276
11
23.8889451
21
13.5465276
0
LINE
8
DEFAULT_255_1_234
10
22.3315911
20
21.1362534
11
22.3315911
21
21.0623614
0
LINE
8
DEFAULT_255_1_234
10
21.3910745
20
21.0519201
11
21.3910745
21
21.1362534
0
LINE
8
DEFAULT_255_1_234
10
22.1781849
20
21.0511169
11
22.1781849
21
21.1378597
0
LINE
8
DEFAULT_255_1_234
10
21.5444807
20
21.148301
11
21.5444807
21
21.0623614
0
ARC
8
DEFAULT_255_1_234
10
21.4673937
20
21.0584015
40
0.8642064
50
350.487711
51
0.2625388
0
ARC
8
DEFAULT_255_1_234
10
21.6967178
20
21.0189578
40
0.631518
50
336.0277639
51
350.5787438
0
ARC
8
DEFAULT_255_1_234
10
21.8312002
20
20.9581892
40
0.4839466
50
319.8877444
51
336.1328423
0
ARC
8
DEFAULT_255_1_234
10
21.8914643
20
20.909958
40
0.4067874
50
302.4806467
51
319.6143626
0
ARC
8
DEFAULT_255_1_234
10
21.8799653
20
20.9321202
40
0.4316636
50
275.8195682
51
302.1884709
0
ARC
8
DEFAULT_255_1_234
10
21.8633286
20
21.0463665
40
0.5470306
50
269.9171439
51
276.3397983
0
ARC
8
DEFAULT_255_1_234
10
21.8588496
20
20.9777681
40
0.4784458
50
252.5219675
51
270.4416499
0
ARC
8
DEFAULT_255_1_234
10
21.8444755
20
20.9238592
40
0.422716
50
237.5352116
51
252.1857531
0
ARC
8
DEFAULT_255_1_234
10
21.8533951
20
20.9352363
40
0.4371052
50
209.063312
51
237.3492538
0
ARC
8
DEFAULT_255_1_234
10
21.9403799
20
20.9898685
40
0.5397041
50
205.1183774
51
209.6470015
0
ARC
8
DEFAULT_255_1_234
10
22.0200836
20
21.023683
40
0.6262326
50
188.7215458
51
204.8240747
0
ARC
8
DEFAULT_255_1_234
10
22.2198364
20
21.0573067
40
0.8287794
50
180.3723947
51
188.9252049
0
ARC
8
DEFAULT_255_1_234
10
22.2171116
20
21.1402402
40
0.8260467
50
169.5253763
51
180.2765336
0
ARC
8
DEFAULT_255_1_234
10
22.0268564
20
21.1752309
40
0.6326007
50
155.8315255
51
169.5089989
0
ARC
8
DEFAULT_255_1_234
10
21.8988066
20
21.2346348
40
0.4914567
50
139.6258461
51
156.0379525
0
ARC
8
DEFAULT_255_1_234
10
21.8398399
20
21.2820799
40
0.4158054
50
122.6416387
51
139.3430715
0
ARC
8
DEFAULT_255_1_234
10
21.8499019
20
21.2637451
40
0.4366739
50
93.0223692
51
122.455762
0
ARC
8
DEFAULT_255_1_234
10
21.8607016
20
21.1672709
40
0.5336137
50
89.975342
51
93.6341897
0
ARC
8
DEFAULT_255_1_234
10
21.8645795
20
21.2071242
40
0.4937738
50
73.746375
51
90.4233405
0
ARC
8
DEFAULT_255_1_234
10
21.8821373
20
21.2751287
40
0.4235786
50
57.662753
51
73.4518111
0
ARC
8
DEFAULT_255_1_234
10
21.881338
20
21.2772832
40
0.4221899
50
29.1440151
51
57.414694
0
ARC
8
DEFAULT_255_1_234
10
21.7878574
20
21.2189005
40
0.5322966
50
24.0982783
51
29.7323517
0
ARC
8
DEFAULT_255_1_234
10
21.684485
20
21.1760399
40
0.6441673
50
8.6655297
51
23.8241346
0
ARC
8
DEFAULT_255_1_234
10
21.4610588
20
21.1395854
40
0.8705386
50
359.7806941
51
8.8218784
0
ARC
8
DEFAULT_255_1_234
10
21.3463586
20
21.1421345
40
0.8318373
50
359.7055579
51
8.036044
0
ARC
8
DEFAULT_255_1_234
10
21.6463592
20
21.1858239
40
0.5286768
50
7.8928306
51
20.2962107
0
ARC
8
DEFAULT_255_1_234
10
21.8091162
20
21.2458395
40
0.3552073
50
20.3231126
51
36.4992797
0
ARC
8
DEFAULT_255_1_234
10
21.8776708
20
21.2986402
40
0.2686974
50
36.1437156
51
85.6627023
0
ARC
8
DEFAULT_255_1_234
10
21.8614254
20
21.1946221
40
0.373739
50
84.3852322
51
90.0757696
0
ARC
8
DEFAULT_255_1_234
10
21.8571927
20
21.2606839
40
0.3076997
50
89.3038458
51
109.9045693
0
ARC
8
DEFAULT_255_1_234
10
21.8479318
20
21.2989062
40
0.2686424
50
110.8228367
51
143.9179474
0
ARC
8
DEFAULT_255_1_234
10
21.9412978
20
21.2276236
40
0.3860887
50
143.5289163
51
163.2980757
0
ARC
8
DEFAULT_255_1_234
10
22.1320799
20
21.1676433
40
0.5860659
50
163.0418846
51
174.3140048
0
ARC
8
DEFAULT_255_1_234
10
22.3724911
20
21.1398854
40
0.8280531
50
174.0509143
51
179.4176892
0
ARC
8
DEFAULT_255_1_234
10
22.322065
20
21.0581954
40
0.7775954
50
179.6930361
51
188.7906598
0
ARC
8
DEFAULT_255_1_234
10
22.0557129
20
21.0155935
40
0.5078633
50
188.6331305
51
202.5629587
0
ARC
8
DEFAULT_255_1_234
10
21.9302721
20
20.9651996
40
0.3726913
50
202.8081362
51
216.1193925
0
ARC
8
DEFAULT_255_1_234
10
21.8493291
20
20.9000676
40
0.2689577
50
215.0755913
51
264.6379694
0
ARC
8
DEFAULT_255_1_234
10
21.862024
20
20.9831513
40
0.3528978
50
263.846392
51
270.0833719
0
ARC
8
DEFAULT_255_1_234
10
21.8661631
20
20.9573374
40
0.3271036
50
269.3649385
51
287.5152008
0
ARC
8
DEFAULT_255_1_234
10
21.8839788
20
20.8926238
40
0.2600406
50
288.0630309
51
323.8113348
0
ARC
8
DEFAULT_255_1_234
10
21.796863
20
20.9576049
40
0.3687189
50
323.6547608
51
342.6590488
0
ARC
8
DEFAULT_255_1_234
10
21.5937245
20
21.0236952
40
0.5823286
50
342.4091907
51
353.6451149
0
ARC
8
DEFAULT_255_1_234
10
21.3105756
20
21.058919
40
0.8676442
50
353.4029884
51
359.4847795
0
LINE
8
DEFAULT_255_1_234
10
23.2905806
20
20.6366792
11
23.2905806
21
20.5154
0
LINE
8
DEFAULT_255_1_234
10
23.2905806
20
20.5154
11
22.5243528
21
20.5154
0
LINE
8
DEFAULT_255_1_234
10
22.5243528
20
20.5154
11
22.5243528
21
20.6222221
0
LINE
8
DEFAULT_255_1_234
10
22.5243528
20
20.6222221
11
22.9291524
21
21.0719995
0
LINE
8
DEFAULT_255_1_234
10
22.6504511
20
21.3402595
11
22.5018639
21
21.3402595
0
LINE
8
DEFAULT_255_1_234
10
23.0166983
20
20.9764218
11
22.7034605
21
20.6366792
0
LINE
8
DEFAULT_255_1_234
10
22.7034605
20
20.6366792
11
23.2905806
21
20.6366792
0
ARC
8
DEFAULT_255_1_234
10
21.5801357
20
22.2649527
40
1.8008286
50
318.5132453
51
320.7828378
0
ARC
8
DEFAULT_255_1_234
10
22.1088332
20
21.8346426
40
1.1191493
50
320.7372736
51
323.9737074
0
ARC
8
DEFAULT_255_1_234
10
22.5008188
20
21.5506361
40
0.6350923
50
323.8961724
51
328.6421089
0
ARC
8
DEFAULT_255_1_234
10
22.7054783
20
21.4244031
40
0.3946393
50
328.8299013
51
331.789948
0
ARC
8
DEFAULT_255_1_234
10
22.8051962
20
21.3729509
40
0.2824501
50
331.4255242
51
352.9364833
0
ARC
8
DEFAULT_255_1_234
10
22.8188463
20
21.3698976
40
0.2685315
50
353.2248685
51
0.0169286
0
ARC
8
DEFAULT_255_1_234
10
22.8398339
20
21.372195
40
0.2475536
50
359.4866256
51
15.9339782
0
ARC
8
DEFAULT_255_1_234
10
22.8905325
20
21.3858286
40
0.1950618
50
16.1714718
51
43.5284424
0
ARC
8
DEFAULT_255_1_234
10
22.8982633
20
21.3935573
40
0.184134
50
43.4415429
51
83.1661404
0
ARC
8
DEFAULT_255_1_234
10
22.8848551
20
21.3198771
40
0.258926
50
82.160215
51
90.1505798
0
ARC
8
DEFAULT_255_1_234
10
22.8816979
20
21.2661865
40
0.3126255
50
89.5460705
51
102.5418777
0
ARC
8
DEFAULT_255_1_234
10
22.8574065
20
21.3692665
40
0.2067346
50
102.1739365
51
129.2061916
0
ARC
8
DEFAULT_255_1_234
10
22.8495137
20
21.3817094
40
0.1921118
50
129.7279328
51
135.7542026
0
ARC
8
DEFAULT_255_1_234
10
22.8616664
20
21.3720045
40
0.2075944
50
136.175737
51
166.3674722
0
ARC
8
DEFAULT_255_1_234
10
22.9623584
20
21.3450182
40
0.3118201
50
165.9092917
51
178.8683903
0
ARC
8
DEFAULT_255_1_234
10
23.0488445
20
21.3403179
40
0.3983935
50
178.438168
51
180.0083905
0
ARC
8
DEFAULT_255_1_234
10
22.9087047
20
21.3442231
40
0.4068601
50
163.2878735
51
180.5581814
0
ARC
8
DEFAULT_255_1_234
10
22.8285308
20
21.366284
40
0.3237344
50
133.454115
51
162.9470031
0
ARC
8
DEFAULT_255_1_234
10
22.846385
20
21.3473
40
0.349795
50
100.7869394
51
133.4384016
0
ARC
8
DEFAULT_255_1_234
10
22.8811621
20
21.1924319
40
0.5084616
50
89.6605301
51
101.3704185
0
ARC
8
DEFAULT_255_1_234
10
22.887796
20
21.1985496
40
0.502348
50
78.2171172
51
90.4130393
0
ARC
8
DEFAULT_255_1_234
10
22.9233038
20
21.3609637
40
0.3361092
50
55.9268222
51
78.4888551
0
ARC
8
DEFAULT_255_1_234
10
22.9429478
20
21.3948324
40
0.2970617
50
47.9292255
51
55.4054003
0
ARC
8
DEFAULT_255_1_234
10
22.9531039
20
21.4051502
40
0.2825983
50
4.3347696
51
48.0560701
0
ARC
8
DEFAULT_255_1_234
10
22.8435433
20
21.3881601
40
0.393225
50
359.925209
51
5.5967654
0
ARC
8
DEFAULT_255_1_234
10
22.8864325
20
21.3937816
40
0.3503892
50
337.8914096
51
358.9967724
0
ARC
8
DEFAULT_255_1_234
10
22.6150737
20
21.4984706
40
0.6412172
50
326.9135351
51
338.3505194
0
ARC
8
DEFAULT_255_1_234
10
22.216504
20
21.7539284
40
1.1146189
50
319.6472867
51
327.095818
0
ARC
8
DEFAULT_255_1_234
10
21.8332043
20
22.0701
40
1.6114559
50
317.2586784
51
319.9046139
0
LINE
8
DEFAULT_255_1_234
10
23.8889451
20
21.4840276
11
23.8889451
21
21.1426788
0
LINE
8
DEFAULT_255_1_234
10
23.8889451
20
21.1426788
11
24.2150337
21
21.1426788
0
LINE
8
DEFAULT_255_1_234
10
24.2150337
20
21.1426788
11
24.2150337
21
21.0021233
0
LINE
8
DEFAULT_255_1_234
10
24.2150337
20
21.0021233
11
23.8889451
21
21.0021233
0
LINE
8
DEFAULT_255_1_234
10
23.8889451
20
21.0021233
11
23.8889451
21
20.6326634
0
LINE
8
DEFAULT_255_1_234
10
23.8889451
20
20.6326634
11
23.7395548
21
20.6326634
0
LINE
8
DEFAULT_255_1_234
10
23.7395548
20
20.6326634
11
23.7395548
21
21.0021233
0
LINE
8
DEFAULT_255_1_234
10
23.7395548
20
21.0021233
11
23.4134662
21
21.0021233
0
LINE
8
DEFAULT_255_1_234
10
23.4134662
20
21.0021233
11
23.4134662
21
21.1426788
0
LINE
8
DEFAULT_255_1_234
10
23.4134662
20
21.1426788
11
23.7395548
21
21.1426788
0
LINE
8
DEFAULT_255_1_234
10
23.7395548
20
21.1426788
11
23.7395548
21
21.4840276
0
LINE
8
DEFAULT_255_1_234
10
23.7395548
20
21.4840276
11
23.8889451
21
21.4840276
0
LINE
8
DEFAULT_255_1_234
10
22.3315911
20
29.0737534
11
22.3315911
21
28.9998614
0
LINE
8
DEFAULT_255_1_234
10
21.3910745
20
28.9894201
11
21.3910745
21
29.0737534
0
LINE
8
DEFAULT_255_1_234
10
22.1781849
20
28.9886169
11
22.1781849
21
29.0753597
0
LINE
8
DEFAULT_255_1_234
10
21.5444807
20
29.085801
11
21.5444807
21
28.9998614
0
ARC
8
DEFAULT_255_1_234
10
21.4673937
20
28.9959015
40
0.8642064
50
350.487711
51
0.2625388
0
ARC
8
DEFAULT_255_1_234
10
21.6967178
20
28.9564578
40
0.631518
50
336.0277639
51
350.5787438
0
ARC
8
DEFAULT_255_1_234
10
21.8312002
20
28.8956892
40
0.4839466
50
319.8877444
51
336.1328423
0
ARC
8
DEFAULT_255_1_234
10
21.8914643
20
28.847458
40
0.4067874
50
302.4806467
51
319.6143626
0
ARC
8
DEFAULT_255_1_234
10
21.8799653
20
28.8696202
40
0.4316636
50
275.8195682
51
302.1884709
0
ARC
8
DEFAULT_255_1_234
10
21.8633286
20
28.9838665
40
0.5470306
50
269.9171439
51
276.3397983
0
ARC
8
DEFAULT_255_1_234
10
21.8588496
20
28.9152681
40
0.4784458
50
252.5219675
51
270.4416499
0
ARC
8
DEFAULT_255_1_234
10
21.8444755
20
28.8613592
40
0.422716
50
237.5352116
51
252.1857531
0
ARC
8
DEFAULT_255_1_234
10
21.8533951
20
28.8727363
40
0.4371052
50
209.063312
51
237.3492538
0
ARC
8
DEFAULT_255_1_234
10
21.9403799
20
28.9273685
40
0.5397041
50
205.1183774
51
209.6470015
0
ARC
8
DEFAULT_255_1_234
10
22.0200836
20
28.961183
40
0.6262326
50
188.7215458
51
204.8240747
0
ARC
8
DEFAULT_255_1_234
10
22.2198364
20
28.9948067
40
0.8287794
50
180.3723947
51
188.9252049
0
ARC
8
DEFAULT_255_1_234
10
22.2171116
20
29.0777402
40
0.8260467
50
169.5253763
51
180.2765336
0
ARC
8
DEFAULT_255_1_234
10
22.0268564
20
29.1127309
40
0.6326007
50
155.8315255
51
169.5089989
0
ARC
8
DEFAULT_255_1_234
10
21.8988066
20
29.1721348
40
0.4914567
50
139.6258461
51
156.0379525
0
ARC
8
DEFAULT_255_1_234
10
21.8398399
20
29.2195799
40
0.4158054
50
122.6416387
51
139.3430715
0
ARC
8
DEFAULT_255_1_234
10
21.8499019
20
29.2012451
40
0.4366739
50
93.0223692
51
122.455762
0
ARC
8
DEFAULT_255_1_234
10
21.8607016
20
29.1047709
40
0.5336137
50
89.975342
51
93.6341897
0
ARC
8
DEFAULT_255_1_234
10
21.8645795
20
29.1446242
40
0.4937738
50
73.746375
51
90.4233405
0
ARC
8
DEFAULT_255_1_234
10
21.8821373
20
29.2126287
40
0.4235786
50
57.662753
51
73.4518111
0
ARC
8
DEFAULT_255_1_234
10
21.881338
20
29.2147832
40
0.4221899
50
29.1440151
51
57.414694
0
ARC
8
DEFAULT_255_1_234
10
21.7878574
20
29.1564005
40
0.5322966
50
24.0982783
51
29.7323517
0
ARC
8
DEFAULT_255_1_234
10
21.684485
20
29.1135399
40
0.6441673
50
8.6655297
51
23.8241346
0
ARC
8
DEFAULT_255_1_234
10
21.4610588
20
29.0770854
40
0.8705386
50
359.7806941
51
8.8218784
0
ARC
8
DEFAULT_255_1_234
10
21.3463586
20
29.0796345
40
0.8318373
50
359.7055579
51
8.036044
0
ARC
8
DEFAULT_255_1_234
10
21.6463592
20
29.1233239
40
0.5286768
50
7.8928306
51
20.2962107
0
ARC
8
DEFAULT_255_1_234
10
21.8091162
20
29.1833395
40
0.3552073
50
20.3231126
51
36.4992797
0
ARC
8
DEFAULT_255_1_234
10
21.8776708
20
29.2361402
40
0.2686974
50
36.1437156
51
85.6627023
0
ARC
8
DEFAULT_255_1_234
10
21.8614254
20
29.1321221
40
0.373739
50
84.3852322
51
90.0757696
0
ARC
8
DEFAULT_255_1_234
10
21.8571927
20
29.1981839
40
0.3076997
50
89.3038458
51
109.9045693
0
ARC
8
DEFAULT_255_1_234
10
21.8479318
20
29.2364062
40
0.2686424
50
110.8228367
51
143.9179474
0
ARC
8
DEFAULT_255_1_234
10
21.9412978
20
29.1651236
40
0.3860887
50
143.5289163
51
163.2980757
0
ARC
8
DEFAULT_255_1_234
10
22.1320799
20
29.1051433
40
0.5860659
50
163.0418846
51
174.3140048
0
ARC
8
DEFAULT_255_1_234
10
22.3724911
20
29.0773854
40
0.8280531
50
174.0509143
51
179.4176892
0
ARC
8
DEFAULT_255_1_234
10
22.322065
20
28.9956954
40
0.7775954
50
179.6930361
51
188.7906598
0
ARC
8
DEFAULT_255_1_234
10
22.0557129
20
28.9530935
40
0.5078633
50
188.6331305
51
202.5629587
0
ARC
8
DEFAULT_255_1_234
10
21.9302721
20
28.9026996
40
0.3726913
50
202.8081362
51
216.1193925
0
ARC
8
DEFAULT_255_1_234
10
21.8493291
20
28.8375676
40
0.2689577
50
215.0755913
51
264.6379694
0
ARC
8
DEFAULT_255_1_234
10
21.862024
20
28.9206513
40
0.3528978
50
263.846392
51
270.0833719
0
ARC
8
DEFAULT_255_1_234
10
21.8661631
20
28.8948374
40
0.3271036
50
269.3649385
51
287.5152008
0
ARC
8
DEFAULT_255_1_234
10
21.8839788
20
28.8301238
40
0.2600406
50
288.0630309
51
323.8113348
0
ARC
8
DEFAULT_255_1_234
10
21.796863
20
28.8951049
40
0.3687189
50
323.6547608
51
342.6590488
0
ARC
8
DEFAULT_255_1_234
10
21.5937245
20
28.9611952
40
0.5823286
50
342.4091907
51
353.6451149
0
ARC
8
DEFAULT_255_1_234
10
21.3105756
20
28.996419
40
0.8676442
50
353.4029884
51
359.4847795
0
LINE
8
DEFAULT_255_1_234
10
23.0126825
20
29.6279433
11
23.0126825
21
28.4529
0
LINE
8
DEFAULT_255_1_234
10
23.0126825
20
28.4529
11
22.8632921
21
28.4529
0
LINE
8
DEFAULT_255_1_234
10
22.8632921
20
28.4529
11
22.8632921
21
29.4432133
0
LINE
8
DEFAULT_255_1_234
10
22.8632921
20
29.4432133
11
22.5637083
21
29.3331785
0
LINE
8
DEFAULT_255_1_234
10
22.5637083
20
29.3331785
11
22.5637083
21
29.4681117
0
LINE
8
DEFAULT_255_1_234
10
22.5637083
20
29.4681117
11
22.9893904
21
29.6279433
0
LINE
8
DEFAULT_255_1_234
10
22.9893904
20
29.6279433
11
23.0126825
21
29.6279433
0
LINE
8
DEFAULT_255_1_234
10
23.8889451
20
29.4215276
11
23.8889451
21
29.0801788
0
LINE
8
DEFAULT_255_1_234
10
23.8889451
20
29.0801788
11
24.2150337
21
29.0801788
0
LINE
8
DEFAULT_255_1_234
10
24.2150337
20
29.0801788
11
24.2150337
21
28.9396233
0
LINE
8
DEFAULT_255_1_234
10
24.2150337
20
28.9396233
11
23.8889451
21
28.9396233
0
LINE
8
DEFAULT_255_1_234
10
23.8889451
20
28.9396233
11
23.8889451
21
28.5701634
0
LINE
8
DEFAULT_255_1_234
10
23.8889451
20
28.5701634
11
23.7395548
21
28.5701634
0
LINE
8
DEFAULT_255_1_234
10
23.7395548
20
28.5701634
11
23.7395548
21
28.9396233
0
LINE
8
DEFAULT_255_1_234
10
23.7395548
20
28.9396233
11
23.4134662
21
28.9396233
0
LINE
8
DEFAULT_255_1_234
10
23.4134662
20
28.9396233
11
23.4134662
21
29.0801788
0
LINE
8
DEFAULT_255_1_234
10
23.4134662
20
29.0801788
11
23.7395548
21
29.0801788
0
LINE
8
DEFAULT_255_1_234
10
23.7395548
20
29.0801788
11
23.7395548
21
29.4215276
0
LINE
8
DEFAULT_255_1_234
10
23.7395548
20
29.4215276
11
23.8889451
21
29.4215276
0
LINE
8
DEFAULT_255_1_234
10
22.3315911
20
37.0112534
11
22.3315911
21
36.9373614
0
LINE
8
DEFAULT_255_1_234
10
21.3910745
20
36.9269201
11
21.3910745
21
37.0112534
0
LINE
8
DEFAULT_255_1_234
10
22.1781849
20
36.9261169
11
22.1781849
21
37.0128597
0
LINE
8
DEFAULT_255_1_234
10
21.5444807
20
37.023301
11
21.5444807
21
36.9373614
0
ARC
8
DEFAULT_255_1_234
10
21.4673937
20
36.9334015
40
0.8642064
50
350.487711
51
0.2625388
0
ARC
8
DEFAULT_255_1_234
10
21.6967178
20
36.8939578
40
0.631518
50
336.0277639
51
350.5787438
0
ARC
8
DEFAULT_255_1_234
10
21.8312002
20
36.8331892
40
0.4839466
50
319.8877444
51
336.1328423
0
ARC
8
DEFAULT_255_1_234
10
21.8914643
20
36.784958
40
0.4067874
50
302.4806467
51
319.6143626
0
ARC
8
DEFAULT_255_1_234
10
21.8799653
20
36.8071202
40
0.4316636
50
275.8195682
51
302.1884709
0
ARC
8
DEFAULT_255_1_234
10
21.8633286
20
36.9213665
40
0.5470306
50
269.9171439
51
276.3397983
0
ARC
8
DEFAULT_255_1_234
10
21.8588496
20
36.8527681
40
0.4784458
50
252.5219675
51
270.4416499
0
ARC
8
DEFAULT_255_1_234
10
21.8444755
20
36.7988592
40
0.422716
50
237.5352116
51
252.1857531
0
ARC
8
DEFAULT_255_1_234
10
21.8533951
20
36.8102363
40
0.4371052
50
209.063312
51
237.3492538
0
ARC
8
DEFAULT_255_1_234
10
21.9403799
20
36.8648685
40
0.5397041
50
205.1183774
51
209.6470015
0
ARC
8
DEFAULT_255_1_234
10
22.0200836
20
36.898683
40
0.6262326
50
188.7215458
51
204.8240747
0
ARC
8
DEFAULT_255_1_234
10
22.2198364
20
36.9323067
40
0.8287794
50
180.3723947
51
188.9252049
0
ARC
8
DEFAULT_255_1_234
10
22.2171116
20
37.0152402
40
0.8260467
50
169.5253763
51
180.2765336
0
ARC
8
DEFAULT_255_1_234
10
22.0268564
20
37.0502309
40
0.6326007
50
155.8315255
51
169.5089989
0
ARC
8
DEFAULT_255_1_234
10
21.8988066
20
37.1096348
40
0.4914567
50
139.6258461
51
156.0379525
0
ARC
8
DEFAULT_255_1_234
10
21.8398399
20
37.1570799
40
0.4158054
50
122.6416387
51
139.3430715
0
ARC
8
DEFAULT_255_1_234
10
21.8499019
20
37.1387451
40
0.4366739
50
93.0223692
51
122.455762
0
ARC
8
DEFAULT_255_1_234
10
21.8607016
20
37.0422709
40
0.5336137
50
89.975342
51
93.6341897
0
ARC
8
DEFAULT_255_1_234
10
21.8645795
20
37.0821242
40
0.4937738
50
73.746375
51
90.4233405
0
ARC
8
DEFAULT_255_1_234
10
21.8821373
20
37.1501287
40
0.4235786
50
57.662753
51
73.4518111
0
ARC
8
DEFAULT_255_1_234
10
21.881338
20
37.1522832
40
0.4221899
50
29.1440151
51
57.414694
0
ARC
8
DEFAULT_255_1_234
10
21.7878574
20
37.0939005
40
0.5322966
50
24.0982783
51
29.7323517
0
ARC
8
DEFAULT_255_1_234
10
21.684485
20
37.0510399
40
0.6441673
50
8.6655297
51
23.8241346
0
ARC
8
DEFAULT_255_1_234
10
21.4610588
20
37.0145854
40
0.8705386
50
359.7806941
51
8.8218784
0
ARC
8
DEFAULT_255_1_234
10
21.3463586
20
37.0171345
40
0.8318373
50
359.7055579
51
8.036044
0
ARC
8
DEFAULT_255_1_234
10
21.6463592
20
37.0608239
40
0.5286768
50
7.8928306
51
20.2962107
0
ARC
8
DEFAULT_255_1_234
10
21.8091162
20
37.1208395
40
0.3552073
50
20.3231126
51
36.4992797
0
ARC
8
DEFAULT_255_1_234
10
21.8776708
20
37.1736402
40
0.2686974
50
36.1437156
51
85.6627023
0
ARC
8
DEFAULT_255_1_234
10
21.8614254
20
37.0696221
40
0.373739
50
84.3852322
51
90.0757696
0
ARC
8
DEFAULT_255_1_234
10
21.8571927
20
37.1356839
40
0.3076997
50
89.3038458
51
109.9045693
0
ARC
8
DEFAULT_255_1_234
10
21.8479318
20
37.1739062
40
0.2686424
50
110.8228367
51
143.9179474
0
ARC
8
DEFAULT_255_1_234
10
21.9412978
20
37.1026236
40
0.3860887
50
143.5289163
51
163.2980757
0
ARC
8
DEFAULT_255_1_234
10
22.1320799
20
37.0426433
40
0.5860659
50
163.0418846
51
174.3140048
0
ARC
8
DEFAULT_255_1_234
10
22.3724911
20
37.0148854
40
0.8280531
50
174.0509143
51
179.4176892
0
ARC
8
DEFAULT_255_1_234
10
22.322065
20
36.9331954
40
0.7775954
50
179.6930361
51
188.7906598
0
ARC
8
DEFAULT_255_1_234
10
22.0557129
20
36.8905935
40
0.5078633
50
188.6331305
51
202.5629587
0
ARC
8
DEFAULT_255_1_234
10
21.9302721
20
36.8401996
40
0.3726913
50
202.8081362
51
216.1193925
0
ARC
8
DEFAULT_255_1_234
10
21.8493291
20
36.7750676
40
0.2689577
50
215.0755913
51
264.6379694
0
ARC
8
DEFAULT_255_1_234
10
21.862024
20
36.8581513
40
0.3528978
50
263.846392
51
270.0833719
0
ARC
8
DEFAULT_255_1_234
10
21.8661631
20
36.8323374
40
0.3271036
50
269.3649385
51
287.5152008
0
ARC
8
DEFAULT_255_1_234
10
21.8839788
20
36.7676238
40
0.2600406
50
288.0630309
51
323.8113348
0
ARC
8
DEFAULT_255_1_234
10
21.796863
20
36.8326049
40
0.3687189
50
323.6547608
51
342.6590488
0
ARC
8
DEFAULT_255_1_234
10
21.5937245
20
36.8986952
40
0.5823286
50
342.4091907
51
353.6451149
0
ARC
8
DEFAULT_255_1_234
10
21.3105756
20
36.933919
40
0.8676442
50
353.4029884
51
359.4847795
0
LINE
8
DEFAULT_255_1_234
10
23.2576505
20
37.0819327
11
23.2576505
21
36.8891709
0
LINE
8
DEFAULT_255_1_234
10
22.5195337
20
36.8690916
11
22.5195337
21
37.0674755
0
LINE
8
DEFAULT_255_1_234
10
23.1090633
20
36.8490123
11
23.1090633
21
37.0923739
0
LINE
8
DEFAULT_255_1_234
10
22.6681209
20
37.1036184
11
22.6681209
21
36.8658789
0
ARC
8
DEFAULT_255_1_234
10
22.0329394
20
36.8842805
40
1.2247208
50
353.8441951
51
0.2287902
0
ARC
8
DEFAULT_255_1_234
10
22.4968898
20
36.8324806
40
0.7578929
50
344.4934747
51
353.9765454
0
ARC
8
DEFAULT_255_1_234
10
22.7961488
20
36.7473981
40
0.4467846
50
329.2803592
51
344.7472793
0
ARC
8
DEFAULT_255_1_234
10
22.8954313
20
36.6929018
40
0.3336173
50
324.9352394
51
328.6160465
0
ARC
8
DEFAULT_255_1_234
10
22.9331422
20
36.6665427
40
0.2876076
50
280.580143
51
324.9173126
0
ARC
8
DEFAULT_255_1_234
10
22.8930214
20
36.8336099
40
0.4592847
50
269.5977311
51
281.6734359
0
ARC
8
DEFAULT_255_1_234
10
22.885812
20
36.8216173
40
0.4472986
50
256.6228859
51
270.51044
0
ARC
8
DEFAULT_255_1_234
10
22.8456098
20
36.6667877
40
0.2873874
50
215.8618325
51
257.2788573
0
ARC
8
DEFAULT_255_1_234
10
22.947713
20
36.7352977
40
0.4102928
50
197.9693508
51
215.2623606
0
ARC
8
DEFAULT_255_1_234
10
23.1962245
20
36.8191709
40
0.6725652
50
187.8816417
51
198.2346507
0
ARC
8
DEFAULT_255_1_234
10
23.5920453
20
36.8763079
40
1.0724845
50
180.8976217
51
188.0055519
0
ARC
8
DEFAULT_255_1_234
10
23.8720642
20
36.8866777
40
1.3526448
50
180.7449369
51
181.1510016
0
ARC
8
DEFAULT_255_1_234
10
23.7143371
20
37.0723042
40
1.1948131
50
173.7675579
51
180.231553
0
ARC
8
DEFAULT_255_1_234
10
23.2625517
20
37.1233666
40
0.7401564
50
164.3058563
51
173.9002247
0
ARC
8
DEFAULT_255_1_234
10
22.9713586
20
37.2072656
40
0.4371288
50
148.7922025
51
164.568378
0
ARC
8
DEFAULT_255_1_234
10
22.8762038
20
37.2603929
40
0.3282386
50
144.5883898
51
148.1176286
0
ARC
8
DEFAULT_255_1_234
10
22.8418936
20
37.2843315
40
0.2864044
50
101.6440918
51
144.514236
0
ARC
8
DEFAULT_255_1_234
10
22.8844003
20
37.1154069
40
0.4604934
50
89.5284041
51
102.5819763
0
ARC
8
DEFAULT_255_1_234
10
22.8923091
20
37.1115018
40
0.464401
50
77.0437873
51
90.5081339
0
ARC
8
DEFAULT_255_1_234
10
22.9325092
20
37.2757615
40
0.2953195
50
48.2778575
51
77.4994676
0
ARC
8
DEFAULT_255_1_234
10
22.9397724
20
37.2886746
40
0.2808655
50
36.3142134
51
47.6305865
0
ARC
8
DEFAULT_255_1_234
10
22.8529031
20
37.2301515
40
0.3855453
50
18.2931786
51
35.6769206
0
ARC
8
DEFAULT_255_1_234
10
22.5985789
20
37.1428593
40
0.654423
50
8.024666
51
18.5605216
0
ARC
8
DEFAULT_255_1_234
10
22.182271
20
37.0813792
40
1.0752407
50
1.1274072
51
8.1718305
0
ARC
8
DEFAULT_255_1_234
10
21.85869
20
37.0686885
40
1.3990231
50
0.5424119
51
1.3863029
0
ARC
8
DEFAULT_255_1_234
10
22.0408278
20
37.0959342
40
1.0682415
50
359.8090433
51
4.9407866
0
ARC
8
DEFAULT_255_1_234
10
22.4618292
20
37.1335113
40
0.6455691
50
4.8362157
51
12.2904523
0
ARC
8
DEFAULT_255_1_234
10
22.7373407
20
37.1948965
40
0.3633074
50
12.0805627
51
23.8173984
0
ARC
8
DEFAULT_255_1_234
10
22.8547112
20
37.2445919
40
0.2358723
50
24.2871213
51
31.3935614
0
ARC
8
DEFAULT_255_1_234
10
22.9071809
20
37.2789233
40
0.1732111
50
30.7407893
51
82.4657128
0
ARC
8
DEFAULT_255_1_234
10
22.8891944
20
37.1905691
40
0.263235
50
81.1060089
51
90.2184952
0
ARC
8
DEFAULT_255_1_234
10
22.8856242
20
37.2163924
40
0.2374236
50
89.3806855
51
105.6762551
0
ARC
8
DEFAULT_255_1_234
10
22.8672873
20
37.2830567
40
0.1682847
50
105.7981136
51
149.7388061
0
ARC
8
DEFAULT_255_1_234
10
22.9736951
20
37.219095
40
0.2924306
50
149.4208916
51
163.6286378
0
ARC
8
DEFAULT_255_1_234
10
23.1827839
20
37.155325
40
0.5110213
50
163.3763315
51
172.1410975
0
ARC
8
DEFAULT_255_1_234
10
23.5128558
20
37.1080518
40
0.8444586
50
172.0259487
51
178.0703232
0
ARC
8
DEFAULT_255_1_234
10
23.8158648
20
37.0936906
40
1.1477868
50
177.8631668
51
179.5044149
0
ARC
8
DEFAULT_255_1_234
10
23.7086052
20
36.8622389
40
1.0404907
50
179.7995573
51
185.2460446
0
ARC
8
DEFAULT_255_1_234
10
23.3043092
20
36.8239513
40
0.6343885
50
185.1411642
51
193.0079639
0
ARC
8
DEFAULT_255_1_234
10
23.0399564
20
36.7614641
40
0.3627568
50
192.7897626
51
205.2507664
0
ARC
8
DEFAULT_255_1_234
10
22.9353111
20
36.7147415
40
0.2481908
50
205.8005384
51
211.2537509
0
ARC
8
DEFAULT_255_1_234
10
22.8829552
20
36.679658
40
0.1852521
50
210.3789793
51
238.4008143
0
ARC
8
DEFAULT_255_1_234
10
22.8810074
20
36.6843376
40
0.1882621
50
239.6520629
51
265.9793761
0
ARC
8
DEFAULT_255_1_234
10
22.8895274
20
36.7515427
40
0.2559272
50
265.1315437
51
270.060332
0
ARC
8
DEFAULT_255_1_234
10
22.8924053
20
36.7191534
40
0.2235528
50
269.3314664
51
287.2178029
0
ARC
8
DEFAULT_255_1_234
10
22.9061905
20
36.6688279
40
0.1714108
50
287.7958004
51
329.080874
0
ARC
8
DEFAULT_255_1_234
10
22.8104361
20
36.728593
40
0.2842745
50
328.6634704
51
343.3325132
0
ARC
8
DEFAULT_255_1_234
10
22.5931381
20
36.7962863
40
0.5118644
50
343.0499468
51
351.9393422
0
ARC
8
DEFAULT_255_1_234
10
22.2464681
20
36.8473949
40
0.8622784
50
351.8069023
51
357.7959224
0
ARC
8
DEFAULT_255_1_234
10
21.9229237
20
36.8641721
40
1.1862365
50
357.5871873
51
359.2677531
0
LINE
8
DEFAULT_255_1_234
10
23.8889451
20
37.3590276
11
23.8889451
21
37.0176788
0
LINE
8
DEFAULT_255_1_234
10
23.8889451
20
37.0176788
11
24.2150337
21
37.0176788
0
LINE
8
DEFAULT_255_1_234
10
24.2150337
20
37.0176788
11
24.2150337
21
36.8771233
0
LINE
8
DEFAULT_255_1_234
10
24.2150337
20
36.8771233
11
23.8889451
21
36.8771233
0
LINE
8
DEFAULT_255_1_234
10
23.8889451
20
36.8771233
11
23.8889451
21
36.5076634
0
LINE
8
DEFAULT_255_1_234
10
23.8889451
20
36.5076634
11
23.7395548
21
36.5076634
0
LINE
8
DEFAULT_255_1_234
10
23.7395548
20
36.5076634
11
23.7395548
21
36.8771233
0
LINE
8
DEFAULT_255_1_234
10
23.7395548
20
36.8771233
11
23.4134662
21
36.8771233
0
LINE
8
DEFAULT_255_1_234
10
23.4134662
20
36.8771233
11
23.4134662
21
37.0176788
0
LINE
8
DEFAULT_255_1_234
10
23.4134662
20
37.0176788
11
23.7395548
21
37.0176788
0
LINE
8
DEFAULT_255_1_234
10
23.7395548
20
37.0176788
11
23.7395548
21
37.3590276
0
LINE
8
DEFAULT_255_1_234
10
23.7395548
20
37.3590276
11
23.8889451
21
37.3590276
0
LINE
8
DEFAULT_255_1_234
10
23.0463364
20
45.4973211
11
23.2455235
21
45.4973211
0
LINE
8
DEFAULT_255_1_234
10
23.2455235
20
45.4973211
11
23.6278342
21
44.5431506
0
LINE
8
DEFAULT_255_1_234
10
23.6278342
20
44.5431506
11
24.010145
21
45.4973211
0
LINE
8
DEFAULT_255_1_234
10
24.010145
20
45.4973211
11
24.2101353
21
45.4973211
0
LINE
8
DEFAULT_255_1_234
10
24.2101353
20
45.4973211
11
24.2101353
21
44.3279
0
LINE
8
DEFAULT_255_1_234
10
24.2101353
20
44.3279
11
24.0559259
21
44.3279
0
LINE
8
DEFAULT_255_1_234
10
24.0559259
20
44.3279
11
24.0559259
21
44.7832996
0
LINE
8
DEFAULT_255_1_234
10
24.0559259
20
44.7832996
11
24.070383
21
45.2748419
0
LINE
8
DEFAULT_255_1_234
10
24.070383
20
45.2748419
11
23.6864659
21
44.3279
0
LINE
8
DEFAULT_255_1_234
10
23.6864659
20
44.3279
11
23.5683994
21
44.3279
0
LINE
8
DEFAULT_255_1_234
10
23.5683994
20
44.3279
11
23.1852854
21
45.2724324
0
LINE
8
DEFAULT_255_1_234
10
23.1852854
20
45.2724324
11
23.2005458
21
44.7832996
0
LINE
8
DEFAULT_255_1_234
10
23.2005458
20
44.7832996
11
23.2005458
21
44.3279
0
LINE
8
DEFAULT_255_1_234
10
23.2005458
20
44.3279
11
23.0463364
21
44.3279
0
LINE
8
DEFAULT_255_1_234
10
23.0463364
20
44.3279
11
23.0463364
21
45.4973211
0
ENDSEC
0
EOF