0
SECTION
2
HEADER
9
$MEASUREMENT
70
1
0
ENDSEC
0
SECTION
2
TABLES
0
TABLE
2
LTYPE
0
LTYPE
72
65
70
64
2
CONTINUOUS
3
______
73
0
40
0
0
ENDTAB
0
TABLE
2
LAYER
0
LAYER
2
DEFAULT_255_2_778
70
0
62
255
6
CONTINUOUS
0
LAYER
2
DEFAULT_255_1_234
70
0
62
255
6
CONTINUOUS
0
LAYER
2
DEFAULT_255_2_778_1
70
0
62
255
6
CONTINUOUS
0
ENDTAB
0
ENDSEC
0
SECTION
2
ENTITIES
0
ARC
8
DEFAULT_255_2_778
10
3.5700693
20
91.6802028
40
0.7914215
50
129.1312896
51
180.1450914
0
ARC
8
DEFAULT_255_2_778
10
3.5703345
20
91.6806899
40
0.7912112
50
89.854026
51
129.1684493
0
ARC
8
DEFAULT_255_2_778
10
25.7993937
20
91.6803765
40
0.7915249
50
39.4792447
51
90.147911
0
ARC
8
DEFAULT_255_2_778
10
25.7999935
20
91.6802231
40
0.7911595
50
359.8533901
51
39.5154338
0
ARC
8
DEFAULT_255_2_778
10
25.7996693
20
-1.9863495
40
0.7914836
50
309.4761667
51
0.1482649
0
ARC
8
DEFAULT_255_2_778
10
25.799398
20
-1.9867805
40
0.7913235
50
269.8517415
51
309.511178
0
ARC
8
DEFAULT_255_2_778
10
3.570342
20
-1.9867224
40
0.7913815
50
219.1282118
51
270.1454017
0
ARC
8
DEFAULT_255_2_778
10
3.5700247
20
-1.9863399
40
0.7913769
50
179.8524075
51
219.1641908
0
LINE
8
DEFAULT_255_2_778
10
3.5723503
20
92.4718987
11
25.7973503
21
92.4718987
0
LINE
8
DEFAULT_255_2_778
10
26.5911503
20
91.6781987
11
26.5911503
21
-1.9843013
0
LINE
8
DEFAULT_255_2_778
10
25.7973503
20
-2.7781013
11
3.5723503
21
-2.7781013
0
LINE
8
DEFAULT_255_2_778
10
2.7786503
20
-1.9843013
11
2.7786503
21
91.6781987
0
LINE
8
DEFAULT_255_1_234
10
12.6114293
20
-0.6513
11
12.4997881
21
-0.3460939
0
LINE
8
DEFAULT_255_1_234
10
12.4997881
20
-0.3460939
11
12.0098521
21
-0.3460939
0
LINE
8
DEFAULT_255_1_234
10
12.0098521
20
-0.3460939
11
11.8998173
21
-0.6513
0
LINE
8
DEFAULT_255_1_234
10
11.8998173
20
-0.6513
11
11.7407889
21
-0.6513
0
LINE
8
DEFAULT_255_1_234
10
11.7407889
20
-0.6513
11
12.1873535
21
0.5181211
0
LINE
8
DEFAULT_255_1_234
10
12.1873535
20
0.5181211
11
12.3222867
21
0.5181211
0
LINE
8
DEFAULT_255_1_234
10
12.3222867
20
0.5181211
11
12.7696545
21
-0.6513
0
LINE
8
DEFAULT_255_1_234
10
12.7696545
20
-0.6513
11
12.6114293
21
-0.6513
0
LINE
8
DEFAULT_255_1_234
10
12.2548201
20
0.3277689
11
12.0564362
21
-0.2191925
0
LINE
8
DEFAULT_255_1_234
10
12.0564362
20
-0.2191925
11
12.4540072
21
-0.2191925
0
LINE
8
DEFAULT_255_1_234
10
12.4540072
20
-0.2191925
11
12.2548201
21
0.3277689
0
LINE
8
DEFAULT_255_1_234
10
13.0266702
20
0.5181211
11
13.3085842
21
0.0699501
0
LINE
8
DEFAULT_255_1_234
10
13.3085842
20
0.0699501
11
13.5888918
21
0.5181211
0
LINE
8
DEFAULT_255_1_234
10
13.5888918
20
0.5181211
11
13.7704091
21
0.5181211
0
LINE
8
DEFAULT_255_1_234
10
13.7704091
20
0.5181211
11
13.4009492
21
-0.0617704
0
LINE
8
DEFAULT_255_1_234
10
13.4009492
20
-0.0617704
11
13.779244
21
-0.6513
0
LINE
8
DEFAULT_255_1_234
10
13.779244
20
-0.6513
11
13.5961204
21
-0.6513
0
LINE
8
DEFAULT_255_1_234
10
13.5961204
20
-0.6513
11
13.3085842
21
-0.1950973
0
LINE
8
DEFAULT_255_1_234
10
13.3085842
20
-0.1950973
11
13.0194416
21
-0.6513
0
LINE
8
DEFAULT_255_1_234
10
13.0194416
20
-0.6513
11
12.8371211
21
-0.6513
0
LINE
8
DEFAULT_255_1_234
10
12.8371211
20
-0.6513
11
13.2162192
21
-0.0617704
0
LINE
8
DEFAULT_255_1_234
10
13.2162192
20
-0.0617704
11
12.8459561
21
0.5181211
0
LINE
8
DEFAULT_255_1_234
10
12.8459561
20
0.5181211
11
13.0266702
21
0.5181211
0
LINE
8
DEFAULT_255_1_234
10
14.106939
20
-0.0955037
11
13.9880692
21
-0.0649831
0
LINE
8
DEFAULT_255_1_234
10
13.9880692
20
-0.0649831
11
14.0475041
21
0.5181211
0
LINE
8
DEFAULT_255_1_234
10
14.0475041
20
0.5181211
11
14.6466718
21
0.5181211
0
LINE
8
DEFAULT_255_1_234
10
14.6466718
20
0.5181211
11
14.6466718
21
0.3807784
0
LINE
8
DEFAULT_255_1_234
10
14.6466718
20
0.3807784
11
14.1736024
21
0.3807784
0
LINE
8
DEFAULT_255_1_234
10
14.1736024
20
0.3807784
11
14.1382627
21
0.0619184
0
LINE
8
DEFAULT_255_1_234
10
13.9463042
20
-0.3436844
11
14.0868596
21
-0.3436844
0
LINE
8
DEFAULT_255_1_234
10
14.1462945
20
-0.0633768
11
14.106939
21
-0.0955037
0
ARC
8
DEFAULT_255_1_234
10
14.3237411
20
-0.256077
40
0.3681349
50
93.7182161
51
120.2538958
0
ARC
8
DEFAULT_255_1_234
10
14.3331674
20
-0.3368606
40
0.449379
50
89.9660152
51
94.2496022
0
ARC
8
DEFAULT_255_1_234
10
14.3372408
20
-0.2779451
40
0.390482
50
73.8043271
51
90.5585896
0
ARC
8
DEFAULT_255_1_234
10
14.3607305
20
-0.1921398
40
0.3015334
50
41.3071453
51
73.5430202
0
ARC
8
DEFAULT_255_1_234
10
14.3191133
20
-0.2279676
40
0.3564457
50
13.5075983
51
41.2174222
0
ARC
8
DEFAULT_255_1_234
10
14.1549336
20
-0.2709514
40
0.5261351
50
1.1331335
51
13.8829381
0
ARC
8
DEFAULT_255_1_234
10
14.0137705
20
-0.2785335
40
0.6674378
50
359.9919444
51
1.544251
0
ARC
8
DEFAULT_255_1_234
10
14.1414532
20
-0.282672
40
0.5397702
50
347.8572367
51
0.4293338
0
ARC
8
DEFAULT_255_1_234
10
14.3164849
20
-0.3223264
40
0.3603188
50
323.673004
51
348.1672506
0
ARC
8
DEFAULT_255_1_234
10
14.3459357
20
-0.3402832
40
0.3259678
50
316.8171152
51
323.1492751
0
ARC
8
DEFAULT_255_1_234
10
14.3520546
20
-0.343954
40
0.3189975
50
281.8396411
51
316.5457803
0
ARC
8
DEFAULT_255_1_234
10
14.314481
20
-0.1884238
40
0.4789527
50
269.5770101
51
282.4214771
0
ARC
8
DEFAULT_255_1_234
10
14.3073622
20
-0.2097875
40
0.45759
50
256.2427136
51
270.4486331
0
ARC
8
DEFAULT_255_1_234
10
14.2774524
20
-0.3297771
40
0.3339303
50
228.9023911
51
256.3314342
0
ARC
8
DEFAULT_255_1_234
10
14.2700757
20
-0.3414254
40
0.32031
50
193.753695
51
228.5271154
0
ARC
8
DEFAULT_255_1_234
10
14.393871
20
-0.30512
40
0.4492253
50
184.924711
51
194.497588
0
ARC
8
DEFAULT_255_1_234
10
14.4131277
20
-0.3015409
40
0.3289787
50
187.3600538
51
198.6732863
0
ARC
8
DEFAULT_255_1_234
10
14.3081571
20
-0.3379326
40
0.217884
50
198.4451669
51
217.794479
0
ARC
8
DEFAULT_255_1_234
10
14.2785747
20
-0.3588915
40
0.1816698
50
218.2887171
51
228.5612368
0
ARC
8
DEFAULT_255_1_234
10
14.2883534
20
-0.3457037
40
0.1980329
50
228.9654866
51
258.1234728
0
ARC
8
DEFAULT_255_1_234
10
14.3089243
20
-0.2576167
40
0.2884748
50
257.7258293
51
270.401361
0
ARC
8
DEFAULT_255_1_234
10
14.313413
20
-0.3021179
40
0.2439788
50
269.4204404
51
286.4209037
0
ARC
8
DEFAULT_255_1_234
10
14.3282617
20
-0.3560343
40
0.1880666
50
286.7251356
51
320.600362
0
ARC
8
DEFAULT_255_1_234
10
14.2899442
20
-0.3249405
40
0.2374121
50
320.6712579
51
344.5441685
0
ARC
8
DEFAULT_255_1_234
10
14.1742768
20
-0.2909955
40
0.3579479
50
344.2412205
51
356.7357071
0
ARC
8
DEFAULT_255_1_234
10
14.0493917
20
-0.2806556
40
0.4832297
50
356.3548756
51
0.0500261
0
ARC
8
DEFAULT_255_1_234
10
14.1830426
20
-0.277535
40
0.3495889
50
359.5576869
51
12.953486
0
ARC
8
DEFAULT_255_1_234
10
14.2885324
20
-0.2519566
40
0.2410532
50
12.6490276
51
41.6081334
0
ARC
8
DEFAULT_255_1_234
10
14.3115695
20
-0.2323679
40
0.2108218
50
41.7850273
51
85.9892764
0
ARC
8
DEFAULT_255_1_234
10
14.2992431
20
-0.3136538
40
0.2928454
50
84.6957577
51
90.0676183
0
ARC
8
DEFAULT_255_1_234
10
14.2968915
20
-0.3805284
40
0.3597255
50
89.6804936
51
99.1614436
0
ARC
8
DEFAULT_255_1_234
10
14.2763547
20
-0.2577869
40
0.235281
50
98.9830931
51
113.8908934
0
ARC
8
DEFAULT_255_1_234
10
14.2533957
20
-0.2036413
40
0.176479
50
114.1950727
51
127.3641004
0
LINE
8
DEFAULT_255_1_234
10
15.6096772
20
-0.5300208
11
15.6096772
21
-0.6513
0
LINE
8
DEFAULT_255_1_234
10
15.6096772
20
-0.6513
11
14.8434494
21
-0.6513
0
LINE
8
DEFAULT_255_1_234
10
14.8434494
20
-0.6513
11
14.8434494
21
-0.5444779
0
LINE
8
DEFAULT_255_1_234
10
14.8434494
20
-0.5444779
11
15.248249
21
-0.0947005
0
LINE
8
DEFAULT_255_1_234
10
14.9695477
20
0.1735595
11
14.8209605
21
0.1735595
0
LINE
8
DEFAULT_255_1_234
10
15.3357949
20
-0.1902782
11
15.0225571
21
-0.5300208
0
LINE
8
DEFAULT_255_1_234
10
15.0225571
20
-0.5300208
11
15.6096772
21
-0.5300208
0
ARC
8
DEFAULT_255_1_234
10
13.8992323
20
1.0982527
40
1.8008286
50
318.5132453
51
320.7828378
0
ARC
8
DEFAULT_255_1_234
10
14.4279297
20
0.6679426
40
1.1191493
50
320.7372736
51
323.9737074
0
ARC
8
DEFAULT_255_1_234
10
14.8199154
20
0.3839361
40
0.6350923
50
323.8961724
51
328.6421089
0
ARC
8
DEFAULT_255_1_234
10
15.0245749
20
0.2577031
40
0.3946393
50
328.8299013
51
331.789948
0
ARC
8
DEFAULT_255_1_234
10
15.1242928
20
0.2062509
40
0.2824501
50
331.4255242
51
352.9364833
0
ARC
8
DEFAULT_255_1_234
10
15.1379428
20
0.2031976
40
0.2685315
50
353.2248685
51
0.0169286
0
ARC
8
DEFAULT_255_1_234
10
15.1589305
20
0.205495
40
0.2475536
50
359.4866256
51
15.9339782
0
ARC
8
DEFAULT_255_1_234
10
15.2096291
20
0.2191286
40
0.1950618
50
16.1714718
51
43.5284424
0
ARC
8
DEFAULT_255_1_234
10
15.2173599
20
0.2268573
40
0.184134
50
43.4415429
51
83.1661404
0
ARC
8
DEFAULT_255_1_234
10
15.2039517
20
0.1531771
40
0.258926
50
82.160215
51
90.1505798
0
ARC
8
DEFAULT_255_1_234
10
15.2007945
20
0.0994865
40
0.3126255
50
89.5460705
51
102.5418777
0
ARC
8
DEFAULT_255_1_234
10
15.1765031
20
0.2025665
40
0.2067346
50
102.1739365
51
129.2061916
0
ARC
8
DEFAULT_255_1_234
10
15.1686103
20
0.2150094
40
0.1921118
50
129.7279328
51
135.7542026
0
ARC
8
DEFAULT_255_1_234
10
15.180763
20
0.2053045
40
0.2075944
50
136.175737
51
166.3674722
0
ARC
8
DEFAULT_255_1_234
10
15.2814549
20
0.1783182
40
0.3118201
50
165.9092917
51
178.8683903
0
ARC
8
DEFAULT_255_1_234
10
15.3679411
20
0.1736179
40
0.3983935
50
178.438168
51
180.0083905
0
ARC
8
DEFAULT_255_1_234
10
15.2278013
20
0.1775231
40
0.4068601
50
163.2878735
51
180.5581814
0
ARC
8
DEFAULT_255_1_234
10
15.1476274
20
0.199584
40
0.3237344
50
133.454115
51
162.9470031
0
ARC
8
DEFAULT_255_1_234
10
15.1654816
20
0.1806
40
0.349795
50
100.7869394
51
133.4384016
0
ARC
8
DEFAULT_255_1_234
10
15.2002587
20
0.0257319
40
0.5084616
50
89.6605301
51
101.3704185
0
ARC
8
DEFAULT_255_1_234
10
15.2068926
20
0.0318496
40
0.502348
50
78.2171172
51
90.4130393
0
ARC
8
DEFAULT_255_1_234
10
15.2424004
20
0.1942637
40
0.3361092
50
55.9268222
51
78.4888551
0
ARC
8
DEFAULT_255_1_234
10
15.2620444
20
0.2281324
40
0.2970617
50
47.9292255
51
55.4054003
0
ARC
8
DEFAULT_255_1_234
10
15.2722005
20
0.2384502
40
0.2825983
50
4.3347696
51
48.0560701
0
ARC
8
DEFAULT_255_1_234
10
15.1626399
20
0.2214601
40
0.393225
50
359.925209
51
5.5967654
0
ARC
8
DEFAULT_255_1_234
10
15.205529
20
0.2270816
40
0.3503892
50
337.8914096
51
358.9967724
0
ARC
8
DEFAULT_255_1_234
10
14.9341702
20
0.3317706
40
0.6412172
50
326.9135351
51
338.3505194
0
ARC
8
DEFAULT_255_1_234
10
14.5356006
20
0.5872284
40
1.1146189
50
319.6472867
51
327.095818
0
ARC
8
DEFAULT_255_1_234
10
14.1523009
20
0.9034
40
1.6114559
50
317.2586784
51
319.9046139
0
LINE
8
DEFAULT_255_1_234
10
16.5333271
20
-0.5300208
11
16.5333271
21
-0.6513
0
LINE
8
DEFAULT_255_1_234
10
16.5333271
20
-0.6513
11
15.7670993
21
-0.6513
0
LINE
8
DEFAULT_255_1_234
10
15.7670993
20
-0.6513
11
15.7670993
21
-0.5444779
0
LINE
8
DEFAULT_255_1_234
10
15.7670993
20
-0.5444779
11
16.1718989
21
-0.0947005
0
LINE
8
DEFAULT_255_1_234
10
15.8931976
20
0.1735595
11
15.7446104
21
0.1735595
0
LINE
8
DEFAULT_255_1_234
10
16.2594448
20
-0.1902782
11
15.946207
21
-0.5300208
0
LINE
8
DEFAULT_255_1_234
10
15.946207
20
-0.5300208
11
16.5333271
21
-0.5300208
0
ARC
8
DEFAULT_255_1_234
10
14.8228822
20
1.0982527
40
1.8008286
50
318.5132453
51
320.7828378
0
ARC
8
DEFAULT_255_1_234
10
15.3515797
20
0.6679426
40
1.1191493
50
320.7372736
51
323.9737074
0
ARC
8
DEFAULT_255_1_234
10
15.7435653
20
0.3839361
40
0.6350923
50
323.8961724
51
328.6421089
0
ARC
8
DEFAULT_255_1_234
10
15.9482248
20
0.2577031
40
0.3946393
50
328.8299013
51
331.789948
0
ARC
8
DEFAULT_255_1_234
10
16.0479427
20
0.2062509
40
0.2824501
50
331.4255242
51
352.9364833
0
ARC
8
DEFAULT_255_1_234
10
16.0615927
20
0.2031976
40
0.2685315
50
353.2248685
51
0.0169286
0
ARC
8
DEFAULT_255_1_234
10
16.0825804
20
0.205495
40
0.2475536
50
359.4866256
51
15.9339782
0
ARC
8
DEFAULT_255_1_234
10
16.133279
20
0.2191286
40
0.1950618
50
16.1714718
51
43.5284424
0
ARC
8
DEFAULT_255_1_234
10
16.1410098
20
0.2268573
40
0.184134
50
43.4415429
51
83.1661404
0
ARC
8
DEFAULT_255_1_234
10
16.1276016
20
0.1531771
40
0.258926
50
82.160215
51
90.1505798
0
ARC
8
DEFAULT_255_1_234
10
16.1244444
20
0.0994865
40
0.3126255
50
89.5460705
51
102.5418777
0
ARC
8
DEFAULT_255_1_234
10
16.100153
20
0.2025665
40
0.2067346
50
102.1739365
51
129.2061916
0
ARC
8
DEFAULT_255_1_234
10
16.0922602
20
0.2150094
40
0.1921118
50
129.7279328
51
135.7542026
0
ARC
8
DEFAULT_255_1_234
10
16.1044129
20
0.2053045
40
0.2075944
50
136.175737
51
166.3674722
0
ARC
8
DEFAULT_255_1_234
10
16.2051048
20
0.1783182
40
0.3118201
50
165.9092917
51
178.8683903
0
ARC
8
DEFAULT_255_1_234
10
16.291591
20
0.1736179
40
0.3983935
50
178.438168
51
180.0083905
0
ARC
8
DEFAULT_255_1_234
10
16.1514512
20
0.1775231
40
0.4068601
50
163.2878735
51
180.5581814
0
ARC
8
DEFAULT_255_1_234
10
16.0712773
20
0.199584
40
0.3237344
50
133.454115
51
162.9470031
0
ARC
8
DEFAULT_255_1_234
10
16.0891315
20
0.1806
40
0.349795
50
100.7869394
51
133.4384016
0
ARC
8
DEFAULT_255_1_234
10
16.1239086
20
0.0257319
40
0.5084616
50
89.6605301
51
101.3704185
0
ARC
8
DEFAULT_255_1_234
10
16.1305425
20
0.0318496
40
0.502348
50
78.2171172
51
90.4130393
0
ARC
8
DEFAULT_255_1_234
10
16.1660503
20
0.1942637
40
0.3361092
50
55.9268222
51
78.4888551
0
ARC
8
DEFAULT_255_1_234
10
16.1856943
20
0.2281324
40
0.2970617
50
47.9292255
51
55.4054003
0
ARC
8
DEFAULT_255_1_234
10
16.1958504
20
0.2384502
40
0.2825983
50
4.3347696
51
48.0560701
0
ARC
8
DEFAULT_255_1_234
10
16.0862898
20
0.2214601
40
0.393225
50
359.925209
51
5.5967654
0
ARC
8
DEFAULT_255_1_234
10
16.1291789
20
0.2270816
40
0.3503892
50
337.8914096
51
358.9967724
0
ARC
8
DEFAULT_255_1_234
10
15.8578201
20
0.3317706
40
0.6412172
50
326.9135351
51
338.3505194
0
ARC
8
DEFAULT_255_1_234
10
15.4592505
20
0.5872284
40
1.1146189
50
319.6472867
51
327.095818
0
ARC
8
DEFAULT_255_1_234
10
15.0759508
20
0.9034
40
1.6114559
50
317.2586784
51
319.9046139
0
LINE
8
DEFAULT_255_1_234
10
12.5948293
20
85.9997
11
12.4831881
21
86.3049061
0
LINE
8
DEFAULT_255_1_234
10
12.4831881
20
86.3049061
11
11.9932521
21
86.3049061
0
LINE
8
DEFAULT_255_1_234
10
11.9932521
20
86.3049061
11
11.8832173
21
85.9997
0
LINE
8
DEFAULT_255_1_234
10
11.8832173
20
85.9997
11
11.7241889
21
85.9997
0
LINE
8
DEFAULT_255_1_234
10
11.7241889
20
85.9997
11
12.1707535
21
87.1691211
0
LINE
8
DEFAULT_255_1_234
10
12.1707535
20
87.1691211
11
12.3056867
21
87.1691211
0
LINE
8
DEFAULT_255_1_234
10
12.3056867
20
87.1691211
11
12.7530545
21
85.9997
0
LINE
8
DEFAULT_255_1_234
10
12.7530545
20
85.9997
11
12.5948293
21
85.9997
0
LINE
8
DEFAULT_255_1_234
10
12.2382201
20
86.9787689
11
12.0398362
21
86.4318075
0
LINE
8
DEFAULT_255_1_234
10
12.0398362
20
86.4318075
11
12.4374072
21
86.4318075
0
LINE
8
DEFAULT_255_1_234
10
12.4374072
20
86.4318075
11
12.2382201
21
86.9787689
0
LINE
8
DEFAULT_255_1_234
10
13.6068283
20
86.3707663
11
13.7618409
21
86.3707663
0
LINE
8
DEFAULT_255_1_234
10
12.861483
20
86.5297947
11
12.861483
21
86.6422391
0
LINE
8
DEFAULT_255_1_234
10
13.7618409
20
86.7932357
11
13.6068283
21
86.7932357
0
LINE
8
DEFAULT_255_1_234
10
13.0164956
20
86.6382232
11
13.0164956
21
86.5249757
0
ARC
8
DEFAULT_255_1_234
10
13.2137796
20
86.4304846
40
0.5513052
50
340.1774281
51
353.7814284
0
ARC
8
DEFAULT_255_1_234
10
13.3709148
20
86.3719582
40
0.3836379
50
311.4558989
51
340.4421614
0
ARC
8
DEFAULT_255_1_234
10
13.3675816
20
86.3830528
40
0.3941894
50
282.4333181
51
310.7513653
0
ARC
8
DEFAULT_255_1_234
10
13.3236555
20
86.5645679
40
0.5809175
50
269.9358511
51
282.809604
0
ARC
8
DEFAULT_255_1_234
10
13.3184622
20
86.7103212
40
0.7266847
50
270.0021091
51
270.3581957
0
ARC
8
DEFAULT_255_1_234
10
13.3132039
20
86.4502585
40
0.4666519
50
250.7884749
51
270.6489167
0
ARC
8
DEFAULT_255_1_234
10
13.2963873
20
86.3865319
40
0.4009729
50
219.3627325
51
250.0611886
0
ARC
8
DEFAULT_255_1_234
10
13.3793084
20
86.4570042
40
0.5097822
50
193.5479632
51
219.5756669
0
ARC
8
DEFAULT_255_1_234
10
13.6164705
20
86.5185919
40
0.7547848
50
181.1218675
51
193.87563
0
ARC
8
DEFAULT_255_1_234
10
13.8234886
20
86.529658
40
0.9620055
50
179.9918545
51
181.5394234
0
ARC
8
DEFAULT_255_1_234
10
13.6383988
20
86.6459788
40
0.7769248
50
169.5837241
51
180.2757934
0
ARC
8
DEFAULT_255_1_234
10
13.4546926
20
86.6799229
40
0.590109
50
155.0365899
51
169.6003176
0
ARC
8
DEFAULT_255_1_234
10
13.341139
20
86.7346677
40
0.4640625
50
136.783148
51
155.2472683
0
ARC
8
DEFAULT_255_1_234
10
13.3021867
20
86.7677562
40
0.4130255
50
121.7633186
51
136.428115
0
ARC
8
DEFAULT_255_1_234
10
13.3156829
20
86.7428227
40
0.4413323
50
95.6459699
51
121.5490577
0
ARC
8
DEFAULT_255_1_234
10
13.3314111
20
86.6319949
40
0.55319
50
89.924208
51
96.1377933
0
ARC
8
DEFAULT_255_1_234
10
13.3364544
20
86.6438542
40
0.5413475
50
76.6779277
51
90.4563316
0
ARC
8
DEFAULT_255_1_234
10
13.3758167
20
86.8029114
40
0.3775041
50
47.485847
51
76.9287264
0
ARC
8
DEFAULT_255_1_234
10
13.361114
20
86.7929159
40
0.3948286
50
16.5424086
51
46.8933463
0
ARC
8
DEFAULT_255_1_234
10
13.2003297
20
86.7400861
40
0.564021
50
5.4072051
51
17.0365086
0
ARC
8
DEFAULT_255_1_234
10
13.0564314
20
86.7169679
40
0.5556559
50
7.8891745
51
15.9239216
0
ARC
8
DEFAULT_255_1_234
10
13.2551328
20
86.7746631
40
0.3487515
50
15.7653144
51
27.9410532
0
ARC
8
DEFAULT_255_1_234
10
13.3655546
20
86.833779
40
0.2235026
50
27.8166557
51
46.4008329
0
ARC
8
DEFAULT_255_1_234
10
13.3705188
20
86.8332082
40
0.2205286
50
47.4371857
51
75.0698205
0
ARC
8
DEFAULT_255_1_234
10
13.3396583
20
86.7257765
40
0.3322915
50
74.7008593
51
87.8124495
0
ARC
8
DEFAULT_255_1_234
10
13.332327
20
86.6201844
40
0.4380987
50
87.3814673
51
90.0240855
0
ARC
8
DEFAULT_255_1_234
10
13.3284814
20
86.7379291
40
0.3203749
50
89.3451631
51
108.5745436
0
ARC
8
DEFAULT_255_1_234
10
13.3147919
20
86.7892908
40
0.2673494
50
109.2998449
51
143.3037509
0
ARC
8
DEFAULT_255_1_234
10
13.3909992
20
86.7306881
40
0.3634757
50
143.0753173
51
163.1916937
0
ARC
8
DEFAULT_255_1_234
10
13.5861719
20
86.6690967
40
0.5681262
50
162.9373603
51
174.6208611
0
ARC
8
DEFAULT_255_1_234
10
13.8487761
20
86.640301
40
0.8322832
50
174.3419979
51
180.1430411
0
ARC
8
DEFAULT_255_1_234
10
13.7556918
20
86.5208698
40
0.7392076
50
179.6817502
51
189.150529
0
ARC
8
DEFAULT_255_1_234
10
13.5056166
20
86.479219
40
0.4856932
50
188.9910863
51
203.5773039
0
ARC
8
DEFAULT_255_1_234
10
13.3976498
20
86.4344211
40
0.3688271
50
203.9077269
51
215.1312379
0
ARC
8
DEFAULT_255_1_234
10
13.3053592
20
86.3628941
40
0.2522457
50
213.9071664
51
263.8849284
0
ARC
8
DEFAULT_255_1_234
10
13.3178921
20
86.4413518
40
0.3316174
50
263.1758525
51
270.1031083
0
ARC
8
DEFAULT_255_1_234
10
13.3211013
20
86.5660365
40
0.4563091
50
269.6719807
51
279.0609165
0
ARC
8
DEFAULT_255_1_234
10
13.3477781
20
86.4047907
40
0.2928759
50
278.8750225
51
293.6346586
0
ARC
8
DEFAULT_255_1_234
10
13.3797989
20
86.32959
40
0.2111472
50
293.8553404
51
310.0518804
0
ARC
8
DEFAULT_255_1_234
10
13.3802843
20
86.3233516
40
0.2060917
50
311.0646779
51
332.0108348
0
ARC
8
DEFAULT_255_1_234
10
13.261057
20
86.3890978
40
0.3422352
50
331.6588543
51
343.2878891
0
ARC
8
DEFAULT_255_1_234
10
13.0548085
20
86.4524798
40
0.5580003
50
343.1446044
51
351.010618
0
ARC
8
DEFAULT_255_1_234
10
12.9006731
20
86.4805871
40
0.7146438
50
350.7157277
51
351.1602153
0
LINE
8
DEFAULT_255_1_234
10
14.1208596
20
86.5554963
11
14.0019898
21
86.5860169
0
LINE
8
DEFAULT_255_1_234
10
14.0019898
20
86.5860169
11
14.0614247
21
87.1691211
0
LINE
8
DEFAULT_255_1_234
10
14.0614247
20
87.1691211
11
14.6605924
21
87.1691211
0
LINE
8
DEFAULT_255_1_234
10
14.6605924
20
87.1691211
11
14.6605924
21
87.0317784
0
LINE
8
DEFAULT_255_1_234
10
14.6605924
20
87.0317784
11
14.187523
21
87.0317784
0
LINE
8
DEFAULT_255_1_234
10
14.187523
20
87.0317784
11
14.1521833
21
86.7129184
0
LINE
8
DEFAULT_255_1_234
10
13.9602248
20
86.3073156
11
14.1007802
21
86.3073156
0
LINE
8
DEFAULT_255_1_234
10
14.1602151
20
86.5876232
11
14.1208596
21
86.5554963
0
ARC
8
DEFAULT_255_1_234
10
14.3376617
20
86.394923
40
0.3681349
50
93.7182161
51
120.2538958
0
ARC
8
DEFAULT_255_1_234
10
14.347088
20
86.3141394
40
0.449379
50
89.9660152
51
94.2496022
0
ARC
8
DEFAULT_255_1_234
10
14.3511614
20
86.3730549
40
0.390482
50
73.8043271
51
90.5585896
0
ARC
8
DEFAULT_255_1_234
10
14.3746511
20
86.4588602
40
0.3015334
50
41.3071453
51
73.5430202
0
ARC
8
DEFAULT_255_1_234
10
14.3330339
20
86.4230324
40
0.3564457
50
13.5075983
51
41.2174222
0
ARC
8
DEFAULT_255_1_234
10
14.1688542
20
86.3800486
40
0.5261351
50
1.1331335
51
13.8829381
0
ARC
8
DEFAULT_255_1_234
10
14.0276911
20
86.3724665
40
0.6674378
50
359.9919444
51
1.544251
0
ARC
8
DEFAULT_255_1_234
10
14.1553738
20
86.368328
40
0.5397702
50
347.8572367
51
0.4293338
0
ARC
8
DEFAULT_255_1_234
10
14.3304055
20
86.3286736
40
0.3603188
50
323.673004
51
348.1672506
0
ARC
8
DEFAULT_255_1_234
10
14.3598563
20
86.3107168
40
0.3259678
50
316.8171152
51
323.1492751
0
ARC
8
DEFAULT_255_1_234
10
14.3659752
20
86.307046
40
0.3189975
50
281.8396411
51
316.5457803
0
ARC
8
DEFAULT_255_1_234
10
14.3284016
20
86.4625762
40
0.4789527
50
269.5770101
51
282.4214771
0
ARC
8
DEFAULT_255_1_234
10
14.3212828
20
86.4412125
40
0.45759
50
256.2427136
51
270.4486331
0
ARC
8
DEFAULT_255_1_234
10
14.291373
20
86.3212229
40
0.3339303
50
228.9023911
51
256.3314342
0
ARC
8
DEFAULT_255_1_234
10
14.2839963
20
86.3095746
40
0.32031
50
193.753695
51
228.5271154
0
ARC
8
DEFAULT_255_1_234
10
14.4077917
20
86.34588
40
0.4492253
50
184.924711
51
194.497588
0
ARC
8
DEFAULT_255_1_234
10
14.4270483
20
86.3494591
40
0.3289787
50
187.3600538
51
198.6732863
0
ARC
8
DEFAULT_255_1_234
10
14.3220777
20
86.3130674
40
0.217884
50
198.4451669
51
217.794479
0
ARC
8
DEFAULT_255_1_234
10
14.2924953
20
86.2921085
40
0.1816698
50
218.2887171
51
228.5612368
0
ARC
8
DEFAULT_255_1_234
10
14.302274
20
86.3052963
40
0.1980329
50
228.9654866
51
258.1234728
0
ARC
8
DEFAULT_255_1_234
10
14.322845
20
86.3933833
40
0.2884748
50
257.7258293
51
270.401361
0
ARC
8
DEFAULT_255_1_234
10
14.3273336
20
86.3488821
40
0.2439788
50
269.4204404
51
286.4209037
0
ARC
8
DEFAULT_255_1_234
10
14.3421823
20
86.2949657
40
0.1880666
50
286.7251356
51
320.600362
0
ARC
8
DEFAULT_255_1_234
10
14.3038648
20
86.3260595
40
0.2374121
50
320.6712579
51
344.5441685
0
ARC
8
DEFAULT_255_1_234
10
14.1881975
20
86.3600045
40
0.3579479
50
344.2412205
51
356.7357071
0
ARC
8
DEFAULT_255_1_234
10
14.0633123
20
86.3703444
40
0.4832297
50
356.3548756
51
0.0500261
0
ARC
8
DEFAULT_255_1_234
10
14.1969632
20
86.373465
40
0.3495889
50
359.5576869
51
12.953486
0
ARC
8
DEFAULT_255_1_234
10
14.302453
20
86.3990434
40
0.2410532
50
12.6490276
51
41.6081334
0
ARC
8
DEFAULT_255_1_234
10
14.3254901
20
86.4186321
40
0.2108218
50
41.7850273
51
85.9892764
0
ARC
8
DEFAULT_255_1_234
10
14.3131637
20
86.3373462
40
0.2928454
50
84.6957577
51
90.0676183
0
ARC
8
DEFAULT_255_1_234
10
14.3108121
20
86.2704716
40
0.3597255
50
89.6804936
51
99.1614436
0
ARC
8
DEFAULT_255_1_234
10
14.2902753
20
86.3932131
40
0.235281
50
98.9830931
51
113.8908934
0
ARC
8
DEFAULT_255_1_234
10
14.2673163
20
86.4473587
40
0.176479
50
114.1950727
51
127.3641004
0
LINE
8
DEFAULT_255_1_234
10
15.5906677
20
86.6912327
11
15.5906677
21
86.4984709
0
LINE
8
DEFAULT_255_1_234
10
14.8525509
20
86.4783916
11
14.8525509
21
86.6767755
0
LINE
8
DEFAULT_255_1_234
10
15.4420805
20
86.4583123
11
15.4420805
21
86.7016739
0
LINE
8
DEFAULT_255_1_234
10
15.0011381
20
86.7129184
11
15.0011381
21
86.4751789
0
ARC
8
DEFAULT_255_1_234
10
14.3659566
20
86.4935805
40
1.2247208
50
353.8441951
51
0.2287902
0
ARC
8
DEFAULT_255_1_234
10
14.829907
20
86.4417806
40
0.7578929
50
344.4934747
51
353.9765454
0
ARC
8
DEFAULT_255_1_234
10
15.129166
20
86.3566981
40
0.4467846
50
329.2803592
51
344.7472793
0
ARC
8
DEFAULT_255_1_234
10
15.2284485
20
86.3022018
40
0.3336173
50
324.9352394
51
328.6160465
0
ARC
8
DEFAULT_255_1_234
10
15.2661594
20
86.2758427
40
0.2876076
50
280.580143
51
324.9173126
0
ARC
8
DEFAULT_255_1_234
10
15.2260386
20
86.4429099
40
0.4592847
50
269.5977311
51
281.6734359
0
ARC
8
DEFAULT_255_1_234
10
15.2188292
20
86.4309173
40
0.4472986
50
256.6228859
51
270.51044
0
ARC
8
DEFAULT_255_1_234
10
15.178627
20
86.2760877
40
0.2873874
50
215.8618325
51
257.2788573
0
ARC
8
DEFAULT_255_1_234
10
15.2807301
20
86.3445977
40
0.4102928
50
197.9693508
51
215.2623606
0
ARC
8
DEFAULT_255_1_234
10
15.5292417
20
86.4284709
40
0.6725652
50
187.8816417
51
198.2346507
0
ARC
8
DEFAULT_255_1_234
10
15.9250625
20
86.4856079
40
1.0724845
50
180.8976217
51
188.0055519
0
ARC
8
DEFAULT_255_1_234
10
16.2050813
20
86.4959777
40
1.3526448
50
180.7449369
51
181.1510016
0
ARC
8
DEFAULT_255_1_234
10
16.0473542
20
86.6816042
40
1.1948131
50
173.7675579
51
180.231553
0
ARC
8
DEFAULT_255_1_234
10
15.5955689
20
86.7326666
40
0.7401564
50
164.3058563
51
173.9002247
0
ARC
8
DEFAULT_255_1_234
10
15.3043758
20
86.8165656
40
0.4371288
50
148.7922025
51
164.568378
0
ARC
8
DEFAULT_255_1_234
10
15.209221
20
86.8696929
40
0.3282386
50
144.5883898
51
148.1176286
0
ARC
8
DEFAULT_255_1_234
10
15.1749108
20
86.8936315
40
0.2864044
50
101.6440918
51
144.514236
0
ARC
8
DEFAULT_255_1_234
10
15.2174175
20
86.7247069
40
0.4604934
50
89.5284041
51
102.5819763
0
ARC
8
DEFAULT_255_1_234
10
15.2253263
20
86.7208018
40
0.464401
50
77.0437873
51
90.5081339
0
ARC
8
DEFAULT_255_1_234
10
15.2655264
20
86.8850615
40
0.2953195
50
48.2778575
51
77.4994676
0
ARC
8
DEFAULT_255_1_234
10
15.2727896
20
86.8979746
40
0.2808655
50
36.3142134
51
47.6305865
0
ARC
8
DEFAULT_255_1_234
10
15.1859203
20
86.8394515
40
0.3855453
50
18.2931786
51
35.6769206
0
ARC
8
DEFAULT_255_1_234
10
14.9315961
20
86.7521593
40
0.654423
50
8.024666
51
18.5605216
0
ARC
8
DEFAULT_255_1_234
10
14.5152881
20
86.6906792
40
1.0752407
50
1.1274072
51
8.1718305
0
ARC
8
DEFAULT_255_1_234
10
14.1917072
20
86.6779885
40
1.3990231
50
0.5424119
51
1.3863029
0
ARC
8
DEFAULT_255_1_234
10
14.373845
20
86.7052342
40
1.0682415
50
359.8090433
51
4.9407866
0
ARC
8
DEFAULT_255_1_234
10
14.7948464
20
86.7428113
40
0.6455691
50
4.8362157
51
12.2904523
0
ARC
8
DEFAULT_255_1_234
10
15.0703579
20
86.8041965
40
0.3633074
50
12.0805627
51
23.8173984
0
ARC
8
DEFAULT_255_1_234
10
15.1877284
20
86.8538919
40
0.2358723
50
24.2871213
51
31.3935614
0
ARC
8
DEFAULT_255_1_234
10
15.2401981
20
86.8882233
40
0.1732111
50
30.7407893
51
82.4657128
0
ARC
8
DEFAULT_255_1_234
10
15.2222115
20
86.7998691
40
0.263235
50
81.1060089
51
90.2184952
0
ARC
8
DEFAULT_255_1_234
10
15.2186414
20
86.8256924
40
0.2374236
50
89.3806855
51
105.6762551
0
ARC
8
DEFAULT_255_1_234
10
15.2003045
20
86.8923567
40
0.1682847
50
105.7981136
51
149.7388061
0
ARC
8
DEFAULT_255_1_234
10
15.3067123
20
86.828395
40
0.2924306
50
149.4208916
51
163.6286378
0
ARC
8
DEFAULT_255_1_234
10
15.5158011
20
86.764625
40
0.5110213
50
163.3763315
51
172.1410975
0
ARC
8
DEFAULT_255_1_234
10
15.845873
20
86.7173518
40
0.8444586
50
172.0259487
51
178.0703232
0
ARC
8
DEFAULT_255_1_234
10
16.148882
20
86.7029906
40
1.1477868
50
177.8631668
51
179.5044149
0
ARC
8
DEFAULT_255_1_234
10
16.0416224
20
86.4715389
40
1.0404907
50
179.7995573
51
185.2460446
0
ARC
8
DEFAULT_255_1_234
10
15.6373264
20
86.4332513
40
0.6343885
50
185.1411642
51
193.0079639
0
ARC
8
DEFAULT_255_1_234
10
15.3729736
20
86.3707641
40
0.3627568
50
192.7897626
51
205.2507664
0
ARC
8
DEFAULT_255_1_234
10
15.2683283
20
86.3240415
40
0.2481908
50
205.8005384
51
211.2537509
0
ARC
8
DEFAULT_255_1_234
10
15.2159724
20
86.288958
40
0.1852521
50
210.3789793
51
238.4008143
0
ARC
8
DEFAULT_255_1_234
10
15.2140245
20
86.2936376
40
0.1882621
50
239.6520629
51
265.9793761
0
ARC
8
DEFAULT_255_1_234
10
15.2225446
20
86.3608427
40
0.2559272
50
265.1315437
51
270.060332
0
ARC
8
DEFAULT_255_1_234
10
15.2254224
20
86.3284534
40
0.2235528
50
269.3314664
51
287.2178029
0
ARC
8
DEFAULT_255_1_234
10
15.2392076
20
86.2781279
40
0.1714108
50
287.7958004
51
329.080874
0
ARC
8
DEFAULT_255_1_234
10
15.1434533
20
86.337893
40
0.2842745
50
328.6634704
51
343.3325132
0
ARC
8
DEFAULT_255_1_234
10
14.9261553
20
86.4055863
40
0.5118644
50
343.0499468
51
351.9393422
0
ARC
8
DEFAULT_255_1_234
10
14.5794853
20
86.4566949
40
0.8622784
50
351.8069023
51
357.7959224
0
ARC
8
DEFAULT_255_1_234
10
14.2559409
20
86.4734721
40
1.1862365
50
357.5871873
51
359.2677531
0
LINE
8
DEFAULT_255_1_234
10
16.5143176
20
86.6912327
11
16.5143176
21
86.4984709
0
LINE
8
DEFAULT_255_1_234
10
15.7762008
20
86.4783916
11
15.7762008
21
86.6767755
0
LINE
8
DEFAULT_255_1_234
10
16.3657304
20
86.4583123
11
16.3657304
21
86.7016739
0
LINE
8
DEFAULT_255_1_234
10
15.924788
20
86.7129184
11
15.924788
21
86.4751789
0
ARC
8
DEFAULT_255_1_234
10
15.2896065
20
86.4935805
40
1.2247208
50
353.8441951
51
0.2287902
0
ARC
8
DEFAULT_255_1_234
10
15.7535569
20
86.4417806
40
0.7578929
50
344.4934747
51
353.9765454
0
ARC
8
DEFAULT_255_1_234
10
16.0528159
20
86.3566981
40
0.4467846
50
329.2803592
51
344.7472793
0
ARC
8
DEFAULT_255_1_234
10
16.1520984
20
86.3022018
40
0.3336173
50
324.9352394
51
328.6160465
0
ARC
8
DEFAULT_255_1_234
10
16.1898093
20
86.2758427
40
0.2876076
50
280.580143
51
324.9173126
0
ARC
8
DEFAULT_255_1_234
10
16.1496885
20
86.4429099
40
0.4592847
50
269.5977311
51
281.6734359
0
ARC
8
DEFAULT_255_1_234
10
16.1424791
20
86.4309173
40
0.4472986
50
256.6228859
51
270.51044
0
ARC
8
DEFAULT_255_1_234
10
16.1022769
20
86.2760877
40
0.2873874
50
215.8618325
51
257.2788573
0
ARC
8
DEFAULT_255_1_234
10
16.20438
20
86.3445977
40
0.4102928
50
197.9693508
51
215.2623606
0
ARC
8
DEFAULT_255_1_234
10
16.4528916
20
86.4284709
40
0.6725652
50
187.8816417
51
198.2346507
0
ARC
8
DEFAULT_255_1_234
10
16.8487124
20
86.4856079
40
1.0724845
50
180.8976217
51
188.0055519
0
ARC
8
DEFAULT_255_1_234
10
17.1287312
20
86.4959777
40
1.3526448
50
180.7449369
51
181.1510016
0
ARC
8
DEFAULT_255_1_234
10
16.9710042
20
86.6816042
40
1.1948131
50
173.7675579
51
180.231553
0
ARC
8
DEFAULT_255_1_234
10
16.5192188
20
86.7326666
40
0.7401564
50
164.3058563
51
173.9002247
0
ARC
8
DEFAULT_255_1_234
10
16.2280257
20
86.8165656
40
0.4371288
50
148.7922025
51
164.568378
0
ARC
8
DEFAULT_255_1_234
10
16.1328709
20
86.8696929
40
0.3282386
50
144.5883898
51
148.1176286
0
ARC
8
DEFAULT_255_1_234
10
16.0985607
20
86.8936315
40
0.2864044
50
101.6440918
51
144.514236
0
ARC
8
DEFAULT_255_1_234
10
16.1410674
20
86.7247069
40
0.4604934
50
89.5284041
51
102.5819763
0
ARC
8
DEFAULT_255_1_234
10
16.1489762
20
86.7208018
40
0.464401
50
77.0437873
51
90.5081339
0
ARC
8
DEFAULT_255_1_234
10
16.1891763
20
86.8850615
40
0.2953195
50
48.2778575
51
77.4994676
0
ARC
8
DEFAULT_255_1_234
10
16.1964395
20
86.8979746
40
0.2808655
50
36.3142134
51
47.6305865
0
ARC
8
DEFAULT_255_1_234
10
16.1095702
20
86.8394515
40
0.3855453
50
18.2931786
51
35.6769206
0
ARC
8
DEFAULT_255_1_234
10
15.855246
20
86.7521593
40
0.654423
50
8.024666
51
18.5605216
0
ARC
8
DEFAULT_255_1_234
10
15.438938
20
86.6906792
40
1.0752407
50
1.1274072
51
8.1718305
0
ARC
8
DEFAULT_255_1_234
10
15.1153571
20
86.6779885
40
1.3990231
50
0.5424119
51
1.3863029
0
ARC
8
DEFAULT_255_1_234
10
15.2974949
20
86.7052342
40
1.0682415
50
359.8090433
51
4.9407866
0
ARC
8
DEFAULT_255_1_234
10
15.7184963
20
86.7428113
40
0.6455691
50
4.8362157
51
12.2904523
0
ARC
8
DEFAULT_255_1_234
10
15.9940078
20
86.8041965
40
0.3633074
50
12.0805627
51
23.8173984
0
ARC
8
DEFAULT_255_1_234
10
16.1113783
20
86.8538919
40
0.2358723
50
24.2871213
51
31.3935614
0
ARC
8
DEFAULT_255_1_234
10
16.163848
20
86.8882233
40
0.1732111
50
30.7407893
51
82.4657128
0
ARC
8
DEFAULT_255_1_234
10
16.1458615
20
86.7998691
40
0.263235
50
81.1060089
51
90.2184952
0
ARC
8
DEFAULT_255_1_234
10
16.1422913
20
86.8256924
40
0.2374236
50
89.3806855
51
105.6762551
0
ARC
8
DEFAULT_255_1_234
10
16.1239544
20
86.8923567
40
0.1682847
50
105.7981136
51
149.7388061
0
ARC
8
DEFAULT_255_1_234
10
16.2303622
20
86.828395
40
0.2924306
50
149.4208916
51
163.6286378
0
ARC
8
DEFAULT_255_1_234
10
16.439451
20
86.764625
40
0.5110213
50
163.3763315
51
172.1410975
0
ARC
8
DEFAULT_255_1_234
10
16.7695229
20
86.7173518
40
0.8444586
50
172.0259487
51
178.0703232
0
ARC
8
DEFAULT_255_1_234
10
17.0725319
20
86.7029906
40
1.1477868
50
177.8631668
51
179.5044149
0
ARC
8
DEFAULT_255_1_234
10
16.9652723
20
86.4715389
40
1.0404907
50
179.7995573
51
185.2460446
0
ARC
8
DEFAULT_255_1_234
10
16.5609763
20
86.4332513
40
0.6343885
50
185.1411642
51
193.0079639
0
ARC
8
DEFAULT_255_1_234
10
16.2966235
20
86.3707641
40
0.3627568
50
192.7897626
51
205.2507664
0
ARC
8
DEFAULT_255_1_234
10
16.1919782
20
86.3240415
40
0.2481908
50
205.8005384
51
211.2537509
0
ARC
8
DEFAULT_255_1_234
10
16.1396223
20
86.288958
40
0.1852521
50
210.3789793
51
238.4008143
0
ARC
8
DEFAULT_255_1_234
10
16.1376744
20
86.2936376
40
0.1882621
50
239.6520629
51
265.9793761
0
ARC
8
DEFAULT_255_1_234
10
16.1461945
20
86.3608427
40
0.2559272
50
265.1315437
51
270.060332
0
ARC
8
DEFAULT_255_1_234
10
16.1490723
20
86.3284534
40
0.2235528
50
269.3314664
51
287.2178029
0
ARC
8
DEFAULT_255_1_234
10
16.1628575
20
86.2781279
40
0.1714108
50
287.7958004
51
329.080874
0
ARC
8
DEFAULT_255_1_234
10
16.0671032
20
86.337893
40
0.2842745
50
328.6634704
51
343.3325132
0
ARC
8
DEFAULT_255_1_234
10
15.8498052
20
86.4055863
40
0.5118644
50
343.0499468
51
351.9393422
0
ARC
8
DEFAULT_255_1_234
10
15.5031352
20
86.4566949
40
0.8622784
50
351.8069023
51
357.7959224
0
ARC
8
DEFAULT_255_1_234
10
15.1795908
20
86.4734721
40
1.1862365
50
357.5871873
51
359.2677531
0
ARC
8
DEFAULT_255_2_778
10
17.7777097
20
89.3276171
40
0.9020291
50
36.6388597
51
62.8867982
0
ARC
8
DEFAULT_255_2_778
10
17.8603568
20
90.5951537
40
0.5690038
50
305.2567636
51
359.2313325
0
ARC
8
DEFAULT_255_2_778
10
17.8620044
20
90.5909224
40
0.5673153
50
359.6564073
51
359.9965367
0
ARC
8
DEFAULT_255_2_778
10
17.8712024
20
90.5907304
40
0.5581173
50
0.0161948
51
44.9914988
0
ARC
8
DEFAULT_255_2_778
10
17.8711898
20
90.5909752
40
0.5579531
50
44.9727995
51
90.0082066
0
ARC
8
DEFAULT_255_2_778
10
17.8711103
20
90.5861243
40
0.5628041
50
90.0000418
51
90.3054948
0
ARC
8
DEFAULT_255_2_778
10
17.7987748
20
89.3803502
40
0.8780155
50
272.4239848
51
302.0447594
0
ARC
8
DEFAULT_255_2_778
10
17.8122698
20
89.3456499
40
0.8414712
50
302.5195233
51
0.4950469
0
ARC
8
DEFAULT_255_2_778
10
17.8209108
20
89.3737449
40
0.833059
50
358.5675863
51
29.0157619
0
ARC
8
DEFAULT_255_2_778
10
15.6119513
20
89.3265655
40
0.9032652
50
36.6636783
51
62.8800292
0
ARC
8
DEFAULT_255_2_778
10
15.694448
20
90.5955795
40
0.5698185
50
305.2984654
51
359.1896208
0
ARC
8
DEFAULT_255_2_778
10
15.6958372
20
90.5909256
40
0.5683825
50
359.6567283
51
359.9965559
0
ARC
8
DEFAULT_255_2_778
10
15.7062628
20
90.5907968
40
0.5579568
50
0.0097156
51
44.9837975
0
ARC
8
DEFAULT_255_2_778
10
15.7060736
20
90.5909297
40
0.5579968
50
44.9604089
51
90.0139948
0
ARC
8
DEFAULT_255_2_778
10
15.7059813
20
90.5733846
40
0.5755419
50
90.0043846
51
90.2659864
0
ARC
8
DEFAULT_255_2_778
10
15.6337968
20
89.3803822
40
0.8780507
50
272.42898
51
302.0445025
0
ARC
8
DEFAULT_255_2_778
10
15.6473929
20
89.3457943
40
0.8415468
50
302.5093151
51
0.4851764
0
ARC
8
DEFAULT_255_2_778
10
15.6551024
20
89.3734974
40
0.8340609
50
358.5863171
51
28.9970314
0
LINE
8
DEFAULT_255_2_778
10
13.9073095
20
89.8659203
11
13.4504095
21
91.1489203
0
LINE
8
DEFAULT_255_2_778
10
13.4504095
20
91.1489203
11
13.1056095
21
91.1489203
0
LINE
8
DEFAULT_255_2_778
10
13.1056095
20
91.1489203
11
13.1056095
21
89.8659203
0
LINE
8
DEFAULT_255_2_778
10
13.1056095
20
89.8659203
11
13.9073095
21
89.8659203
0
LINE
8
DEFAULT_255_2_778
10
13.1056095
20
89.0642203
11
13.5306095
21
89.0642203
0
LINE
8
DEFAULT_255_2_778
10
13.5306095
20
89.0642203
11
13.7229095
21
88.5031203
0
LINE
8
DEFAULT_255_2_778
10
13.7229095
20
88.5031203
11
14.3883095
21
88.5031203
0
LINE
8
DEFAULT_255_2_778
10
14.3883095
20
88.5031203
11
13.9314095
21
89.7858203
0
LINE
8
DEFAULT_255_2_778
10
13.9314095
20
89.7858203
11
13.1056095
21
89.7858203
0
LINE
8
DEFAULT_255_2_778
10
13.1056095
20
89.7858203
11
13.1056095
21
89.0642203
0
LINE
8
DEFAULT_255_2_778
10
13.0255095
20
91.1489203
11
12.6807095
21
91.1489203
0
LINE
8
DEFAULT_255_2_778
10
12.6807095
20
91.1489203
11
12.2238095
21
89.8659203
0
LINE
8
DEFAULT_255_2_778
10
12.2238095
20
89.8659203
11
13.0255095
21
89.8659203
0
LINE
8
DEFAULT_255_2_778
10
13.0255095
20
89.8659203
11
13.0255095
21
91.1489203
0
LINE
8
DEFAULT_255_2_778
10
12.1997095
20
89.7858203
11
11.7425095
21
88.5031203
0
LINE
8
DEFAULT_255_2_778
10
11.7425095
20
88.5031203
11
12.4079095
21
88.5031203
0
LINE
8
DEFAULT_255_2_778
10
12.4079095
20
88.5031203
11
12.6003095
21
89.0642203
0
LINE
8
DEFAULT_255_2_778
10
12.6003095
20
89.0642203
11
13.0252095
21
89.0642203
0
LINE
8
DEFAULT_255_2_778
10
13.0252095
20
89.0642203
11
13.0252095
21
89.7858203
0
LINE
8
DEFAULT_255_2_778
10
13.0252095
20
89.7858203
11
12.1997095
21
89.7858203
0
LINE
8
DEFAULT_255_2_778
10
16.7937095
20
91.1489203
11
17.5953095
21
91.1489203
0
LINE
8
DEFAULT_255_2_778
10
17.5953095
20
91.1489203
11
17.5953095
21
89.8659203
0
LINE
8
DEFAULT_255_2_778
10
17.5953095
20
89.8659203
11
16.7937095
21
89.8659203
0
LINE
8
DEFAULT_255_2_778
10
16.7937095
20
89.8659203
11
16.7937095
21
91.1489203
0
LINE
8
DEFAULT_255_2_778
10
17.8681095
20
91.1489203
11
17.6758095
21
91.1489203
0
LINE
8
DEFAULT_255_2_778
10
17.6758095
20
91.1489203
11
17.6758095
21
89.8659203
0
LINE
8
DEFAULT_255_2_778
10
17.6758095
20
89.8659203
11
18.5015095
21
89.8659203
0
LINE
8
DEFAULT_255_2_778
10
18.5015095
20
89.8659203
11
18.5015095
21
89.8659203
0
LINE
8
DEFAULT_255_2_778
10
16.7937095
20
89.7858203
11
17.5953095
21
89.7858203
0
LINE
8
DEFAULT_255_2_778
10
17.5953095
20
89.7858203
11
17.5953095
21
88.5031203
0
LINE
8
DEFAULT_255_2_778
10
17.5953095
20
88.5031203
11
16.7937095
21
88.5031203
0
LINE
8
DEFAULT_255_2_778
10
16.7937095
20
88.5031203
11
16.7937095
21
89.7858203
0
LINE
8
DEFAULT_255_2_778
10
17.6755095
20
88.5031203
11
17.8359095
21
88.5031203
0
LINE
8
DEFAULT_255_2_778
10
18.5494095
20
89.7778203
11
17.6755095
21
89.7778203
0
LINE
8
DEFAULT_255_2_778
10
17.6755095
20
89.7778203
11
17.6755095
21
88.5031203
0
LINE
8
DEFAULT_255_2_778
10
17.6755095
20
88.5031203
11
17.6755095
21
88.5031203
0
LINE
8
DEFAULT_255_2_778
10
14.6288095
20
91.1489203
11
15.4305095
21
91.1489203
0
LINE
8
DEFAULT_255_2_778
10
15.4305095
20
91.1489203
11
15.4305095
21
89.8659203
0
LINE
8
DEFAULT_255_2_778
10
15.4305095
20
89.8659203
11
14.6288095
21
89.8659203
0
LINE
8
DEFAULT_255_2_778
10
14.6288095
20
89.8659203
11
14.6288095
21
91.1489203
0
LINE
8
DEFAULT_255_2_778
10
15.7033095
20
91.1489203
11
15.5110095
21
91.1489203
0
LINE
8
DEFAULT_255_2_778
10
15.5110095
20
91.1489203
11
15.5110095
21
89.8659203
0
LINE
8
DEFAULT_255_2_778
10
15.5110095
20
89.8659203
11
16.3367095
21
89.8659203
0
LINE
8
DEFAULT_255_2_778
10
16.3367095
20
89.8659203
11
16.3365095
21
89.8659203
0
LINE
8
DEFAULT_255_2_778
10
14.6288095
20
89.7858203
11
15.4305095
21
89.7858203
0
LINE
8
DEFAULT_255_2_778
10
15.4305095
20
89.7858203
11
15.4305095
21
88.5031203
0
LINE
8
DEFAULT_255_2_778
10
15.4305095
20
88.5031203
11
14.6288095
21
88.5031203
0
LINE
8
DEFAULT_255_2_778
10
14.6288095
20
88.5031203
11
14.6288095
21
89.7858203
0
LINE
8
DEFAULT_255_2_778
10
15.5107095
20
88.5031203
11
15.6710095
21
88.5031203
0
LINE
8
DEFAULT_255_2_778
10
16.3846095
20
89.7778203
11
15.5107095
21
89.7778203
0
LINE
8
DEFAULT_255_2_778
10
15.5107095
20
89.7778203
11
15.5107095
21
88.5031203
0
LINE
8
DEFAULT_255_2_778
10
15.5107095
20
88.5031203
11
15.5107095
21
88.5031203
0
LINE
8
DEFAULT_255_2_778
10
9.3932417
20
68.659408
11
10.7161417
21
68.659408
0
LINE
8
DEFAULT_255_2_778
10
10.7161417
20
68.659408
11
10.7161417
21
43.524008
0
LINE
8
DEFAULT_255_2_778
10
9.3932834
20
43.5239333
11
12.0390834
21
43.5239333
0
LINE
8
DEFAULT_255_2_778
10
12.0390834
20
43.5239333
11
12.0390834
21
38.2322333
0
LINE
8
DEFAULT_255_2_778
10
12.0390834
20
38.2322333
11
9.3932834
21
38.2322333
0
LINE
8
DEFAULT_255_2_778
10
9.3932834
20
38.2322333
11
9.3932834
21
43.5239333
0
ARC
8
DEFAULT_255_2_778_1
10
13.1928591
20
38.334677
40
4.816461
50
120.9442904
51
122.351755
0
ARC
8
DEFAULT_255_2_778_1
10
12.7462523
20
39.0383039
40
3.9830657
50
122.3407904
51
124.1946752
0
ARC
8
DEFAULT_255_2_778_1
10
12.3063464
20
39.6848306
40
3.2010724
50
124.1855758
51
126.4338849
0
ARC
8
DEFAULT_255_2_778_1
10
11.9204129
20
40.2075611
40
2.5513094
50
126.4326926
51
128.8877368
0
ARC
8
DEFAULT_255_2_778_1
10
11.5855968
20
40.6219658
40
2.0185498
50
128.8749205
51
131.8726567
0
ARC
8
DEFAULT_255_2_778_1
10
11.2884677
20
40.9529854
40
1.5737356
50
131.8616166
51
135.4168838
0
ARC
8
DEFAULT_255_2_778_1
10
11.025668
20
41.2111765
40
1.2053256
50
135.3893975
51
139.9687014
0
ARC
8
DEFAULT_255_2_778_1
10
10.7927889
20
41.4060102
40
0.9016937
50
139.9301659
51
145.9260426
0
ARC
8
DEFAULT_255_2_778_1
10
10.596654
20
41.5380104
40
0.6652776
50
145.8787362
51
153.8146208
0
ARC
8
DEFAULT_255_2_778_1
10
10.4445553
20
41.6123797
40
0.4959714
50
153.770634
51
164.3484794
0
ARC
8
DEFAULT_255_2_778_1
10
10.3432387
20
41.6405786
40
0.3908039
50
164.3220276
51
179.8083066
0
ARC
8
DEFAULT_255_2_778_1
10
10.3642789
20
41.648715
40
0.4118985
50
180.9499449
51
213.8111542
0
ARC
8
DEFAULT_255_2_778_1
10
10.6401828
20
41.8182896
40
0.73561
50
212.8271214
51
224.258472
0
ARC
8
DEFAULT_255_2_778_1
10
11.0230335
20
42.1876236
40
1.267567
50
224.1376218
51
231.4508261
0
ARC
8
DEFAULT_255_2_778_1
10
11.6657195
20
42.9906168
40
2.2960809
50
231.3955893
51
236.1256478
0
ARC
8
DEFAULT_255_2_778_1
10
13.4980223
20
45.7371293
40
5.5976905
50
236.2233172
51
239.1314682
0
ARC
8
DEFAULT_255_2_778_1
10
25.447927
20
65.4648568
40
28.6623793
50
238.8606853
51
239.0711101
0
ARC
8
DEFAULT_255_2_778_1
10
6.2757281
20
33.3677653
40
8.7248518
50
57.2420924
51
59.4062964
0
ARC
8
DEFAULT_255_2_778_1
10
9.5034241
20
38.3987102
40
2.747542
50
52.8289294
51
57.079028
0
ARC
8
DEFAULT_255_2_778_1
10
10.2780783
20
39.4190488
40
1.466457
50
46.3041868
51
52.8596521
0
ARC
8
DEFAULT_255_2_778_1
10
10.7103073
20
39.8691842
40
0.8424061
50
36.2174211
51
46.4090895
0
ARC
8
DEFAULT_255_2_778_1
10
10.9948088
20
40.0740128
40
0.4918609
50
17.400375
51
36.5489745
0
ARC
8
DEFAULT_255_2_778_1
10
11.1088994
20
40.1138754
40
0.3710912
50
0.0676858
51
16.7951297
0
ARC
8
DEFAULT_255_2_778_1
10
11.0878613
20
40.1157428
40
0.3921317
50
343.8035191
51
359.7912046
0
ARC
8
DEFAULT_255_2_778_1
10
10.9815912
20
40.1462167
40
0.5026844
50
333.2506233
51
343.8465691
0
ARC
8
DEFAULT_255_2_778_1
10
10.8277757
20
40.2229313
40
0.6745679
50
325.6600948
51
333.3122657
0
ARC
8
DEFAULT_255_2_778_1
10
10.6323344
20
40.3557296
40
0.9108568
50
319.7560915
51
325.6976089
0
ARC
8
DEFAULT_255_2_778_1
10
10.404199
20
40.5475002
40
1.2088854
50
315.4577584
51
319.8037947
0
ARC
8
DEFAULT_255_2_778_1
10
10.1408127
20
40.8063507
40
1.5781764
50
311.7298824
51
315.4670864
0
ARC
8
DEFAULT_255_2_778_1
10
9.8317879
20
41.1519074
40
2.0417554
50
308.723055
51
311.7470879
0
ARC
8
DEFAULT_255_2_778_1
10
9.477589
20
41.5931492
40
2.6075745
50
306.1165163
51
308.7300151
0
ARC
8
DEFAULT_255_2_778_1
10
9.0746091
20
42.1444523
40
3.2904564
50
303.9559446
51
306.1266333
0
ARC
8
DEFAULT_255_2_778_1
10
8.6630432
20
42.753715
40
4.0257023
50
302.3733397
51
303.9712246
0
ARC
8
DEFAULT_255_2_778_1
10
8.2434347
20
43.4152058
40
4.8090549
50
300.9434827
51
302.3758078
0
LINE
8
DEFAULT_255_2_778
10
10.7161335
20
38.2322492
11
10.7161335
21
13.0968492
0
LINE
8
DEFAULT_255_2_778
10
10.7161335
20
13.0968492
11
9.3932335
21
13.0968492
0
LINE
8
DEFAULT_255_2_778
10
19.9765335
20
68.6593492
11
18.6536335
21
68.6593492
0
LINE
8
DEFAULT_255_2_778
10
18.6536335
20
68.6593492
11
18.6536335
21
39.5551492
0
LINE
8
DEFAULT_255_2_778
10
17.3307834
20
39.5552333
11
19.9765834
21
39.5552333
0
LINE
8
DEFAULT_255_2_778
10
19.9765834
20
39.5552333
11
19.9765834
21
34.2635333
0
LINE
8
DEFAULT_255_2_778
10
19.9765834
20
34.2635333
11
17.3307834
21
34.2635333
0
LINE
8
DEFAULT_255_2_778
10
17.3307834
20
34.2635333
11
17.3307834
21
39.5552333
0
ARC
8
DEFAULT_255_2_778_1
10
21.1303591
20
34.365977
40
4.816461
50
120.9442904
51
122.351755
0
ARC
8
DEFAULT_255_2_778_1
10
20.6837523
20
35.0696039
40
3.9830657
50
122.3407904
51
124.1946752
0
ARC
8
DEFAULT_255_2_778_1
10
20.2438464
20
35.7161306
40
3.2010724
50
124.1855758
51
126.4338849
0
ARC
8
DEFAULT_255_2_778_1
10
19.8579129
20
36.2388611
40
2.5513094
50
126.4326926
51
128.8877368
0
ARC
8
DEFAULT_255_2_778_1
10
19.5230968
20
36.6532658
40
2.0185498
50
128.8749205
51
131.8726567
0
ARC
8
DEFAULT_255_2_778_1
10
19.2259677
20
36.9842854
40
1.5737356
50
131.8616166
51
135.4168838
0
ARC
8
DEFAULT_255_2_778_1
10
18.963168
20
37.2424765
40
1.2053256
50
135.3893975
51
139.9687014
0
ARC
8
DEFAULT_255_2_778_1
10
18.7302889
20
37.4373102
40
0.9016937
50
139.9301659
51
145.9260426
0
ARC
8
DEFAULT_255_2_778_1
10
18.534154
20
37.5693104
40
0.6652776
50
145.8787362
51
153.8146208
0
ARC
8
DEFAULT_255_2_778_1
10
18.3820553
20
37.6436797
40
0.4959714
50
153.770634
51
164.3484794
0
ARC
8
DEFAULT_255_2_778_1
10
18.2807387
20
37.6718786
40
0.3908039
50
164.3220276
51
179.8083066
0
ARC
8
DEFAULT_255_2_778_1
10
18.3017789
20
37.680015
40
0.4118985
50
180.9499449
51
213.8111542
0
ARC
8
DEFAULT_255_2_778_1
10
18.5776828
20
37.8495896
40
0.73561
50
212.8271214
51
224.258472
0
ARC
8
DEFAULT_255_2_778_1
10
18.9605335
20
38.2189236
40
1.267567
50
224.1376218
51
231.4508261
0
ARC
8
DEFAULT_255_2_778_1
10
19.6032195
20
39.0219168
40
2.2960809
50
231.3955893
51
236.1256478
0
ARC
8
DEFAULT_255_2_778_1
10
21.4355223
20
41.7684293
40
5.5976905
50
236.2233172
51
239.1314682
0
ARC
8
DEFAULT_255_2_778_1
10
33.385427
20
61.4961568
40
28.6623793
50
238.8606853
51
239.0711101
0
ARC
8
DEFAULT_255_2_778_1
10
14.2132281
20
29.3990653
40
8.7248518
50
57.2420924
51
59.4062964
0
ARC
8
DEFAULT_255_2_778_1
10
17.4409241
20
34.4300102
40
2.747542
50
52.8289294
51
57.079028
0
ARC
8
DEFAULT_255_2_778_1
10
18.2155783
20
35.4503488
40
1.466457
50
46.3041868
51
52.8596521
0
ARC
8
DEFAULT_255_2_778_1
10
18.6478073
20
35.9004842
40
0.8424061
50
36.2174211
51
46.4090895
0
ARC
8
DEFAULT_255_2_778_1
10
18.9323088
20
36.1053128
40
0.4918609
50
17.400375
51
36.5489745
0
ARC
8
DEFAULT_255_2_778_1
10
19.0463994
20
36.1451754
40
0.3710912
50
0.0676858
51
16.7951297
0
ARC
8
DEFAULT_255_2_778_1
10
19.0253613
20
36.1470428
40
0.3921317
50
343.8035191
51
359.7912046
0
ARC
8
DEFAULT_255_2_778_1
10
18.9190912
20
36.1775167
40
0.5026844
50
333.2506233
51
343.8465691
0
ARC
8
DEFAULT_255_2_778_1
10
18.7652757
20
36.2542313
40
0.6745679
50
325.6600948
51
333.3122657
0
ARC
8
DEFAULT_255_2_778_1
10
18.5698344
20
36.3870296
40
0.9108568
50
319.7560915
51
325.6976089
0
ARC
8
DEFAULT_255_2_778_1
10
18.341699
20
36.5788002
40
1.2088854
50
315.4577584
51
319.8037947
0
ARC
8
DEFAULT_255_2_778_1
10
18.0783127
20
36.8376507
40
1.5781764
50
311.7298824
51
315.4670864
0
ARC
8
DEFAULT_255_2_778_1
10
17.7692879
20
37.1832074
40
2.0417554
50
308.723055
51
311.7470879
0
ARC
8
DEFAULT_255_2_778_1
10
17.415089
20
37.6244492
40
2.6075745
50
306.1165163
51
308.7300151
0
ARC
8
DEFAULT_255_2_778_1
10
17.0121091
20
38.1757523
40
3.2904564
50
303.9559446
51
306.1266333
0
ARC
8
DEFAULT_255_2_778_1
10
16.6005432
20
38.785015
40
4.0257023
50
302.3733397
51
303.9712246
0
ARC
8
DEFAULT_255_2_778_1
10
16.1809347
20
39.4465058
40
4.8090549
50
300.9434827
51
302.3758078
0
LINE
8
DEFAULT_255_2_778
10
18.6536417
20
34.2635829
11
18.6536417
21
5.1593829
0
LINE
8
DEFAULT_255_2_778
10
18.6536417
20
5.1593829
11
19.9765417
21
5.1593829
0
LINE
8
DEFAULT_255_1_234
10
4.2446489
20
85.1848211
11
4.2446489
21
84.1414983
0
LINE
8
DEFAULT_255_1_234
10
4.2446489
20
84.1414983
11
4.7988389
21
84.1414983
0
LINE
8
DEFAULT_255_1_234
10
4.7988389
20
84.1414983
11
4.7988389
21
84.0154
0
LINE
8
DEFAULT_255_1_234
10
4.7988389
20
84.0154
11
4.0896364
21
84.0154
0
LINE
8
DEFAULT_255_1_234
10
4.0896364
20
84.0154
11
4.0896364
21
85.1848211
0
LINE
8
DEFAULT_255_1_234
10
4.0896364
20
85.1848211
11
4.2446489
21
85.1848211
0
LINE
8
DEFAULT_255_1_234
10
5.377124
20
84.9840276
11
5.377124
21
84.6426788
0
LINE
8
DEFAULT_255_1_234
10
5.377124
20
84.6426788
11
5.7032126
21
84.6426788
0
LINE
8
DEFAULT_255_1_234
10
5.7032126
20
84.6426788
11
5.7032126
21
84.5021233
0
LINE
8
DEFAULT_255_1_234
10
5.7032126
20
84.5021233
11
5.377124
21
84.5021233
0
LINE
8
DEFAULT_255_1_234
10
5.377124
20
84.5021233
11
5.377124
21
84.1326634
0
LINE
8
DEFAULT_255_1_234
10
5.377124
20
84.1326634
11
5.2277337
21
84.1326634
0
LINE
8
DEFAULT_255_1_234
10
5.2277337
20
84.1326634
11
5.2277337
21
84.5021233
0
LINE
8
DEFAULT_255_1_234
10
5.2277337
20
84.5021233
11
4.9016451
21
84.5021233
0
LINE
8
DEFAULT_255_1_234
10
4.9016451
20
84.5021233
11
4.9016451
21
84.6426788
0
LINE
8
DEFAULT_255_1_234
10
4.9016451
20
84.6426788
11
5.2277337
21
84.6426788
0
LINE
8
DEFAULT_255_1_234
10
5.2277337
20
84.6426788
11
5.2277337
21
84.9840276
0
LINE
8
DEFAULT_255_1_234
10
5.2277337
20
84.9840276
11
5.377124
21
84.9840276
0
LINE
8
DEFAULT_255_1_234
10
4.2854902
20
13.7473211
11
4.2854902
21
12.5779
0
LINE
8
DEFAULT_255_1_234
10
4.2854902
20
12.5779
11
4.1312808
21
12.5779
0
LINE
8
DEFAULT_255_1_234
10
4.1312808
20
12.5779
11
4.1312808
21
13.7473211
0
LINE
8
DEFAULT_255_1_234
10
4.1312808
20
13.7473211
11
4.2854902
21
13.7473211
0
LINE
8
DEFAULT_255_1_234
10
5.2838353
20
13.7473211
11
5.2838353
21
13.663791
0
LINE
8
DEFAULT_255_1_234
10
5.2838353
20
13.663791
11
4.7995214
21
12.5779
0
LINE
8
DEFAULT_255_1_234
10
4.7995214
20
12.5779
11
4.6437057
21
12.5779
0
LINE
8
DEFAULT_255_1_234
10
4.6437057
20
12.5779
11
5.1264132
21
13.6252387
0
LINE
8
DEFAULT_255_1_234
10
5.1264132
20
13.6252387
11
4.4935122
21
13.6252387
0
LINE
8
DEFAULT_255_1_234
10
4.4935122
20
13.6252387
11
4.4935122
21
13.7473211
0
LINE
8
DEFAULT_255_1_234
10
4.4935122
20
13.7473211
11
5.2838353
21
13.7473211
0
LINE
8
DEFAULT_255_1_234
10
5.8934442
20
13.5465276
11
5.8934442
21
13.2051788
0
LINE
8
DEFAULT_255_1_234
10
5.8934442
20
13.2051788
11
6.2195328
21
13.2051788
0
LINE
8
DEFAULT_255_1_234
10
6.2195328
20
13.2051788
11
6.2195328
21
13.0646233
0
LINE
8
DEFAULT_255_1_234
10
6.2195328
20
13.0646233
11
5.8934442
21
13.0646233
0
LINE
8
DEFAULT_255_1_234
10
5.8934442
20
13.0646233
11
5.8934442
21
12.6951634
0
LINE
8
DEFAULT_255_1_234
10
5.8934442
20
12.6951634
11
5.7440539
21
12.6951634
0
LINE
8
DEFAULT_255_1_234
10
5.7440539
20
12.6951634
11
5.7440539
21
13.0646233
0
LINE
8
DEFAULT_255_1_234
10
5.7440539
20
13.0646233
11
5.4179653
21
13.0646233
0
LINE
8
DEFAULT_255_1_234
10
5.4179653
20
13.0646233
11
5.4179653
21
13.2051788
0
LINE
8
DEFAULT_255_1_234
10
5.4179653
20
13.2051788
11
5.7440539
21
13.2051788
0
LINE
8
DEFAULT_255_1_234
10
5.7440539
20
13.2051788
11
5.7440539
21
13.5465276
0
LINE
8
DEFAULT_255_1_234
10
5.7440539
20
13.5465276
11
5.8934442
21
13.5465276
0
LINE
8
DEFAULT_255_1_234
10
4.2854902
20
21.6848211
11
4.2854902
21
20.5154
0
LINE
8
DEFAULT_255_1_234
10
4.2854902
20
20.5154
11
4.1312808
21
20.5154
0
LINE
8
DEFAULT_255_1_234
10
4.1312808
20
20.5154
11
4.1312808
21
21.6848211
0
LINE
8
DEFAULT_255_1_234
10
4.1312808
20
21.6848211
11
4.2854902
21
21.6848211
0
LINE
8
DEFAULT_255_1_234
10
5.0854513
20
21.6856243
11
5.1119561
21
21.6856243
0
LINE
8
DEFAULT_255_1_234
10
5.1119561
20
21.6856243
11
5.1119561
21
21.559526
0
LINE
8
DEFAULT_255_1_234
10
5.1119561
20
21.559526
11
5.0846481
21
21.559526
0
LINE
8
DEFAULT_255_1_234
10
4.5376868
20
20.9603583
11
4.5376868
21
21.0173836
0
LINE
8
DEFAULT_255_1_234
10
4.6870771
20
20.9981075
11
4.6870771
21
20.9434917
0
ARC
8
DEFAULT_255_1_234
10
5.0898829
20
21.0597455
40
0.4998079
50
90.6001036
51
104.514704
0
ARC
8
DEFAULT_255_1_234
10
5.0510345
20
21.2042131
40
0.3502176
50
104.2855254
51
133.862935
0
ARC
8
DEFAULT_255_1_234
10
5.0674102
20
21.193383
40
0.3693984
50
134.5302688
51
161.6210873
0
ARC
8
DEFAULT_255_1_234
10
5.2327291
20
21.1350895
40
0.5446739
50
161.2849839
51
174.2076652
0
ARC
8
DEFAULT_255_1_234
10
5.3734228
20
21.1156787
40
0.6866274
50
173.7810589
51
174.9254635
0
ARC
8
DEFAULT_255_1_234
10
4.918406
20
20.9773839
40
0.3033419
50
95.8330959
51
138.9954921
0
ARC
8
DEFAULT_255_1_234
10
4.9407416
20
20.8495375
40
0.4328947
50
89.8753725
51
97.0544009
0
ARC
8
DEFAULT_255_1_234
10
4.9454882
20
20.9330748
40
0.3493769
50
71.6407809
51
90.6240094
0
ARC
8
DEFAULT_255_1_234
10
4.9605456
20
20.9885082
40
0.2920396
50
39.6367836
51
71.019018
0
ARC
8
DEFAULT_255_1_234
10
4.8968928
20
20.9334998
40
0.3761538
50
10.658731
51
39.9043955
0
ARC
8
DEFAULT_255_1_234
10
4.7421011
20
20.8998686
40
0.5345136
50
359.682601
51
11.132623
0
ARC
8
DEFAULT_255_1_234
10
4.7381142
20
20.892801
40
0.5385081
50
347.2486944
51
0.4369317
0
ARC
8
DEFAULT_255_1_234
10
4.9048619
20
20.8526807
40
0.3670249
50
318.1409698
51
347.6118597
0
ARC
8
DEFAULT_255_1_234
10
4.9373612
20
20.8259702
40
0.3250007
50
275.6342139
51
317.8248465
0
ARC
8
DEFAULT_255_1_234
10
4.9152724
20
20.9559219
40
0.4565864
50
269.8874292
51
276.7917694
0
ARC
8
DEFAULT_255_1_234
10
4.9097794
20
20.8533743
40
0.3540676
50
246.9140195
51
270.7437342
0
ARC
8
DEFAULT_255_1_234
10
4.9104184
20
20.8391384
40
0.3412781
50
218.1665114
51
245.878116
0
ARC
8
DEFAULT_255_1_234
10
4.9983645
20
20.9127279
40
0.455911
50
191.4115814
51
218.6077802
0
ARC
8
DEFAULT_255_1_234
10
5.1921735
20
20.9561833
40
0.6545001
50
179.6345085
51
191.7836486
0
ARC
8
DEFAULT_255_1_234
10
5.7504071
20
21.0240697
40
1.2127388
50
171.4525249
51
180.3158839
0
ARC
8
DEFAULT_255_1_234
10
5.3108947
20
21.0924608
40
0.7679464
50
157.9802646
51
171.6246686
0
ARC
8
DEFAULT_255_1_234
10
5.0894968
20
21.1807421
40
0.5296008
50
141.4298019
51
157.854097
0
ARC
8
DEFAULT_255_1_234
10
5.0253289
20
21.2261381
40
0.4511509
50
102.8715806
51
140.8564722
0
ARC
8
DEFAULT_255_1_234
10
5.0900904
20
20.9821552
40
0.7034845
50
90.3778349
51
103.5869322
0
ARC
8
DEFAULT_255_1_234
10
4.916268
20
20.921673
40
0.2370698
50
89.8751008
51
126.2071704
0
ARC
8
DEFAULT_255_1_234
10
4.920847
20
20.9062303
40
0.2522934
50
124.9745049
51
144.895901
0
ARC
8
DEFAULT_255_1_234
10
4.9032661
20
20.920556
40
0.2296779
50
145.2974905
51
160.2660252
0
ARC
8
DEFAULT_255_1_234
10
5.2105199
20
20.9403071
40
0.5234525
50
179.6514266
51
190.2855912
0
ARC
8
DEFAULT_255_1_234
10
5.0411337
20
20.9083786
40
0.3510893
50
190.0945431
51
207.5098196
0
ARC
8
DEFAULT_255_1_234
10
4.9845606
20
20.8814623
40
0.288489
50
207.9583163
51
216.3251085
0
ARC
8
DEFAULT_255_1_234
10
4.9505714
20
20.8535105
40
0.2445587
50
215.7661442
51
232.5456785
0
ARC
8
DEFAULT_255_1_234
10
4.9122697
20
20.8048482
40
0.1826382
50
232.8005391
51
270.6605633
0
ARC
8
DEFAULT_255_1_234
10
4.9168398
20
20.8412612
40
0.2190529
50
269.35537
51
288.4744281
0
ARC
8
DEFAULT_255_1_234
10
4.9261295
20
20.8063118
40
0.1829749
50
289.1833337
51
322.9683818
0
ARC
8
DEFAULT_255_1_234
10
4.8649818
20
20.8545391
40
0.2608399
50
322.6007884
51
346.5182367
0
ARC
8
DEFAULT_255_1_234
10
4.7492413
20
20.8840616
40
0.3802777
50
346.2582162
51
358.7741648
0
ARC
8
DEFAULT_255_1_234
10
4.6474082
20
20.8895965
40
0.4822176
50
358.3755224
51
0.0098023
0
ARC
8
DEFAULT_255_1_234
10
4.7230269
20
20.8923657
40
0.4066078
50
359.6214041
51
11.2839074
0
ARC
8
DEFAULT_255_1_234
10
4.8507416
20
20.9190066
40
0.2761514
50
11.0482309
51
31.8146458
0
ARC
8
DEFAULT_255_1_234
10
4.8816459
20
20.9357584
40
0.2410679
50
32.3035391
51
38.082671
0
ARC
8
DEFAULT_255_1_234
10
4.9237119
20
20.9738662
40
0.1844966
50
36.825067
51
85.7415724
0
ARC
8
DEFAULT_255_1_234
10
4.9169953
20
20.9238301
40
0.2349122
50
85.0140713
51
90.0513278
0
LINE
8
DEFAULT_255_1_234
10
5.8934442
20
21.4840276
11
5.8934442
21
21.1426788
0
LINE
8
DEFAULT_255_1_234
10
5.8934442
20
21.1426788
11
6.2195328
21
21.1426788
0
LINE
8
DEFAULT_255_1_234
10
6.2195328
20
21.1426788
11
6.2195328
21
21.0021233
0
LINE
8
DEFAULT_255_1_234
10
6.2195328
20
21.0021233
11
5.8934442
21
21.0021233
0
LINE
8
DEFAULT_255_1_234
10
5.8934442
20
21.0021233
11
5.8934442
21
20.6326634
0
LINE
8
DEFAULT_255_1_234
10
5.8934442
20
20.6326634
11
5.7440539
21
20.6326634
0
LINE
8
DEFAULT_255_1_234
10
5.7440539
20
20.6326634
11
5.7440539
21
21.0021233
0
LINE
8
DEFAULT_255_1_234
10
5.7440539
20
21.0021233
11
5.4179653
21
21.0021233
0
LINE
8
DEFAULT_255_1_234
10
5.4179653
20
21.0021233
11
5.4179653
21
21.1426788
0
LINE
8
DEFAULT_255_1_234
10
5.4179653
20
21.1426788
11
5.7440539
21
21.1426788
0
LINE
8
DEFAULT_255_1_234
10
5.7440539
20
21.1426788
11
5.7440539
21
21.4840276
0
LINE
8
DEFAULT_255_1_234
10
5.7440539
20
21.4840276
11
5.8934442
21
21.4840276
0
LINE
8
DEFAULT_255_1_234
10
4.2854902
20
29.6223211
11
4.2854902
21
28.4529
0
LINE
8
DEFAULT_255_1_234
10
4.2854902
20
28.4529
11
4.1312808
21
28.4529
0
LINE
8
DEFAULT_255_1_234
10
4.1312808
20
28.4529
11
4.1312808
21
29.6223211
0
LINE
8
DEFAULT_255_1_234
10
4.1312808
20
29.6223211
11
4.2854902
21
29.6223211
0
LINE
8
DEFAULT_255_1_234
10
4.7159914
20
29.0086963
11
4.5971216
21
29.0392169
0
LINE
8
DEFAULT_255_1_234
10
4.5971216
20
29.0392169
11
4.6565565
21
29.6223211
0
LINE
8
DEFAULT_255_1_234
10
4.6565565
20
29.6223211
11
5.2557242
21
29.6223211
0
LINE
8
DEFAULT_255_1_234
10
5.2557242
20
29.6223211
11
5.2557242
21
29.4849784
0
LINE
8
DEFAULT_255_1_234
10
5.2557242
20
29.4849784
11
4.7826548
21
29.4849784
0
LINE
8
DEFAULT_255_1_234
10
4.7826548
20
29.4849784
11
4.7473151
21
29.1661184
0
LINE
8
DEFAULT_255_1_234
10
4.5553566
20
28.7605156
11
4.695912
21
28.7605156
0
LINE
8
DEFAULT_255_1_234
10
4.7553469
20
29.0408232
11
4.7159914
21
29.0086963
0
ARC
8
DEFAULT_255_1_234
10
4.9327935
20
28.848123
40
0.3681349
50
93.7182161
51
120.2538958
0
ARC
8
DEFAULT_255_1_234
10
4.9422198
20
28.7673394
40
0.449379
50
89.9660152
51
94.2496022
0
ARC
8
DEFAULT_255_1_234
10
4.9462932
20
28.8262549
40
0.390482
50
73.8043271
51
90.5585896
0
ARC
8
DEFAULT_255_1_234
10
4.9697829
20
28.9120602
40
0.3015334
50
41.3071453
51
73.5430202
0
ARC
8
DEFAULT_255_1_234
10
4.9281657
20
28.8762324
40
0.3564457
50
13.5075983
51
41.2174222
0
ARC
8
DEFAULT_255_1_234
10
4.763986
20
28.8332486
40
0.5261351
50
1.1331335
51
13.8829381
0
ARC
8
DEFAULT_255_1_234
10
4.6228229
20
28.8256665
40
0.6674378
50
359.9919444
51
1.544251
0
ARC
8
DEFAULT_255_1_234
10
4.7505056
20
28.821528
40
0.5397702
50
347.8572367
51
0.4293338
0
ARC
8
DEFAULT_255_1_234
10
4.9255373
20
28.7818736
40
0.3603188
50
323.673004
51
348.1672506
0
ARC
8
DEFAULT_255_1_234
10
4.9549881
20
28.7639168
40
0.3259678
50
316.8171152
51
323.1492751
0
ARC
8
DEFAULT_255_1_234
10
4.961107
20
28.760246
40
0.3189975
50
281.8396411
51
316.5457803
0
ARC
8
DEFAULT_255_1_234
10
4.9235334
20
28.9157762
40
0.4789527
50
269.5770101
51
282.4214771
0
ARC
8
DEFAULT_255_1_234
10
4.9164146
20
28.8944125
40
0.45759
50
256.2427136
51
270.4486331
0
ARC
8
DEFAULT_255_1_234
10
4.8865048
20
28.7744229
40
0.3339303
50
228.9023911
51
256.3314342
0
ARC
8
DEFAULT_255_1_234
10
4.8791281
20
28.7627746
40
0.32031
50
193.753695
51
228.5271154
0
ARC
8
DEFAULT_255_1_234
10
5.0029234
20
28.79908
40
0.4492253
50
184.924711
51
194.497588
0
ARC
8
DEFAULT_255_1_234
10
5.0221801
20
28.8026591
40
0.3289787
50
187.3600538
51
198.6732863
0
ARC
8
DEFAULT_255_1_234
10
4.9172095
20
28.7662674
40
0.217884
50
198.4451669
51
217.794479
0
ARC
8
DEFAULT_255_1_234
10
4.887627
20
28.7453085
40
0.1816698
50
218.2887171
51
228.5612368
0
ARC
8
DEFAULT_255_1_234
10
4.8974057
20
28.7584963
40
0.1980329
50
228.9654866
51
258.1234728
0
ARC
8
DEFAULT_255_1_234
10
4.9179767
20
28.8465833
40
0.2884748
50
257.7258293
51
270.401361
0
ARC
8
DEFAULT_255_1_234
10
4.9224654
20
28.8020821
40
0.2439788
50
269.4204404
51
286.4209037
0
ARC
8
DEFAULT_255_1_234
10
4.9373141
20
28.7481657
40
0.1880666
50
286.7251356
51
320.600362
0
ARC
8
DEFAULT_255_1_234
10
4.8989966
20
28.7792595
40
0.2374121
50
320.6712579
51
344.5441685
0
ARC
8
DEFAULT_255_1_234
10
4.7833292
20
28.8132045
40
0.3579479
50
344.2412205
51
356.7357071
0
ARC
8
DEFAULT_255_1_234
10
4.6584441
20
28.8235444
40
0.4832297
50
356.3548756
51
0.0500261
0
ARC
8
DEFAULT_255_1_234
10
4.792095
20
28.826665
40
0.3495889
50
359.5576869
51
12.953486
0
ARC
8
DEFAULT_255_1_234
10
4.8975847
20
28.8522434
40
0.2410532
50
12.6490276
51
41.6081334
0
ARC
8
DEFAULT_255_1_234
10
4.9206218
20
28.8718321
40
0.2108218
50
41.7850273
51
85.9892764
0
ARC
8
DEFAULT_255_1_234
10
4.9082955
20
28.7905462
40
0.2928454
50
84.6957577
51
90.0676183
0
ARC
8
DEFAULT_255_1_234
10
4.9059439
20
28.7236716
40
0.3597255
50
89.6804936
51
99.1614436
0
ARC
8
DEFAULT_255_1_234
10
4.885407
20
28.8464131
40
0.235281
50
98.9830931
51
113.8908934
0
ARC
8
DEFAULT_255_1_234
10
4.8624481
20
28.9005587
40
0.176479
50
114.1950727
51
127.3641004
0
LINE
8
DEFAULT_255_1_234
10
5.8934442
20
29.4215276
11
5.8934442
21
29.0801788
0
LINE
8
DEFAULT_255_1_234
10
5.8934442
20
29.0801788
11
6.2195328
21
29.0801788
0
LINE
8
DEFAULT_255_1_234
10
6.2195328
20
29.0801788
11
6.2195328
21
28.9396233
0
LINE
8
DEFAULT_255_1_234
10
6.2195328
20
28.9396233
11
5.8934442
21
28.9396233
0
LINE
8
DEFAULT_255_1_234
10
5.8934442
20
28.9396233
11
5.8934442
21
28.5701634
0
LINE
8
DEFAULT_255_1_234
10
5.8934442
20
28.5701634
11
5.7440539
21
28.5701634
0
LINE
8
DEFAULT_255_1_234
10
5.7440539
20
28.5701634
11
5.7440539
21
28.9396233
0
LINE
8
DEFAULT_255_1_234
10
5.7440539
20
28.9396233
11
5.4179653
21
28.9396233
0
LINE
8
DEFAULT_255_1_234
10
5.4179653
20
28.9396233
11
5.4179653
21
29.0801788
0
LINE
8
DEFAULT_255_1_234
10
5.4179653
20
29.0801788
11
5.7440539
21
29.0801788
0
LINE
8
DEFAULT_255_1_234
10
5.7440539
20
29.0801788
11
5.7440539
21
29.4215276
0
LINE
8
DEFAULT_255_1_234
10
5.7440539
20
29.4215276
11
5.8934442
21
29.4215276
0
LINE
8
DEFAULT_255_1_234
10
4.2854902
20
37.5598211
11
4.2854902
21
36.3904
0
LINE
8
DEFAULT_255_1_234
10
4.2854902
20
36.3904
11
4.1312808
21
36.3904
0
LINE
8
DEFAULT_255_1_234
10
4.1312808
20
36.3904
11
4.1312808
21
37.5598211
0
LINE
8
DEFAULT_255_1_234
10
4.1312808
20
37.5598211
11
4.2854902
21
37.5598211
0
LINE
8
DEFAULT_255_1_234
10
5.1561306
20
37.5598211
11
5.1561306
21
36.783152
0
LINE
8
DEFAULT_255_1_234
10
5.1561306
20
36.783152
11
5.3183717
21
36.783152
0
LINE
8
DEFAULT_255_1_234
10
5.3183717
20
36.783152
11
5.3183717
21
36.6618728
0
LINE
8
DEFAULT_255_1_234
10
5.3183717
20
36.6618728
11
5.1561306
21
36.6618728
0
LINE
8
DEFAULT_255_1_234
10
5.1561306
20
36.6618728
11
5.1561306
21
36.3904
0
LINE
8
DEFAULT_255_1_234
10
5.1561306
20
36.3904
11
5.0067403
21
36.3904
0
LINE
8
DEFAULT_255_1_234
10
5.0067403
20
36.3904
11
5.0067403
21
36.6618728
0
LINE
8
DEFAULT_255_1_234
10
5.0067403
20
36.6618728
11
4.474236
21
36.6618728
0
LINE
8
DEFAULT_255_1_234
10
4.474236
20
36.6618728
11
4.474236
21
36.7494187
0
LINE
8
DEFAULT_255_1_234
10
4.474236
20
36.7494187
11
4.9979054
21
37.5598211
0
LINE
8
DEFAULT_255_1_234
10
4.9979054
20
37.5598211
11
5.1561306
21
37.5598211
0
LINE
8
DEFAULT_255_1_234
10
4.9890705
20
37.3244912
11
4.6429025
21
36.783152
0
LINE
8
DEFAULT_255_1_234
10
4.6429025
20
36.783152
11
5.0067403
21
36.783152
0
LINE
8
DEFAULT_255_1_234
10
5.0067403
20
36.783152
11
5.0067403
21
37.3566181
0
LINE
8
DEFAULT_255_1_234
10
5.0067403
20
37.3566181
11
4.9890705
21
37.3244912
0
LINE
8
DEFAULT_255_1_234
10
5.8934442
20
37.3590276
11
5.8934442
21
37.0176788
0
LINE
8
DEFAULT_255_1_234
10
5.8934442
20
37.0176788
11
6.2195328
21
37.0176788
0
LINE
8
DEFAULT_255_1_234
10
6.2195328
20
37.0176788
11
6.2195328
21
36.8771233
0
LINE
8
DEFAULT_255_1_234
10
6.2195328
20
36.8771233
11
5.8934442
21
36.8771233
0
LINE
8
DEFAULT_255_1_234
10
5.8934442
20
36.8771233
11
5.8934442
21
36.5076634
0
LINE
8
DEFAULT_255_1_234
10
5.8934442
20
36.5076634
11
5.7440539
21
36.5076634
0
LINE
8
DEFAULT_255_1_234
10
5.7440539
20
36.5076634
11
5.7440539
21
36.8771233
0
LINE
8
DEFAULT_255_1_234
10
5.7440539
20
36.8771233
11
5.4179653
21
36.8771233
0
LINE
8
DEFAULT_255_1_234
10
5.4179653
20
36.8771233
11
5.4179653
21
37.0176788
0
LINE
8
DEFAULT_255_1_234
10
5.4179653
20
37.0176788
11
5.7440539
21
37.0176788
0
LINE
8
DEFAULT_255_1_234
10
5.7440539
20
37.0176788
11
5.7440539
21
37.3590276
0
LINE
8
DEFAULT_255_1_234
10
5.7440539
20
37.3590276
11
5.8934442
21
37.3590276
0
LINE
8
DEFAULT_255_1_234
10
4.2854902
20
45.4973211
11
4.2854902
21
44.3279
0
LINE
8
DEFAULT_255_1_234
10
4.2854902
20
44.3279
11
4.1312808
21
44.3279
0
LINE
8
DEFAULT_255_1_234
10
4.1312808
20
44.3279
11
4.1312808
21
45.4973211
0
LINE
8
DEFAULT_255_1_234
10
4.1312808
20
45.4973211
11
4.2854902
21
45.4973211
0
LINE
8
DEFAULT_255_1_234
10
4.7449056
20
44.8636169
11
4.7449056
21
44.9848962
0
LINE
8
DEFAULT_255_1_234
10
4.7449056
20
44.9848962
11
4.8565468
21
44.9848962
0
LINE
8
DEFAULT_255_1_234
10
4.6661946
20
45.1905087
11
4.5176074
21
45.1905087
0
LINE
8
DEFAULT_255_1_234
10
4.5071662
20
44.6363188
11
4.6565565
21
44.6363188
0
LINE
8
DEFAULT_255_1_234
10
4.8565468
20
44.8636169
11
4.7449056
21
44.8636169
0
ARC
8
DEFAULT_255_1_234
10
4.8536334
20
45.3241713
40
0.3392876
50
270.4919872
51
281.8951556
0
ARC
8
DEFAULT_255_1_234
10
4.8777596
20
45.2139702
40
0.2264817
50
281.6691735
51
301.2943132
0
ARC
8
DEFAULT_255_1_234
10
4.8947806
20
45.1828304
40
0.1910381
50
301.7833094
51
311.7545298
0
ARC
8
DEFAULT_255_1_234
10
4.9039382
20
45.1726748
40
0.1773635
50
311.7323931
51
354.2802411
0
ARC
8
DEFAULT_255_1_234
10
4.8313007
20
45.1851722
40
0.2509385
50
353.0937916
51
0.1181479
0
ARC
8
DEFAULT_255_1_234
10
4.7851792
20
45.1899386
40
0.2970898
50
359.1805295
51
15.0453146
0
ARC
8
DEFAULT_255_1_234
10
4.9197629
20
45.2291992
40
0.1569564
50
13.9577229
51
77.6713066
0
ARC
8
DEFAULT_255_1_234
10
4.8811158
20
45.0906949
40
0.3006298
50
76.1116566
51
90.7026153
0
ARC
8
DEFAULT_255_1_234
10
4.8751996
20
45.1180545
40
0.2732568
50
89.5324876
51
103.531937
0
ARC
8
DEFAULT_255_1_234
10
4.8551441
20
45.1979884
40
0.1908508
50
103.2931773
51
133.5619022
0
ARC
8
DEFAULT_255_1_234
10
4.8506929
20
45.2039375
40
0.1834746
50
133.8349307
51
173.5344437
0
ARC
8
DEFAULT_255_1_234
10
4.9229972
20
45.1911213
40
0.2568033
50
172.5096846
51
180.1366907
0
ARC
8
DEFAULT_255_1_234
10
4.8278866
20
45.1945622
40
0.3103056
50
155.3484492
51
180.7484736
0
ARC
8
DEFAULT_255_1_234
10
4.8229955
20
45.1916846
40
0.3070957
50
131.5744599
51
154.4798489
0
ARC
8
DEFAULT_255_1_234
10
4.8543102
20
45.160031
40
0.3515643
50
96.9875458
51
131.9690667
0
ARC
8
DEFAULT_255_1_234
10
4.8762582
20
45.0354636
40
0.4779224
50
89.8596053
51
97.7825159
0
ARC
8
DEFAULT_255_1_234
10
4.8810645
20
45.0092616
40
0.5041361
50
78.3655447
51
90.4131539
0
ARC
8
DEFAULT_255_1_234
10
4.9168563
20
45.1751887
40
0.3344039
50
56.6229102
51
78.638727
0
ARC
8
DEFAULT_255_1_234
10
4.9383507
20
45.2127805
40
0.2912001
50
47.0253525
51
56.0854072
0
ARC
8
DEFAULT_255_1_234
10
4.9403287
20
45.2167223
40
0.2869704
50
10.9208013
51
46.7778124
0
ARC
8
DEFAULT_255_1_234
10
4.8039354
20
45.1851857
40
0.426899
50
359.6364486
51
11.6087304
0
ARC
8
DEFAULT_255_1_234
10
4.9874198
20
45.1836752
40
0.243409
50
332.3549906
51
359.7179418
0
ARC
8
DEFAULT_255_1_234
10
4.9223799
20
45.2145142
40
0.3153459
50
325.2333722
51
332.8745602
0
ARC
8
DEFAULT_255_1_234
10
4.9376423
20
45.2038828
40
0.2967456
50
292.9802137
51
325.2392345
0
ARC
8
DEFAULT_255_1_234
10
4.9101797
20
45.2572863
40
0.3566604
50
292.5402179
51
293.6924929
0
ARC
8
DEFAULT_255_1_234
10
4.9494393
20
44.6118091
40
0.3307468
50
57.6435486
51
72.8625112
0
ARC
8
DEFAULT_255_1_234
10
4.9848892
20
44.6692549
40
0.2632492
50
36.7248896
51
57.4697979
0
ARC
8
DEFAULT_255_1_234
10
4.9837525
20
44.670522
40
0.2634081
50
8.0545065
51
36.356114
0
ARC
8
DEFAULT_255_1_234
10
4.897471
20
44.6550174
40
0.3510261
50
359.8320645
51
8.5869982
0
ARC
8
DEFAULT_255_1_234
10
4.8599486
20
44.6502101
40
0.3885653
50
343.9829931
51
0.5571613
0
ARC
8
DEFAULT_255_1_234
10
4.9485684
20
44.6259438
40
0.2966924
50
311.6359546
51
343.7651759
0
ARC
8
DEFAULT_255_1_234
10
4.9107253
20
44.6686102
40
0.3537231
50
279.7829875
51
311.6255694
0
ARC
8
DEFAULT_255_1_234
10
4.8806029
20
44.812328
40
0.5004971
50
269.7286406
51
280.3856417
0
ARC
8
DEFAULT_255_1_234
10
4.8744102
20
44.8081996
40
0.4963778
50
256.6828919
51
270.4412052
0
ARC
8
DEFAULT_255_1_234
10
4.8405397
20
44.6697394
40
0.3538406
50
229.4223008
51
256.8556159
0
ARC
8
DEFAULT_255_1_234
10
4.799079
20
44.6230736
40
0.2914296
50
181.818294
51
229.6455059
0
ARC
8
DEFAULT_255_1_234
10
4.9030746
20
44.6361496
40
0.3959084
50
179.9755256
51
183.2323064
0
ARC
8
DEFAULT_255_1_234
10
4.8858492
20
44.6341037
40
0.2293034
50
179.4465117
51
196.2869258
0
ARC
8
DEFAULT_255_1_234
10
4.83709
20
44.6207651
40
0.1787621
50
196.5661473
51
227.705904
0
ARC
8
DEFAULT_255_1_234
10
4.8534995
20
44.6391155
40
0.2033784
50
227.7652068
51
257.8762805
0
ARC
8
DEFAULT_255_1_234
10
4.8759965
20
44.7334156
40
0.3003081
50
257.4584385
51
270.426602
0
ARC
8
DEFAULT_255_1_234
10
4.8805531
20
44.7623996
40
0.329292
50
269.5962073
51
280.8789248
0
ARC
8
DEFAULT_255_1_234
10
4.903506
20
44.6477685
40
0.2123908
50
280.6346389
51
299.8595945
0
ARC
8
DEFAULT_255_1_234
10
4.9225967
20
44.6115212
40
0.171457
50
300.3576302
51
314.5517981
0
ARC
8
DEFAULT_255_1_234
10
4.9143027
20
44.6175919
40
0.1816095
50
315.0728369
51
345.0431014
0
ARC
8
DEFAULT_255_1_234
10
4.8219841
20
44.6444841
40
0.2777492
50
344.5986631
51
357.9269593
0
ARC
8
DEFAULT_255_1_234
10
4.7324168
20
44.6506276
40
0.3674917
50
357.4748886
51
0.0231117
0
ARC
8
DEFAULT_255_1_234
10
4.8347277
20
44.6530679
40
0.2651907
50
359.5047933
51
13.4239635
0
ARC
8
DEFAULT_255_1_234
10
4.9213921
20
44.6752478
40
0.1757509
50
12.9498199
51
48.7551375
0
ARC
8
DEFAULT_255_1_234
10
4.9031655
20
44.65034
40
0.2065134
50
49.5088623
51
72.1836453
0
ARC
8
DEFAULT_255_1_234
10
4.8673807
20
44.5441291
40
0.3185836
50
71.9010081
51
84.3554254
0
ARC
8
DEFAULT_255_1_234
10
4.8512439
20
44.4080326
40
0.4556151
50
84.0193428
51
89.333121
0
LINE
8
DEFAULT_255_1_234
10
5.8934442
20
45.2965276
11
5.8934442
21
44.9551788
0
LINE
8
DEFAULT_255_1_234
10
5.8934442
20
44.9551788
11
6.2195328
21
44.9551788
0
LINE
8
DEFAULT_255_1_234
10
6.2195328
20
44.9551788
11
6.2195328
21
44.8146233
0
LINE
8
DEFAULT_255_1_234
10
6.2195328
20
44.8146233
11
5.8934442
21
44.8146233
0
LINE
8
DEFAULT_255_1_234
10
5.8934442
20
44.8146233
11
5.8934442
21
44.4451634
0
LINE
8
DEFAULT_255_1_234
10
5.8934442
20
44.4451634
11
5.7440539
21
44.4451634
0
LINE
8
DEFAULT_255_1_234
10
5.7440539
20
44.4451634
11
5.7440539
21
44.8146233
0
LINE
8
DEFAULT_255_1_234
10
5.7440539
20
44.8146233
11
5.4179653
21
44.8146233
0
LINE
8
DEFAULT_255_1_234
10
5.4179653
20
44.8146233
11
5.4179653
21
44.9551788
0
LINE
8
DEFAULT_255_1_234
10
5.4179653
20
44.9551788
11
5.7440539
21
44.9551788
0
LINE
8
DEFAULT_255_1_234
10
5.7440539
20
44.9551788
11
5.7440539
21
45.2965276
0
LINE
8
DEFAULT_255_1_234
10
5.7440539
20
45.2965276
11
5.8934442
21
45.2965276
0
LINE
8
DEFAULT_255_1_234
10
4.2854902
20
53.4348211
11
4.2854902
21
52.2654
0
LINE
8
DEFAULT_255_1_234
10
4.2854902
20
52.2654
11
4.1312808
21
52.2654
0
LINE
8
DEFAULT_255_1_234
10
4.1312808
20
52.2654
11
4.1312808
21
53.4348211
0
LINE
8
DEFAULT_255_1_234
10
4.1312808
20
53.4348211
11
4.2854902
21
53.4348211
0
LINE
8
DEFAULT_255_1_234
10
5.2950797
20
52.3866792
11
5.2950797
21
52.2654
0
LINE
8
DEFAULT_255_1_234
10
5.2950797
20
52.2654
11
4.5288519
21
52.2654
0
LINE
8
DEFAULT_255_1_234
10
4.5288519
20
52.2654
11
4.5288519
21
52.3722221
0
LINE
8
DEFAULT_255_1_234
10
4.5288519
20
52.3722221
11
4.9336515
21
52.8219995
0
LINE
8
DEFAULT_255_1_234
10
4.6549501
20
53.0902595
11
4.506363
21
53.0902595
0
LINE
8
DEFAULT_255_1_234
10
5.0211974
20
52.7264218
11
4.7079596
21
52.3866792
0
LINE
8
DEFAULT_255_1_234
10
4.7079596
20
52.3866792
11
5.2950797
21
52.3866792
0
ARC
8
DEFAULT_255_1_234
10
3.5846348
20
54.0149527
40
1.8008286
50
318.5132453
51
320.7828378
0
ARC
8
DEFAULT_255_1_234
10
4.1133322
20
53.5846426
40
1.1191493
50
320.7372736
51
323.9737074
0
ARC
8
DEFAULT_255_1_234
10
4.5053179
20
53.3006361
40
0.6350923
50
323.8961724
51
328.6421089
0
ARC
8
DEFAULT_255_1_234
10
4.7099774
20
53.1744031
40
0.3946393
50
328.8299013
51
331.789948
0
ARC
8
DEFAULT_255_1_234
10
4.8096953
20
53.1229509
40
0.2824501
50
331.4255242
51
352.9364833
0
ARC
8
DEFAULT_255_1_234
10
4.8233453
20
53.1198976
40
0.2685315
50
353.2248685
51
0.0169286
0
ARC
8
DEFAULT_255_1_234
10
4.844333
20
53.122195
40
0.2475536
50
359.4866256
51
15.9339782
0
ARC
8
DEFAULT_255_1_234
10
4.8950316
20
53.1358286
40
0.1950618
50
16.1714718
51
43.5284424
0
ARC
8
DEFAULT_255_1_234
10
4.9027624
20
53.1435573
40
0.184134
50
43.4415429
51
83.1661404
0
ARC
8
DEFAULT_255_1_234
10
4.8893542
20
53.0698771
40
0.258926
50
82.160215
51
90.1505798
0
ARC
8
DEFAULT_255_1_234
10
4.886197
20
53.0161865
40
0.3126255
50
89.5460705
51
102.5418777
0
ARC
8
DEFAULT_255_1_234
10
4.8619056
20
53.1192665
40
0.2067346
50
102.1739365
51
129.2061916
0
ARC
8
DEFAULT_255_1_234
10
4.8540127
20
53.1317094
40
0.1921118
50
129.7279328
51
135.7542026
0
ARC
8
DEFAULT_255_1_234
10
4.8661655
20
53.1220045
40
0.2075944
50
136.175737
51
166.3674722
0
ARC
8
DEFAULT_255_1_234
10
4.9668574
20
53.0950182
40
0.3118201
50
165.9092917
51
178.8683903
0
ARC
8
DEFAULT_255_1_234
10
5.0533436
20
53.0903179
40
0.3983935
50
178.438168
51
180.0083905
0
ARC
8
DEFAULT_255_1_234
10
4.9132038
20
53.0942231
40
0.4068601
50
163.2878735
51
180.5581814
0
ARC
8
DEFAULT_255_1_234
10
4.8330299
20
53.116284
40
0.3237344
50
133.454115
51
162.9470031
0
ARC
8
DEFAULT_255_1_234
10
4.8508841
20
53.0973
40
0.349795
50
100.7869394
51
133.4384016
0
ARC
8
DEFAULT_255_1_234
10
4.8856612
20
52.9424319
40
0.5084616
50
89.6605301
51
101.3704185
0
ARC
8
DEFAULT_255_1_234
10
4.8922951
20
52.9485496
40
0.502348
50
78.2171172
51
90.4130393
0
ARC
8
DEFAULT_255_1_234
10
4.9278029
20
53.1109637
40
0.3361092
50
55.9268222
51
78.4888551
0
ARC
8
DEFAULT_255_1_234
10
4.9474469
20
53.1448324
40
0.2970617
50
47.9292255
51
55.4054003
0
ARC
8
DEFAULT_255_1_234
10
4.957603
20
53.1551502
40
0.2825983
50
4.3347696
51
48.0560701
0
ARC
8
DEFAULT_255_1_234
10
4.8480424
20
53.1381601
40
0.393225
50
359.925209
51
5.5967654
0
ARC
8
DEFAULT_255_1_234
10
4.8909315
20
53.1437816
40
0.3503892
50
337.8914096
51
358.9967724
0
ARC
8
DEFAULT_255_1_234
10
4.6195727
20
53.2484706
40
0.6412172
50
326.9135351
51
338.3505194
0
ARC
8
DEFAULT_255_1_234
10
4.2210031
20
53.5039284
40
1.1146189
50
319.6472867
51
327.095818
0
ARC
8
DEFAULT_255_1_234
10
3.8377034
20
53.8201
40
1.6114559
50
317.2586784
51
319.9046139
0
LINE
8
DEFAULT_255_1_234
10
5.8934442
20
53.2340276
11
5.8934442
21
52.8926788
0
LINE
8
DEFAULT_255_1_234
10
5.8934442
20
52.8926788
11
6.2195328
21
52.8926788
0
LINE
8
DEFAULT_255_1_234
10
6.2195328
20
52.8926788
11
6.2195328
21
52.7521233
0
LINE
8
DEFAULT_255_1_234
10
6.2195328
20
52.7521233
11
5.8934442
21
52.7521233
0
LINE
8
DEFAULT_255_1_234
10
5.8934442
20
52.7521233
11
5.8934442
21
52.3826634
0
LINE
8
DEFAULT_255_1_234
10
5.8934442
20
52.3826634
11
5.7440539
21
52.3826634
0
LINE
8
DEFAULT_255_1_234
10
5.7440539
20
52.3826634
11
5.7440539
21
52.7521233
0
LINE
8
DEFAULT_255_1_234
10
5.7440539
20
52.7521233
11
5.4179653
21
52.7521233
0
LINE
8
DEFAULT_255_1_234
10
5.4179653
20
52.7521233
11
5.4179653
21
52.8926788
0
LINE
8
DEFAULT_255_1_234
10
5.4179653
20
52.8926788
11
5.7440539
21
52.8926788
0
LINE
8
DEFAULT_255_1_234
10
5.7440539
20
52.8926788
11
5.7440539
21
53.2340276
0
LINE
8
DEFAULT_255_1_234
10
5.7440539
20
53.2340276
11
5.8934442
21
53.2340276
0
LINE
8
DEFAULT_255_1_234
10
4.2854902
20
61.3723211
11
4.2854902
21
60.2029
0
LINE
8
DEFAULT_255_1_234
10
4.2854902
20
60.2029
11
4.1312808
21
60.2029
0
LINE
8
DEFAULT_255_1_234
10
4.1312808
20
60.2029
11
4.1312808
21
61.3723211
0
LINE
8
DEFAULT_255_1_234
10
4.1312808
20
61.3723211
11
4.2854902
21
61.3723211
0
LINE
8
DEFAULT_255_1_234
10
5.0171815
20
61.3779433
11
5.0171815
21
60.2029
0
LINE
8
DEFAULT_255_1_234
10
5.0171815
20
60.2029
11
4.8677912
21
60.2029
0
LINE
8
DEFAULT_255_1_234
10
4.8677912
20
60.2029
11
4.8677912
21
61.1932133
0
LINE
8
DEFAULT_255_1_234
10
4.8677912
20
61.1932133
11
4.5682074
21
61.0831785
0
LINE
8
DEFAULT_255_1_234
10
4.5682074
20
61.0831785
11
4.5682074
21
61.2181117
0
LINE
8
DEFAULT_255_1_234
10
4.5682074
20
61.2181117
11
4.9938895
21
61.3779433
0
LINE
8
DEFAULT_255_1_234
10
4.9938895
20
61.3779433
11
5.0171815
21
61.3779433
0
LINE
8
DEFAULT_255_1_234
10
5.8934442
20
61.1715276
11
5.8934442
21
60.8301788
0
LINE
8
DEFAULT_255_1_234
10
5.8934442
20
60.8301788
11
6.2195328
21
60.8301788
0
LINE
8
DEFAULT_255_1_234
10
6.2195328
20
60.8301788
11
6.2195328
21
60.6896233
0
LINE
8
DEFAULT_255_1_234
10
6.2195328
20
60.6896233
11
5.8934442
21
60.6896233
0
LINE
8
DEFAULT_255_1_234
10
5.8934442
20
60.6896233
11
5.8934442
21
60.3201634
0
LINE
8
DEFAULT_255_1_234
10
5.8934442
20
60.3201634
11
5.7440539
21
60.3201634
0
LINE
8
DEFAULT_255_1_234
10
5.7440539
20
60.3201634
11
5.7440539
21
60.6896233
0
LINE
8
DEFAULT_255_1_234
10
5.7440539
20
60.6896233
11
5.4179653
21
60.6896233
0
LINE
8
DEFAULT_255_1_234
10
5.4179653
20
60.6896233
11
5.4179653
21
60.8301788
0
LINE
8
DEFAULT_255_1_234
10
5.4179653
20
60.8301788
11
5.7440539
21
60.8301788
0
LINE
8
DEFAULT_255_1_234
10
5.7440539
20
60.8301788
11
5.7440539
21
61.1715276
0
LINE
8
DEFAULT_255_1_234
10
5.7440539
20
61.1715276
11
5.8934442
21
61.1715276
0
LINE
8
DEFAULT_255_1_234
10
4.2854902
20
69.3098211
11
4.2854902
21
68.1404
0
LINE
8
DEFAULT_255_1_234
10
4.2854902
20
68.1404
11
4.1312808
21
68.1404
0
LINE
8
DEFAULT_255_1_234
10
4.1312808
20
68.1404
11
4.1312808
21
69.3098211
0
LINE
8
DEFAULT_255_1_234
10
4.1312808
20
69.3098211
11
4.2854902
21
69.3098211
0
LINE
8
DEFAULT_255_1_234
10
5.2621496
20
68.8319327
11
5.2621496
21
68.6391709
0
LINE
8
DEFAULT_255_1_234
10
4.5240328
20
68.6190916
11
4.5240328
21
68.8174755
0
LINE
8
DEFAULT_255_1_234
10
5.1135624
20
68.5990123
11
5.1135624
21
68.8423739
0
LINE
8
DEFAULT_255_1_234
10
4.67262
20
68.8536184
11
4.67262
21
68.6158789
0
ARC
8
DEFAULT_255_1_234
10
4.0374385
20
68.6342805
40
1.2247208
50
353.8441951
51
0.2287902
0
ARC
8
DEFAULT_255_1_234
10
4.5013889
20
68.5824806
40
0.7578929
50
344.4934747
51
353.9765454
0
ARC
8
DEFAULT_255_1_234
10
4.8006479
20
68.4973981
40
0.4467846
50
329.2803592
51
344.7472793
0
ARC
8
DEFAULT_255_1_234
10
4.8999304
20
68.4429018
40
0.3336173
50
324.9352394
51
328.6160465
0
ARC
8
DEFAULT_255_1_234
10
4.9376413
20
68.4165427
40
0.2876076
50
280.580143
51
324.9173126
0
ARC
8
DEFAULT_255_1_234
10
4.8975205
20
68.5836099
40
0.4592847
50
269.5977311
51
281.6734359
0
ARC
8
DEFAULT_255_1_234
10
4.8903111
20
68.5716173
40
0.4472986
50
256.6228859
51
270.51044
0
ARC
8
DEFAULT_255_1_234
10
4.8501089
20
68.4167877
40
0.2873874
50
215.8618325
51
257.2788573
0
ARC
8
DEFAULT_255_1_234
10
4.952212
20
68.4852977
40
0.4102928
50
197.9693508
51
215.2623606
0
ARC
8
DEFAULT_255_1_234
10
5.2007236
20
68.5691709
40
0.6725652
50
187.8816417
51
198.2346507
0
ARC
8
DEFAULT_255_1_234
10
5.5965444
20
68.6263079
40
1.0724845
50
180.8976217
51
188.0055519
0
ARC
8
DEFAULT_255_1_234
10
5.8765632
20
68.6366777
40
1.3526448
50
180.7449369
51
181.1510016
0
ARC
8
DEFAULT_255_1_234
10
5.7188361
20
68.8223042
40
1.1948131
50
173.7675579
51
180.231553
0
ARC
8
DEFAULT_255_1_234
10
5.2670508
20
68.8733666
40
0.7401564
50
164.3058563
51
173.9002247
0
ARC
8
DEFAULT_255_1_234
10
4.9758577
20
68.9572656
40
0.4371288
50
148.7922025
51
164.568378
0
ARC
8
DEFAULT_255_1_234
10
4.8807029
20
69.0103929
40
0.3282386
50
144.5883898
51
148.1176286
0
ARC
8
DEFAULT_255_1_234
10
4.8463927
20
69.0343315
40
0.2864044
50
101.6440918
51
144.514236
0
ARC
8
DEFAULT_255_1_234
10
4.8888994
20
68.8654069
40
0.4604934
50
89.5284041
51
102.5819763
0
ARC
8
DEFAULT_255_1_234
10
4.8968081
20
68.8615018
40
0.464401
50
77.0437873
51
90.5081339
0
ARC
8
DEFAULT_255_1_234
10
4.9370083
20
69.0257615
40
0.2953195
50
48.2778575
51
77.4994676
0
ARC
8
DEFAULT_255_1_234
10
4.9442714
20
69.0386746
40
0.2808655
50
36.3142134
51
47.6305865
0
ARC
8
DEFAULT_255_1_234
10
4.8574021
20
68.9801515
40
0.3855453
50
18.2931786
51
35.6769206
0
ARC
8
DEFAULT_255_1_234
10
4.603078
20
68.8928593
40
0.654423
50
8.024666
51
18.5605216
0
ARC
8
DEFAULT_255_1_234
10
4.18677
20
68.8313792
40
1.0752407
50
1.1274072
51
8.1718305
0
ARC
8
DEFAULT_255_1_234
10
3.8631891
20
68.8186885
40
1.3990231
50
0.5424119
51
1.3863029
0
ARC
8
DEFAULT_255_1_234
10
4.0453269
20
68.8459342
40
1.0682415
50
359.8090433
51
4.9407866
0
ARC
8
DEFAULT_255_1_234
10
4.4663283
20
68.8835113
40
0.6455691
50
4.8362157
51
12.2904523
0
ARC
8
DEFAULT_255_1_234
10
4.7418398
20
68.9448965
40
0.3633074
50
12.0805627
51
23.8173984
0
ARC
8
DEFAULT_255_1_234
10
4.8592103
20
68.9945919
40
0.2358723
50
24.2871213
51
31.3935614
0
ARC
8
DEFAULT_255_1_234
10
4.91168
20
69.0289233
40
0.1732111
50
30.7407893
51
82.4657128
0
ARC
8
DEFAULT_255_1_234
10
4.8936934
20
68.9405691
40
0.263235
50
81.1060089
51
90.2184952
0
ARC
8
DEFAULT_255_1_234
10
4.8901233
20
68.9663924
40
0.2374236
50
89.3806855
51
105.6762551
0
ARC
8
DEFAULT_255_1_234
10
4.8717864
20
69.0330567
40
0.1682847
50
105.7981136
51
149.7388061
0
ARC
8
DEFAULT_255_1_234
10
4.9781942
20
68.969095
40
0.2924306
50
149.4208916
51
163.6286378
0
ARC
8
DEFAULT_255_1_234
10
5.187283
20
68.905325
40
0.5110213
50
163.3763315
51
172.1410975
0
ARC
8
DEFAULT_255_1_234
10
5.5173549
20
68.8580518
40
0.8444586
50
172.0259487
51
178.0703232
0
ARC
8
DEFAULT_255_1_234
10
5.8203639
20
68.8436906
40
1.1477868
50
177.8631668
51
179.5044149
0
ARC
8
DEFAULT_255_1_234
10
5.7131043
20
68.6122389
40
1.0404907
50
179.7995573
51
185.2460446
0
ARC
8
DEFAULT_255_1_234
10
5.3088083
20
68.5739513
40
0.6343885
50
185.1411642
51
193.0079639
0
ARC
8
DEFAULT_255_1_234
10
5.0444555
20
68.5114641
40
0.3627568
50
192.7897626
51
205.2507664
0
ARC
8
DEFAULT_255_1_234
10
4.9398102
20
68.4647415
40
0.2481908
50
205.8005384
51
211.2537509
0
ARC
8
DEFAULT_255_1_234
10
4.8874543
20
68.429658
40
0.1852521
50
210.3789793
51
238.4008143
0
ARC
8
DEFAULT_255_1_234
10
4.8855064
20
68.4343376
40
0.1882621
50
239.6520629
51
265.9793761
0
ARC
8
DEFAULT_255_1_234
10
4.8940265
20
68.5015427
40
0.2559272
50
265.1315437
51
270.060332
0
ARC
8
DEFAULT_255_1_234
10
4.8969043
20
68.4691534
40
0.2235528
50
269.3314664
51
287.2178029
0
ARC
8
DEFAULT_255_1_234
10
4.9106895
20
68.4188279
40
0.1714108
50
287.7958004
51
329.080874
0
ARC
8
DEFAULT_255_1_234
10
4.8149352
20
68.478593
40
0.2842745
50
328.6634704
51
343.3325132
0
ARC
8
DEFAULT_255_1_234
10
4.5976372
20
68.5462863
40
0.5118644
50
343.0499468
51
351.9393422
0
ARC
8
DEFAULT_255_1_234
10
4.2509672
20
68.5973949
40
0.8622784
50
351.8069023
51
357.7959224
0
ARC
8
DEFAULT_255_1_234
10
3.9274228
20
68.6141721
40
1.1862365
50
357.5871873
51
359.2677531
0
LINE
8
DEFAULT_255_1_234
10
5.8934442
20
69.1090276
11
5.8934442
21
68.7676788
0
LINE
8
DEFAULT_255_1_234
10
5.8934442
20
68.7676788
11
6.2195328
21
68.7676788
0
LINE
8
DEFAULT_255_1_234
10
6.2195328
20
68.7676788
11
6.2195328
21
68.6271233
0
LINE
8
DEFAULT_255_1_234
10
6.2195328
20
68.6271233
11
5.8934442
21
68.6271233
0
LINE
8
DEFAULT_255_1_234
10
5.8934442
20
68.6271233
11
5.8934442
21
68.2576634
0
LINE
8
DEFAULT_255_1_234
10
5.8934442
20
68.2576634
11
5.7440539
21
68.2576634
0
LINE
8
DEFAULT_255_1_234
10
5.7440539
20
68.2576634
11
5.7440539
21
68.6271233
0
LINE
8
DEFAULT_255_1_234
10
5.7440539
20
68.6271233
11
5.4179653
21
68.6271233
0
LINE
8
DEFAULT_255_1_234
10
5.4179653
20
68.6271233
11
5.4179653
21
68.7676788
0
LINE
8
DEFAULT_255_1_234
10
5.4179653
20
68.7676788
11
5.7440539
21
68.7676788
0
LINE
8
DEFAULT_255_1_234
10
5.7440539
20
68.7676788
11
5.7440539
21
69.1090276
0
LINE
8
DEFAULT_255_1_234
10
5.7440539
20
69.1090276
11
5.8934442
21
69.1090276
0
LINE
8
DEFAULT_255_1_234
10
4.2446489
20
77.2473211
11
4.2446489
21
76.2039983
0
LINE
8
DEFAULT_255_1_234
10
4.2446489
20
76.2039983
11
4.7988389
21
76.2039983
0
LINE
8
DEFAULT_255_1_234
10
4.7988389
20
76.2039983
11
4.7988389
21
76.0779
0
LINE
8
DEFAULT_255_1_234
10
4.7988389
20
76.0779
11
4.0896364
21
76.0779
0
LINE
8
DEFAULT_255_1_234
10
4.0896364
20
76.0779
11
4.0896364
21
77.2473211
0
LINE
8
DEFAULT_255_1_234
10
4.0896364
20
77.2473211
11
4.2446489
21
77.2473211
0
LINE
8
DEFAULT_255_1_234
10
5.377124
20
77.0465276
11
5.377124
21
76.7051788
0
LINE
8
DEFAULT_255_1_234
10
5.377124
20
76.7051788
11
5.7032126
21
76.7051788
0
LINE
8
DEFAULT_255_1_234
10
5.7032126
20
76.7051788
11
5.7032126
21
76.5646233
0
LINE
8
DEFAULT_255_1_234
10
5.7032126
20
76.5646233
11
5.377124
21
76.5646233
0
LINE
8
DEFAULT_255_1_234
10
5.377124
20
76.5646233
11
5.377124
21
76.1951634
0
LINE
8
DEFAULT_255_1_234
10
5.377124
20
76.1951634
11
5.2277337
21
76.1951634
0
LINE
8
DEFAULT_255_1_234
10
5.2277337
20
76.1951634
11
5.2277337
21
76.5646233
0
LINE
8
DEFAULT_255_1_234
10
5.2277337
20
76.5646233
11
4.9016451
21
76.5646233
0
LINE
8
DEFAULT_255_1_234
10
4.9016451
20
76.5646233
11
4.9016451
21
76.7051788
0
LINE
8
DEFAULT_255_1_234
10
4.9016451
20
76.7051788
11
5.2277337
21
76.7051788
0
LINE
8
DEFAULT_255_1_234
10
5.2277337
20
76.7051788
11
5.2277337
21
77.0465276
0
LINE
8
DEFAULT_255_1_234
10
5.2277337
20
77.0465276
11
5.377124
21
77.0465276
0
LINE
8
DEFAULT_255_1_234
10
23.0452364
20
85.1848211
11
23.2444235
21
85.1848211
0
LINE
8
DEFAULT_255_1_234
10
23.2444235
20
85.1848211
11
23.6267342
21
84.2306506
0
LINE
8
DEFAULT_255_1_234
10
23.6267342
20
84.2306506
11
24.009045
21
85.1848211
0
LINE
8
DEFAULT_255_1_234
10
24.009045
20
85.1848211
11
24.2090353
21
85.1848211
0
LINE
8
DEFAULT_255_1_234
10
24.2090353
20
85.1848211
11
24.2090353
21
84.0154
0
LINE
8
DEFAULT_255_1_234
10
24.2090353
20
84.0154
11
24.0548259
21
84.0154
0
LINE
8
DEFAULT_255_1_234
10
24.0548259
20
84.0154
11
24.0548259
21
84.4707996
0
LINE
8
DEFAULT_255_1_234
10
24.0548259
20
84.4707996
11
24.069283
21
84.9623419
0
LINE
8
DEFAULT_255_1_234
10
24.069283
20
84.9623419
11
23.6853659
21
84.0154
0
LINE
8
DEFAULT_255_1_234
10
23.6853659
20
84.0154
11
23.5672994
21
84.0154
0
LINE
8
DEFAULT_255_1_234
10
23.5672994
20
84.0154
11
23.1841854
21
84.9599324
0
LINE
8
DEFAULT_255_1_234
10
23.1841854
20
84.9599324
11
23.1994458
21
84.4707996
0
LINE
8
DEFAULT_255_1_234
10
23.1994458
20
84.4707996
11
23.1994458
21
84.0154
0
LINE
8
DEFAULT_255_1_234
10
23.1994458
20
84.0154
11
23.0452364
21
84.0154
0
LINE
8
DEFAULT_255_1_234
10
23.0452364
20
84.0154
11
23.0452364
21
85.1848211
0
LINE
8
DEFAULT_255_1_234
10
23.186685
20
5.2829391
11
23.186685
21
5.1568408
0
LINE
8
DEFAULT_255_1_234
10
23.186685
20
5.1568408
11
22.6959458
21
5.1568408
0
LINE
8
DEFAULT_255_1_234
10
22.6959458
20
5.1568408
11
22.6959458
21
4.6404
0
LINE
8
DEFAULT_255_1_234
10
22.6959458
20
4.6404
11
22.5417364
21
4.6404
0
LINE
8
DEFAULT_255_1_234
10
22.5417364
20
4.6404
11
22.5417364
21
5.8098211
0
LINE
8
DEFAULT_255_1_234
10
22.5417364
20
5.8098211
11
23.2661992
21
5.8098211
0
LINE
8
DEFAULT_255_1_234
10
23.2661992
20
5.8098211
11
23.2661992
21
5.6829196
0
LINE
8
DEFAULT_255_1_234
10
23.2661992
20
5.6829196
11
22.6959458
21
5.6829196
0
LINE
8
DEFAULT_255_1_234
10
22.6959458
20
5.6829196
11
22.6959458
21
5.2829391
0
LINE
8
DEFAULT_255_1_234
10
22.6959458
20
5.2829391
11
23.186685
21
5.2829391
0
LINE
8
DEFAULT_255_1_234
10
24.1119412
20
5.3070343
11
24.1119412
21
5.180936
0
LINE
8
DEFAULT_255_1_234
10
24.1119412
20
5.180936
11
23.6051385
21
5.180936
0
LINE
8
DEFAULT_255_1_234
10
23.6051385
20
5.180936
11
23.6051385
21
4.7664983
0
LINE
8
DEFAULT_255_1_234
10
23.6051385
20
4.7664983
11
24.1938649
21
4.7664983
0
LINE
8
DEFAULT_255_1_234
10
24.1938649
20
4.7664983
11
24.1938649
21
4.6404
0
LINE
8
DEFAULT_255_1_234
10
24.1938649
20
4.6404
11
23.4509292
21
4.6404
0
LINE
8
DEFAULT_255_1_234
10
23.4509292
20
4.6404
11
23.4509292
21
5.8098211
0
LINE
8
DEFAULT_255_1_234
10
23.4509292
20
5.8098211
11
24.1858332
21
5.8098211
0
LINE
8
DEFAULT_255_1_234
10
24.1858332
20
5.8098211
11
24.1858332
21
5.6829196
0
LINE
8
DEFAULT_255_1_234
10
24.1858332
20
5.6829196
11
23.6051385
21
5.6829196
0
LINE
8
DEFAULT_255_1_234
10
23.6051385
20
5.6829196
11
23.6051385
21
5.3070343
0
LINE
8
DEFAULT_255_1_234
10
23.6051385
20
5.3070343
11
24.1119412
21
5.3070343
0
LINE
8
DEFAULT_255_1_234
10
22.3300911
20
13.1987534
11
22.3300911
21
13.1248614
0
LINE
8
DEFAULT_255_1_234
10
21.3895745
20
13.1144201
11
21.3895745
21
13.1987534
0
LINE
8
DEFAULT_255_1_234
10
22.1766849
20
13.1136169
11
22.1766849
21
13.2003597
0
LINE
8
DEFAULT_255_1_234
10
21.5429807
20
13.210801
11
21.5429807
21
13.1248614
0
ARC
8
DEFAULT_255_1_234
10
21.4658937
20
13.1209015
40
0.8642064
50
350.487711
51
0.2625388
0
ARC
8
DEFAULT_255_1_234
10
21.6952178
20
13.0814578
40
0.631518
50
336.0277639
51
350.5787438
0
ARC
8
DEFAULT_255_1_234
10
21.8297002
20
13.0206892
40
0.4839466
50
319.8877444
51
336.1328423
0
ARC
8
DEFAULT_255_1_234
10
21.8899643
20
12.972458
40
0.4067874
50
302.4806467
51
319.6143626
0
ARC
8
DEFAULT_255_1_234
10
21.8784653
20
12.9946202
40
0.4316636
50
275.8195682
51
302.1884709
0
ARC
8
DEFAULT_255_1_234
10
21.8618286
20
13.1088665
40
0.5470306
50
269.9171439
51
276.3397983
0
ARC
8
DEFAULT_255_1_234
10
21.8573496
20
13.0402681
40
0.4784458
50
252.5219675
51
270.4416499
0
ARC
8
DEFAULT_255_1_234
10
21.8429755
20
12.9863592
40
0.422716
50
237.5352116
51
252.1857531
0
ARC
8
DEFAULT_255_1_234
10
21.8518951
20
12.9977363
40
0.4371052
50
209.063312
51
237.3492538
0
ARC
8
DEFAULT_255_1_234
10
21.9388799
20
13.0523685
40
0.5397041
50
205.1183774
51
209.6470015
0
ARC
8
DEFAULT_255_1_234
10
22.0185836
20
13.086183
40
0.6262326
50
188.7215458
51
204.8240747
0
ARC
8
DEFAULT_255_1_234
10
22.2183364
20
13.1198067
40
0.8287794
50
180.3723947
51
188.9252049
0
ARC
8
DEFAULT_255_1_234
10
22.2156116
20
13.2027402
40
0.8260467
50
169.5253763
51
180.2765336
0
ARC
8
DEFAULT_255_1_234
10
22.0253564
20
13.2377309
40
0.6326007
50
155.8315255
51
169.5089989
0
ARC
8
DEFAULT_255_1_234
10
21.8973066
20
13.2971348
40
0.4914567
50
139.6258461
51
156.0379525
0
ARC
8
DEFAULT_255_1_234
10
21.8383399
20
13.3445799
40
0.4158054
50
122.6416387
51
139.3430715
0
ARC
8
DEFAULT_255_1_234
10
21.8484019
20
13.3262451
40
0.4366739
50
93.0223692
51
122.455762
0
ARC
8
DEFAULT_255_1_234
10
21.8592016
20
13.2297709
40
0.5336137
50
89.975342
51
93.6341897
0
ARC
8
DEFAULT_255_1_234
10
21.8630795
20
13.2696242
40
0.4937738
50
73.746375
51
90.4233405
0
ARC
8
DEFAULT_255_1_234
10
21.8806373
20
13.3376287
40
0.4235786
50
57.662753
51
73.4518111
0
ARC
8
DEFAULT_255_1_234
10
21.879838
20
13.3397832
40
0.4221899
50
29.1440151
51
57.414694
0
ARC
8
DEFAULT_255_1_234
10
21.7863574
20
13.2814005
40
0.5322966
50
24.0982783
51
29.7323517
0
ARC
8
DEFAULT_255_1_234
10
21.682985
20
13.2385399
40
0.6441673
50
8.6655297
51
23.8241346
0
ARC
8
DEFAULT_255_1_234
10
21.4595588
20
13.2020854
40
0.8705386
50
359.7806941
51
8.8218784
0
ARC
8
DEFAULT_255_1_234
10
21.3448586
20
13.2046345
40
0.8318373
50
359.7055579
51
8.036044
0
ARC
8
DEFAULT_255_1_234
10
21.6448592
20
13.2483239
40
0.5286768
50
7.8928306
51
20.2962107
0
ARC
8
DEFAULT_255_1_234
10
21.8076162
20
13.3083395
40
0.3552073
50
20.3231126
51
36.4992797
0
ARC
8
DEFAULT_255_1_234
10
21.8761708
20
13.3611402
40
0.2686974
50
36.1437156
51
85.6627023
0
ARC
8
DEFAULT_255_1_234
10
21.8599254
20
13.2571221
40
0.373739
50
84.3852322
51
90.0757696
0
ARC
8
DEFAULT_255_1_234
10
21.8556927
20
13.3231839
40
0.3076997
50
89.3038458
51
109.9045693
0
ARC
8
DEFAULT_255_1_234
10
21.8464318
20
13.3614062
40
0.2686424
50
110.8228367
51
143.9179474
0
ARC
8
DEFAULT_255_1_234
10
21.9397978
20
13.2901236
40
0.3860887
50
143.5289163
51
163.2980757
0
ARC
8
DEFAULT_255_1_234
10
22.1305799
20
13.2301433
40
0.5860659
50
163.0418846
51
174.3140048
0
ARC
8
DEFAULT_255_1_234
10
22.3709911
20
13.2023854
40
0.8280531
50
174.0509143
51
179.4176892
0
ARC
8
DEFAULT_255_1_234
10
22.320565
20
13.1206954
40
0.7775954
50
179.6930361
51
188.7906598
0
ARC
8
DEFAULT_255_1_234
10
22.0542129
20
13.0780935
40
0.5078633
50
188.6331305
51
202.5629587
0
ARC
8
DEFAULT_255_1_234
10
21.9287721
20
13.0276996
40
0.3726913
50
202.8081362
51
216.1193925
0
ARC
8
DEFAULT_255_1_234
10
21.8478291
20
12.9625676
40
0.2689577
50
215.0755913
51
264.6379694
0
ARC
8
DEFAULT_255_1_234
10
21.860524
20
13.0456513
40
0.3528978
50
263.846392
51
270.0833719
0
ARC
8
DEFAULT_255_1_234
10
21.8646631
20
13.0198374
40
0.3271036
50
269.3649385
51
287.5152008
0
ARC
8
DEFAULT_255_1_234
10
21.8824788
20
12.9551238
40
0.2600406
50
288.0630309
51
323.8113348
0
ARC
8
DEFAULT_255_1_234
10
21.795363
20
13.0201049
40
0.3687189
50
323.6547608
51
342.6590488
0
ARC
8
DEFAULT_255_1_234
10
21.5922245
20
13.0861952
40
0.5823286
50
342.4091907
51
353.6451149
0
ARC
8
DEFAULT_255_1_234
10
21.3090756
20
13.121419
40
0.8676442
50
353.4029884
51
359.4847795
0
LINE
8
DEFAULT_255_1_234
10
23.2778362
20
13.7473211
11
23.2778362
21
13.663791
0
LINE
8
DEFAULT_255_1_234
10
23.2778362
20
13.663791
11
22.7935224
21
12.5779
0
LINE
8
DEFAULT_255_1_234
10
22.7935224
20
12.5779
11
22.6377066
21
12.5779
0
LINE
8
DEFAULT_255_1_234
10
22.6377066
20
12.5779
11
23.1204141
21
13.6252387
0
LINE
8
DEFAULT_255_1_234
10
23.1204141
20
13.6252387
11
22.4875131
21
13.6252387
0
LINE
8
DEFAULT_255_1_234
10
22.4875131
20
13.6252387
11
22.4875131
21
13.7473211
0
LINE
8
DEFAULT_255_1_234
10
22.4875131
20
13.7473211
11
23.2778362
21
13.7473211
0
LINE
8
DEFAULT_255_1_234
10
23.8874451
20
13.5465276
11
23.8874451
21
13.2051788
0
LINE
8
DEFAULT_255_1_234
10
23.8874451
20
13.2051788
11
24.2135337
21
13.2051788
0
LINE
8
DEFAULT_255_1_234
10
24.2135337
20
13.2051788
11
24.2135337
21
13.0646233
0
LINE
8
DEFAULT_255_1_234
10
24.2135337
20
13.0646233
11
23.8874451
21
13.0646233
0
LINE
8
DEFAULT_255_1_234
10
23.8874451
20
13.0646233
11
23.8874451
21
12.6951634
0
LINE
8
DEFAULT_255_1_234
10
23.8874451
20
12.6951634
11
23.7380548
21
12.6951634
0
LINE
8
DEFAULT_255_1_234
10
23.7380548
20
12.6951634
11
23.7380548
21
13.0646233
0
LINE
8
DEFAULT_255_1_234
10
23.7380548
20
13.0646233
11
23.4119662
21
13.0646233
0
LINE
8
DEFAULT_255_1_234
10
23.4119662
20
13.0646233
11
23.4119662
21
13.2051788
0
LINE
8
DEFAULT_255_1_234
10
23.4119662
20
13.2051788
11
23.7380548
21
13.2051788
0
LINE
8
DEFAULT_255_1_234
10
23.7380548
20
13.2051788
11
23.7380548
21
13.5465276
0
LINE
8
DEFAULT_255_1_234
10
23.7380548
20
13.5465276
11
23.8874451
21
13.5465276
0
LINE
8
DEFAULT_255_1_234
10
22.3300911
20
21.1362534
11
22.3300911
21
21.0623614
0
LINE
8
DEFAULT_255_1_234
10
21.3895745
20
21.0519201
11
21.3895745
21
21.1362534
0
LINE
8
DEFAULT_255_1_234
10
22.1766849
20
21.0511169
11
22.1766849
21
21.1378597
0
LINE
8
DEFAULT_255_1_234
10
21.5429807
20
21.148301
11
21.5429807
21
21.0623614
0
ARC
8
DEFAULT_255_1_234
10
21.4658937
20
21.0584015
40
0.8642064
50
350.487711
51
0.2625388
0
ARC
8
DEFAULT_255_1_234
10
21.6952178
20
21.0189578
40
0.631518
50
336.0277639
51
350.5787438
0
ARC
8
DEFAULT_255_1_234
10
21.8297002
20
20.9581892
40
0.4839466
50
319.8877444
51
336.1328423
0
ARC
8
DEFAULT_255_1_234
10
21.8899643
20
20.909958
40
0.4067874
50
302.4806467
51
319.6143626
0
ARC
8
DEFAULT_255_1_234
10
21.8784653
20
20.9321202
40
0.4316636
50
275.8195682
51
302.1884709
0
ARC
8
DEFAULT_255_1_234
10
21.8618286
20
21.0463665
40
0.5470306
50
269.9171439
51
276.3397983
0
ARC
8
DEFAULT_255_1_234
10
21.8573496
20
20.9777681
40
0.4784458
50
252.5219675
51
270.4416499
0
ARC
8
DEFAULT_255_1_234
10
21.8429755
20
20.9238592
40
0.422716
50
237.5352116
51
252.1857531
0
ARC
8
DEFAULT_255_1_234
10
21.8518951
20
20.9352363
40
0.4371052
50
209.063312
51
237.3492538
0
ARC
8
DEFAULT_255_1_234
10
21.9388799
20
20.9898685
40
0.5397041
50
205.1183774
51
209.6470015
0
ARC
8
DEFAULT_255_1_234
10
22.0185836
20
21.023683
40
0.6262326
50
188.7215458
51
204.8240747
0
ARC
8
DEFAULT_255_1_234
10
22.2183364
20
21.0573067
40
0.8287794
50
180.3723947
51
188.9252049
0
ARC
8
DEFAULT_255_1_234
10
22.2156116
20
21.1402402
40
0.8260467
50
169.5253763
51
180.2765336
0
ARC
8
DEFAULT_255_1_234
10
22.0253564
20
21.1752309
40
0.6326007
50
155.8315255
51
169.5089989
0
ARC
8
DEFAULT_255_1_234
10
21.8973066
20
21.2346348
40
0.4914567
50
139.6258461
51
156.0379525
0
ARC
8
DEFAULT_255_1_234
10
21.8383399
20
21.2820799
40
0.4158054
50
122.6416387
51
139.3430715
0
ARC
8
DEFAULT_255_1_234
10
21.8484019
20
21.2637451
40
0.4366739
50
93.0223692
51
122.455762
0
ARC
8
DEFAULT_255_1_234
10
21.8592016
20
21.1672709
40
0.5336137
50
89.975342
51
93.6341897
0
ARC
8
DEFAULT_255_1_234
10
21.8630795
20
21.2071242
40
0.4937738
50
73.746375
51
90.4233405
0
ARC
8
DEFAULT_255_1_234
10
21.8806373
20
21.2751287
40
0.4235786
50
57.662753
51
73.4518111
0
ARC
8
DEFAULT_255_1_234
10
21.879838
20
21.2772832
40
0.4221899
50
29.1440151
51
57.414694
0
ARC
8
DEFAULT_255_1_234
10
21.7863574
20
21.2189005
40
0.5322966
50
24.0982783
51
29.7323517
0
ARC
8
DEFAULT_255_1_234
10
21.682985
20
21.1760399
40
0.6441673
50
8.6655297
51
23.8241346
0
ARC
8
DEFAULT_255_1_234
10
21.4595588
20
21.1395854
40
0.8705386
50
359.7806941
51
8.8218784
0
ARC
8
DEFAULT_255_1_234
10
21.3448586
20
21.1421345
40
0.8318373
50
359.7055579
51
8.036044
0
ARC
8
DEFAULT_255_1_234
10
21.6448592
20
21.1858239
40
0.5286768
50
7.8928306
51
20.2962107
0
ARC
8
DEFAULT_255_1_234
10
21.8076162
20
21.2458395
40
0.3552073
50
20.3231126
51
36.4992797
0
ARC
8
DEFAULT_255_1_234
10
21.8761708
20
21.2986402
40
0.2686974
50
36.1437156
51
85.6627023
0
ARC
8
DEFAULT_255_1_234
10
21.8599254
20
21.1946221
40
0.373739
50
84.3852322
51
90.0757696
0
ARC
8
DEFAULT_255_1_234
10
21.8556927
20
21.2606839
40
0.3076997
50
89.3038458
51
109.9045693
0
ARC
8
DEFAULT_255_1_234
10
21.8464318
20
21.2989062
40
0.2686424
50
110.8228367
51
143.9179474
0
ARC
8
DEFAULT_255_1_234
10
21.9397978
20
21.2276236
40
0.3860887
50
143.5289163
51
163.2980757
0
ARC
8
DEFAULT_255_1_234
10
22.1305799
20
21.1676433
40
0.5860659
50
163.0418846
51
174.3140048
0
ARC
8
DEFAULT_255_1_234
10
22.3709911
20
21.1398854
40
0.8280531
50
174.0509143
51
179.4176892
0
ARC
8
DEFAULT_255_1_234
10
22.320565
20
21.0581954
40
0.7775954
50
179.6930361
51
188.7906598
0
ARC
8
DEFAULT_255_1_234
10
22.0542129
20
21.0155935
40
0.5078633
50
188.6331305
51
202.5629587
0
ARC
8
DEFAULT_255_1_234
10
21.9287721
20
20.9651996
40
0.3726913
50
202.8081362
51
216.1193925
0
ARC
8
DEFAULT_255_1_234
10
21.8478291
20
20.9000676
40
0.2689577
50
215.0755913
51
264.6379694
0
ARC
8
DEFAULT_255_1_234
10
21.860524
20
20.9831513
40
0.3528978
50
263.846392
51
270.0833719
0
ARC
8
DEFAULT_255_1_234
10
21.8646631
20
20.9573374
40
0.3271036
50
269.3649385
51
287.5152008
0
ARC
8
DEFAULT_255_1_234
10
21.8824788
20
20.8926238
40
0.2600406
50
288.0630309
51
323.8113348
0
ARC
8
DEFAULT_255_1_234
10
21.795363
20
20.9576049
40
0.3687189
50
323.6547608
51
342.6590488
0
ARC
8
DEFAULT_255_1_234
10
21.5922245
20
21.0236952
40
0.5823286
50
342.4091907
51
353.6451149
0
ARC
8
DEFAULT_255_1_234
10
21.3090756
20
21.058919
40
0.8676442
50
353.4029884
51
359.4847795
0
LINE
8
DEFAULT_255_1_234
10
23.0794522
20
21.6856243
11
23.105957
21
21.6856243
0
LINE
8
DEFAULT_255_1_234
10
23.105957
20
21.6856243
11
23.105957
21
21.559526
0
LINE
8
DEFAULT_255_1_234
10
23.105957
20
21.559526
11
23.0786491
21
21.559526
0
LINE
8
DEFAULT_255_1_234
10
22.5316877
20
20.9603583
11
22.5316877
21
21.0173836
0
LINE
8
DEFAULT_255_1_234
10
22.681078
20
20.9981075
11
22.681078
21
20.9434917
0
ARC
8
DEFAULT_255_1_234
10
23.0838839
20
21.0597455
40
0.4998079
50
90.6001036
51
104.514704
0
ARC
8
DEFAULT_255_1_234
10
23.0450354
20
21.2042131
40
0.3502176
50
104.2855254
51
133.862935
0
ARC
8
DEFAULT_255_1_234
10
23.0614112
20
21.193383
40
0.3693984
50
134.5302688
51
161.6210873
0
ARC
8
DEFAULT_255_1_234
10
23.22673
20
21.1350895
40
0.5446739
50
161.2849839
51
174.2076652
0
ARC
8
DEFAULT_255_1_234
10
23.3674237
20
21.1156787
40
0.6866274
50
173.7810589
51
174.9254635
0
ARC
8
DEFAULT_255_1_234
10
22.9124069
20
20.9773839
40
0.3033419
50
95.8330959
51
138.9954921
0
ARC
8
DEFAULT_255_1_234
10
22.9347425
20
20.8495375
40
0.4328947
50
89.8753725
51
97.0544009
0
ARC
8
DEFAULT_255_1_234
10
22.9394891
20
20.9330748
40
0.3493769
50
71.6407809
51
90.6240094
0
ARC
8
DEFAULT_255_1_234
10
22.9545465
20
20.9885082
40
0.2920396
50
39.6367836
51
71.019018
0
ARC
8
DEFAULT_255_1_234
10
22.8908938
20
20.9334998
40
0.3761538
50
10.658731
51
39.9043955
0
ARC
8
DEFAULT_255_1_234
10
22.7361021
20
20.8998686
40
0.5345136
50
359.682601
51
11.132623
0
ARC
8
DEFAULT_255_1_234
10
22.7321151
20
20.892801
40
0.5385081
50
347.2486944
51
0.4369317
0
ARC
8
DEFAULT_255_1_234
10
22.8988628
20
20.8526807
40
0.3670249
50
318.1409698
51
347.6118597
0
ARC
8
DEFAULT_255_1_234
10
22.9313621
20
20.8259702
40
0.3250007
50
275.6342139
51
317.8248465
0
ARC
8
DEFAULT_255_1_234
10
22.9092733
20
20.9559219
40
0.4565864
50
269.8874292
51
276.7917694
0
ARC
8
DEFAULT_255_1_234
10
22.9037803
20
20.8533743
40
0.3540676
50
246.9140195
51
270.7437342
0
ARC
8
DEFAULT_255_1_234
10
22.9044194
20
20.8391384
40
0.3412781
50
218.1665114
51
245.878116
0
ARC
8
DEFAULT_255_1_234
10
22.9923654
20
20.9127279
40
0.455911
50
191.4115814
51
218.6077802
0
ARC
8
DEFAULT_255_1_234
10
23.1861744
20
20.9561833
40
0.6545001
50
179.6345085
51
191.7836486
0
ARC
8
DEFAULT_255_1_234
10
23.744408
20
21.0240697
40
1.2127388
50
171.4525249
51
180.3158839
0
ARC
8
DEFAULT_255_1_234
10
23.3048956
20
21.0924608
40
0.7679464
50
157.9802646
51
171.6246686
0
ARC
8
DEFAULT_255_1_234
10
23.0834977
20
21.1807421
40
0.5296008
50
141.4298019
51
157.854097
0
ARC
8
DEFAULT_255_1_234
10
23.0193298
20
21.2261381
40
0.4511509
50
102.8715806
51
140.8564722
0
ARC
8
DEFAULT_255_1_234
10
23.0840913
20
20.9821552
40
0.7034845
50
90.3778349
51
103.5869322
0
ARC
8
DEFAULT_255_1_234
10
22.910269
20
20.921673
40
0.2370698
50
89.8751008
51
126.2071704
0
ARC
8
DEFAULT_255_1_234
10
22.9148479
20
20.9062303
40
0.2522934
50
124.9745049
51
144.895901
0
ARC
8
DEFAULT_255_1_234
10
22.897267
20
20.920556
40
0.2296779
50
145.2974905
51
160.2660252
0
ARC
8
DEFAULT_255_1_234
10
23.2045209
20
20.9403071
40
0.5234525
50
179.6514266
51
190.2855912
0
ARC
8
DEFAULT_255_1_234
10
23.0351346
20
20.9083786
40
0.3510893
50
190.0945431
51
207.5098196
0
ARC
8
DEFAULT_255_1_234
10
22.9785616
20
20.8814623
40
0.288489
50
207.9583163
51
216.3251085
0
ARC
8
DEFAULT_255_1_234
10
22.9445723
20
20.8535105
40
0.2445587
50
215.7661442
51
232.5456785
0
ARC
8
DEFAULT_255_1_234
10
22.9062706
20
20.8048482
40
0.1826382
50
232.8005391
51
270.6605633
0
ARC
8
DEFAULT_255_1_234
10
22.9108407
20
20.8412612
40
0.2190529
50
269.35537
51
288.4744281
0
ARC
8
DEFAULT_255_1_234
10
22.9201304
20
20.8063118
40
0.1829749
50
289.1833337
51
322.9683818
0
ARC
8
DEFAULT_255_1_234
10
22.8589827
20
20.8545391
40
0.2608399
50
322.6007884
51
346.5182367
0
ARC
8
DEFAULT_255_1_234
10
22.7432423
20
20.8840616
40
0.3802777
50
346.2582162
51
358.7741648
0
ARC
8
DEFAULT_255_1_234
10
22.6414091
20
20.8895965
40
0.4822176
50
358.3755224
51
0.0098023
0
ARC
8
DEFAULT_255_1_234
10
22.7170279
20
20.8923657
40
0.4066078
50
359.6214041
51
11.2839074
0
ARC
8
DEFAULT_255_1_234
10
22.8447426
20
20.9190066
40
0.2761514
50
11.0482309
51
31.8146458
0
ARC
8
DEFAULT_255_1_234
10
22.8756468
20
20.9357584
40
0.2410679
50
32.3035391
51
38.082671
0
ARC
8
DEFAULT_255_1_234
10
22.9177128
20
20.9738662
40
0.1844966
50
36.825067
51
85.7415724
0
ARC
8
DEFAULT_255_1_234
10
22.9109962
20
20.9238301
40
0.2349122
50
85.0140713
51
90.0513278
0
LINE
8
DEFAULT_255_1_234
10
23.8874451
20
21.4840276
11
23.8874451
21
21.1426788
0
LINE
8
DEFAULT_255_1_234
10
23.8874451
20
21.1426788
11
24.2135337
21
21.1426788
0
LINE
8
DEFAULT_255_1_234
10
24.2135337
20
21.1426788
11
24.2135337
21
21.0021233
0
LINE
8
DEFAULT_255_1_234
10
24.2135337
20
21.0021233
11
23.8874451
21
21.0021233
0
LINE
8
DEFAULT_255_1_234
10
23.8874451
20
21.0021233
11
23.8874451
21
20.6326634
0
LINE
8
DEFAULT_255_1_234
10
23.8874451
20
20.6326634
11
23.7380548
21
20.6326634
0
LINE
8
DEFAULT_255_1_234
10
23.7380548
20
20.6326634
11
23.7380548
21
21.0021233
0
LINE
8
DEFAULT_255_1_234
10
23.7380548
20
21.0021233
11
23.4119662
21
21.0021233
0
LINE
8
DEFAULT_255_1_234
10
23.4119662
20
21.0021233
11
23.4119662
21
21.1426788
0
LINE
8
DEFAULT_255_1_234
10
23.4119662
20
21.1426788
11
23.7380548
21
21.1426788
0
LINE
8
DEFAULT_255_1_234
10
23.7380548
20
21.1426788
11
23.7380548
21
21.4840276
0
LINE
8
DEFAULT_255_1_234
10
23.7380548
20
21.4840276
11
23.8874451
21
21.4840276
0
LINE
8
DEFAULT_255_1_234
10
22.3300911
20
29.0737534
11
22.3300911
21
28.9998614
0
LINE
8
DEFAULT_255_1_234
10
21.3895745
20
28.9894201
11
21.3895745
21
29.0737534
0
LINE
8
DEFAULT_255_1_234
10
22.1766849
20
28.9886169
11
22.1766849
21
29.0753597
0
LINE
8
DEFAULT_255_1_234
10
21.5429807
20
29.085801
11
21.5429807
21
28.9998614
0
ARC
8
DEFAULT_255_1_234
10
21.4658937
20
28.9959015
40
0.8642064
50
350.487711
51
0.2625388
0
ARC
8
DEFAULT_255_1_234
10
21.6952178
20
28.9564578
40
0.631518
50
336.0277639
51
350.5787438
0
ARC
8
DEFAULT_255_1_234
10
21.8297002
20
28.8956892
40
0.4839466
50
319.8877444
51
336.1328423
0
ARC
8
DEFAULT_255_1_234
10
21.8899643
20
28.847458
40
0.4067874
50
302.4806467
51
319.6143626
0
ARC
8
DEFAULT_255_1_234
10
21.8784653
20
28.8696202
40
0.4316636
50
275.8195682
51
302.1884709
0
ARC
8
DEFAULT_255_1_234
10
21.8618286
20
28.9838665
40
0.5470306
50
269.9171439
51
276.3397983
0
ARC
8
DEFAULT_255_1_234
10
21.8573496
20
28.9152681
40
0.4784458
50
252.5219675
51
270.4416499
0
ARC
8
DEFAULT_255_1_234
10
21.8429755
20
28.8613592
40
0.422716
50
237.5352116
51
252.1857531
0
ARC
8
DEFAULT_255_1_234
10
21.8518951
20
28.8727363
40
0.4371052
50
209.063312
51
237.3492538
0
ARC
8
DEFAULT_255_1_234
10
21.9388799
20
28.9273685
40
0.5397041
50
205.1183774
51
209.6470015
0
ARC
8
DEFAULT_255_1_234
10
22.0185836
20
28.961183
40
0.6262326
50
188.7215458
51
204.8240747
0
ARC
8
DEFAULT_255_1_234
10
22.2183364
20
28.9948067
40
0.8287794
50
180.3723947
51
188.9252049
0
ARC
8
DEFAULT_255_1_234
10
22.2156116
20
29.0777402
40
0.8260467
50
169.5253763
51
180.2765336
0
ARC
8
DEFAULT_255_1_234
10
22.0253564
20
29.1127309
40
0.6326007
50
155.8315255
51
169.5089989
0
ARC
8
DEFAULT_255_1_234
10
21.8973066
20
29.1721348
40
0.4914567
50
139.6258461
51
156.0379525
0
ARC
8
DEFAULT_255_1_234
10
21.8383399
20
29.2195799
40
0.4158054
50
122.6416387
51
139.3430715
0
ARC
8
DEFAULT_255_1_234
10
21.8484019
20
29.2012451
40
0.4366739
50
93.0223692
51
122.455762
0
ARC
8
DEFAULT_255_1_234
10
21.8592016
20
29.1047709
40
0.5336137
50
89.975342
51
93.6341897
0
ARC
8
DEFAULT_255_1_234
10
21.8630795
20
29.1446242
40
0.4937738
50
73.746375
51
90.4233405
0
ARC
8
DEFAULT_255_1_234
10
21.8806373
20
29.2126287
40
0.4235786
50
57.662753
51
73.4518111
0
ARC
8
DEFAULT_255_1_234
10
21.879838
20
29.2147832
40
0.4221899
50
29.1440151
51
57.414694
0
ARC
8
DEFAULT_255_1_234
10
21.7863574
20
29.1564005
40
0.5322966
50
24.0982783
51
29.7323517
0
ARC
8
DEFAULT_255_1_234
10
21.682985
20
29.1135399
40
0.6441673
50
8.6655297
51
23.8241346
0
ARC
8
DEFAULT_255_1_234
10
21.4595588
20
29.0770854
40
0.8705386
50
359.7806941
51
8.8218784
0
ARC
8
DEFAULT_255_1_234
10
21.3448586
20
29.0796345
40
0.8318373
50
359.7055579
51
8.036044
0
ARC
8
DEFAULT_255_1_234
10
21.6448592
20
29.1233239
40
0.5286768
50
7.8928306
51
20.2962107
0
ARC
8
DEFAULT_255_1_234
10
21.8076162
20
29.1833395
40
0.3552073
50
20.3231126
51
36.4992797
0
ARC
8
DEFAULT_255_1_234
10
21.8761708
20
29.2361402
40
0.2686974
50
36.1437156
51
85.6627023
0
ARC
8
DEFAULT_255_1_234
10
21.8599254
20
29.1321221
40
0.373739
50
84.3852322
51
90.0757696
0
ARC
8
DEFAULT_255_1_234
10
21.8556927
20
29.1981839
40
0.3076997
50
89.3038458
51
109.9045693
0
ARC
8
DEFAULT_255_1_234
10
21.8464318
20
29.2364062
40
0.2686424
50
110.8228367
51
143.9179474
0
ARC
8
DEFAULT_255_1_234
10
21.9397978
20
29.1651236
40
0.3860887
50
143.5289163
51
163.2980757
0
ARC
8
DEFAULT_255_1_234
10
22.1305799
20
29.1051433
40
0.5860659
50
163.0418846
51
174.3140048
0
ARC
8
DEFAULT_255_1_234
10
22.3709911
20
29.0773854
40
0.8280531
50
174.0509143
51
179.4176892
0
ARC
8
DEFAULT_255_1_234
10
22.320565
20
28.9956954
40
0.7775954
50
179.6930361
51
188.7906598
0
ARC
8
DEFAULT_255_1_234
10
22.0542129
20
28.9530935
40
0.5078633
50
188.6331305
51
202.5629587
0
ARC
8
DEFAULT_255_1_234
10
21.9287721
20
28.9026996
40
0.3726913
50
202.8081362
51
216.1193925
0
ARC
8
DEFAULT_255_1_234
10
21.8478291
20
28.8375676
40
0.2689577
50
215.0755913
51
264.6379694
0
ARC
8
DEFAULT_255_1_234
10
21.860524
20
28.9206513
40
0.3528978
50
263.846392
51
270.0833719
0
ARC
8
DEFAULT_255_1_234
10
21.8646631
20
28.8948374
40
0.3271036
50
269.3649385
51
287.5152008
0
ARC
8
DEFAULT_255_1_234
10
21.8824788
20
28.8301238
40
0.2600406
50
288.0630309
51
323.8113348
0
ARC
8
DEFAULT_255_1_234
10
21.795363
20
28.8951049
40
0.3687189
50
323.6547608
51
342.6590488
0
ARC
8
DEFAULT_255_1_234
10
21.5922245
20
28.9611952
40
0.5823286
50
342.4091907
51
353.6451149
0
ARC
8
DEFAULT_255_1_234
10
21.3090756
20
28.996419
40
0.8676442
50
353.4029884
51
359.4847795
0
LINE
8
DEFAULT_255_1_234
10
22.7099923
20
29.0086963
11
22.5911226
21
29.0392169
0
LINE
8
DEFAULT_255_1_234
10
22.5911226
20
29.0392169
11
22.6505574
21
29.6223211
0
LINE
8
DEFAULT_255_1_234
10
22.6505574
20
29.6223211
11
23.2497251
21
29.6223211
0
LINE
8
DEFAULT_255_1_234
10
23.2497251
20
29.6223211
11
23.2497251
21
29.4849784
0
LINE
8
DEFAULT_255_1_234
10
23.2497251
20
29.4849784
11
22.7766557
21
29.4849784
0
LINE
8
DEFAULT_255_1_234
10
22.7766557
20
29.4849784
11
22.7413161
21
29.1661184
0
LINE
8
DEFAULT_255_1_234
10
22.5493575
20
28.7605156
11
22.6899129
21
28.7605156
0
LINE
8
DEFAULT_255_1_234
10
22.7493478
20
29.0408232
11
22.7099923
21
29.0086963
0
ARC
8
DEFAULT_255_1_234
10
22.9267945
20
28.848123
40
0.3681349
50
93.7182161
51
120.2538958
0
ARC
8
DEFAULT_255_1_234
10
22.9362208
20
28.7673394
40
0.449379
50
89.9660152
51
94.2496022
0
ARC
8
DEFAULT_255_1_234
10
22.9402941
20
28.8262549
40
0.390482
50
73.8043271
51
90.5585896
0
ARC
8
DEFAULT_255_1_234
10
22.9637838
20
28.9120602
40
0.3015334
50
41.3071453
51
73.5430202
0
ARC
8
DEFAULT_255_1_234
10
22.9221666
20
28.8762324
40
0.3564457
50
13.5075983
51
41.2174222
0
ARC
8
DEFAULT_255_1_234
10
22.757987
20
28.8332486
40
0.5261351
50
1.1331335
51
13.8829381
0
ARC
8
DEFAULT_255_1_234
10
22.6168238
20
28.8256665
40
0.6674378
50
359.9919444
51
1.544251
0
ARC
8
DEFAULT_255_1_234
10
22.7445065
20
28.821528
40
0.5397702
50
347.8572367
51
0.4293338
0
ARC
8
DEFAULT_255_1_234
10
22.9195383
20
28.7818736
40
0.3603188
50
323.673004
51
348.1672506
0
ARC
8
DEFAULT_255_1_234
10
22.9489891
20
28.7639168
40
0.3259678
50
316.8171152
51
323.1492751
0
ARC
8
DEFAULT_255_1_234
10
22.955108
20
28.760246
40
0.3189975
50
281.8396411
51
316.5457803
0
ARC
8
DEFAULT_255_1_234
10
22.9175343
20
28.9157762
40
0.4789527
50
269.5770101
51
282.4214771
0
ARC
8
DEFAULT_255_1_234
10
22.9104155
20
28.8944125
40
0.45759
50
256.2427136
51
270.4486331
0
ARC
8
DEFAULT_255_1_234
10
22.8805057
20
28.7744229
40
0.3339303
50
228.9023911
51
256.3314342
0
ARC
8
DEFAULT_255_1_234
10
22.873129
20
28.7627746
40
0.32031
50
193.753695
51
228.5271154
0
ARC
8
DEFAULT_255_1_234
10
22.9969244
20
28.79908
40
0.4492253
50
184.924711
51
194.497588
0
ARC
8
DEFAULT_255_1_234
10
23.0161811
20
28.8026591
40
0.3289787
50
187.3600538
51
198.6732863
0
ARC
8
DEFAULT_255_1_234
10
22.9112105
20
28.7662674
40
0.217884
50
198.4451669
51
217.794479
0
ARC
8
DEFAULT_255_1_234
10
22.881628
20
28.7453085
40
0.1816698
50
218.2887171
51
228.5612368
0
ARC
8
DEFAULT_255_1_234
10
22.8914067
20
28.7584963
40
0.1980329
50
228.9654866
51
258.1234728
0
ARC
8
DEFAULT_255_1_234
10
22.9119777
20
28.8465833
40
0.2884748
50
257.7258293
51
270.401361
0
ARC
8
DEFAULT_255_1_234
10
22.9164663
20
28.8020821
40
0.2439788
50
269.4204404
51
286.4209037
0
ARC
8
DEFAULT_255_1_234
10
22.9313151
20
28.7481657
40
0.1880666
50
286.7251356
51
320.600362
0
ARC
8
DEFAULT_255_1_234
10
22.8929976
20
28.7792595
40
0.2374121
50
320.6712579
51
344.5441685
0
ARC
8
DEFAULT_255_1_234
10
22.7773302
20
28.8132045
40
0.3579479
50
344.2412205
51
356.7357071
0
ARC
8
DEFAULT_255_1_234
10
22.652445
20
28.8235444
40
0.4832297
50
356.3548756
51
0.0500261
0
ARC
8
DEFAULT_255_1_234
10
22.7860959
20
28.826665
40
0.3495889
50
359.5576869
51
12.953486
0
ARC
8
DEFAULT_255_1_234
10
22.8915857
20
28.8522434
40
0.2410532
50
12.6490276
51
41.6081334
0
ARC
8
DEFAULT_255_1_234
10
22.9146228
20
28.8718321
40
0.2108218
50
41.7850273
51
85.9892764
0
ARC
8
DEFAULT_255_1_234
10
22.9022964
20
28.7905462
40
0.2928454
50
84.6957577
51
90.0676183
0
ARC
8
DEFAULT_255_1_234
10
22.8999449
20
28.7236716
40
0.3597255
50
89.6804936
51
99.1614436
0
ARC
8
DEFAULT_255_1_234
10
22.879408
20
28.8464131
40
0.235281
50
98.9830931
51
113.8908934
0
ARC
8
DEFAULT_255_1_234
10
22.856449
20
28.9005587
40
0.176479
50
114.1950727
51
127.3641004
0
LINE
8
DEFAULT_255_1_234
10
23.8874451
20
29.4215276
11
23.8874451
21
29.0801788
0
LINE
8
DEFAULT_255_1_234
10
23.8874451
20
29.0801788
11
24.2135337
21
29.0801788
0
LINE
8
DEFAULT_255_1_234
10
24.2135337
20
29.0801788
11
24.2135337
21
28.9396233
0
LINE
8
DEFAULT_255_1_234
10
24.2135337
20
28.9396233
11
23.8874451
21
28.9396233
0
LINE
8
DEFAULT_255_1_234
10
23.8874451
20
28.9396233
11
23.8874451
21
28.5701634
0
LINE
8
DEFAULT_255_1_234
10
23.8874451
20
28.5701634
11
23.7380548
21
28.5701634
0
LINE
8
DEFAULT_255_1_234
10
23.7380548
20
28.5701634
11
23.7380548
21
28.9396233
0
LINE
8
DEFAULT_255_1_234
10
23.7380548
20
28.9396233
11
23.4119662
21
28.9396233
0
LINE
8
DEFAULT_255_1_234
10
23.4119662
20
28.9396233
11
23.4119662
21
29.0801788
0
LINE
8
DEFAULT_255_1_234
10
23.4119662
20
29.0801788
11
23.7380548
21
29.0801788
0
LINE
8
DEFAULT_255_1_234
10
23.7380548
20
29.0801788
11
23.7380548
21
29.4215276
0
LINE
8
DEFAULT_255_1_234
10
23.7380548
20
29.4215276
11
23.8874451
21
29.4215276
0
LINE
8
DEFAULT_255_1_234
10
22.3300911
20
37.0112534
11
22.3300911
21
36.9373614
0
LINE
8
DEFAULT_255_1_234
10
21.3895745
20
36.9269201
11
21.3895745
21
37.0112534
0
LINE
8
DEFAULT_255_1_234
10
22.1766849
20
36.9261169
11
22.1766849
21
37.0128597
0
LINE
8
DEFAULT_255_1_234
10
21.5429807
20
37.023301
11
21.5429807
21
36.9373614
0
ARC
8
DEFAULT_255_1_234
10
21.4658937
20
36.9334015
40
0.8642064
50
350.487711
51
0.2625388
0
ARC
8
DEFAULT_255_1_234
10
21.6952178
20
36.8939578
40
0.631518
50
336.0277639
51
350.5787438
0
ARC
8
DEFAULT_255_1_234
10
21.8297002
20
36.8331892
40
0.4839466
50
319.8877444
51
336.1328423
0
ARC
8
DEFAULT_255_1_234
10
21.8899643
20
36.784958
40
0.4067874
50
302.4806467
51
319.6143626
0
ARC
8
DEFAULT_255_1_234
10
21.8784653
20
36.8071202
40
0.4316636
50
275.8195682
51
302.1884709
0
ARC
8
DEFAULT_255_1_234
10
21.8618286
20
36.9213665
40
0.5470306
50
269.9171439
51
276.3397983
0
ARC
8
DEFAULT_255_1_234
10
21.8573496
20
36.8527681
40
0.4784458
50
252.5219675
51
270.4416499
0
ARC
8
DEFAULT_255_1_234
10
21.8429755
20
36.7988592
40
0.422716
50
237.5352116
51
252.1857531
0
ARC
8
DEFAULT_255_1_234
10
21.8518951
20
36.8102363
40
0.4371052
50
209.063312
51
237.3492538
0
ARC
8
DEFAULT_255_1_234
10
21.9388799
20
36.8648685
40
0.5397041
50
205.1183774
51
209.6470015
0
ARC
8
DEFAULT_255_1_234
10
22.0185836
20
36.898683
40
0.6262326
50
188.7215458
51
204.8240747
0
ARC
8
DEFAULT_255_1_234
10
22.2183364
20
36.9323067
40
0.8287794
50
180.3723947
51
188.9252049
0
ARC
8
DEFAULT_255_1_234
10
22.2156116
20
37.0152402
40
0.8260467
50
169.5253763
51
180.2765336
0
ARC
8
DEFAULT_255_1_234
10
22.0253564
20
37.0502309
40
0.6326007
50
155.8315255
51
169.5089989
0
ARC
8
DEFAULT_255_1_234
10
21.8973066
20
37.1096348
40
0.4914567
50
139.6258461
51
156.0379525
0
ARC
8
DEFAULT_255_1_234
10
21.8383399
20
37.1570799
40
0.4158054
50
122.6416387
51
139.3430715
0
ARC
8
DEFAULT_255_1_234
10
21.8484019
20
37.1387451
40
0.4366739
50
93.0223692
51
122.455762
0
ARC
8
DEFAULT_255_1_234
10
21.8592016
20
37.0422709
40
0.5336137
50
89.975342
51
93.6341897
0
ARC
8
DEFAULT_255_1_234
10
21.8630795
20
37.0821242
40
0.4937738
50
73.746375
51
90.4233405
0
ARC
8
DEFAULT_255_1_234
10
21.8806373
20
37.1501287
40
0.4235786
50
57.662753
51
73.4518111
0
ARC
8
DEFAULT_255_1_234
10
21.879838
20
37.1522832
40
0.4221899
50
29.1440151
51
57.414694
0
ARC
8
DEFAULT_255_1_234
10
21.7863574
20
37.0939005
40
0.5322966
50
24.0982783
51
29.7323517
0
ARC
8
DEFAULT_255_1_234
10
21.682985
20
37.0510399
40
0.6441673
50
8.6655297
51
23.8241346
0
ARC
8
DEFAULT_255_1_234
10
21.4595588
20
37.0145854
40
0.8705386
50
359.7806941
51
8.8218784
0
ARC
8
DEFAULT_255_1_234
10
21.3448586
20
37.0171345
40
0.8318373
50
359.7055579
51
8.036044
0
ARC
8
DEFAULT_255_1_234
10
21.6448592
20
37.0608239
40
0.5286768
50
7.8928306
51
20.2962107
0
ARC
8
DEFAULT_255_1_234
10
21.8076162
20
37.1208395
40
0.3552073
50
20.3231126
51
36.4992797
0
ARC
8
DEFAULT_255_1_234
10
21.8761708
20
37.1736402
40
0.2686974
50
36.1437156
51
85.6627023
0
ARC
8
DEFAULT_255_1_234
10
21.8599254
20
37.0696221
40
0.373739
50
84.3852322
51
90.0757696
0
ARC
8
DEFAULT_255_1_234
10
21.8556927
20
37.1356839
40
0.3076997
50
89.3038458
51
109.9045693
0
ARC
8
DEFAULT_255_1_234
10
21.8464318
20
37.1739062
40
0.2686424
50
110.8228367
51
143.9179474
0
ARC
8
DEFAULT_255_1_234
10
21.9397978
20
37.1026236
40
0.3860887
50
143.5289163
51
163.2980757
0
ARC
8
DEFAULT_255_1_234
10
22.1305799
20
37.0426433
40
0.5860659
50
163.0418846
51
174.3140048
0
ARC
8
DEFAULT_255_1_234
10
22.3709911
20
37.0148854
40
0.8280531
50
174.0509143
51
179.4176892
0
ARC
8
DEFAULT_255_1_234
10
22.320565
20
36.9331954
40
0.7775954
50
179.6930361
51
188.7906598
0
ARC
8
DEFAULT_255_1_234
10
22.0542129
20
36.8905935
40
0.5078633
50
188.6331305
51
202.5629587
0
ARC
8
DEFAULT_255_1_234
10
21.9287721
20
36.8401996
40
0.3726913
50
202.8081362
51
216.1193925
0
ARC
8
DEFAULT_255_1_234
10
21.8478291
20
36.7750676
40
0.2689577
50
215.0755913
51
264.6379694
0
ARC
8
DEFAULT_255_1_234
10
21.860524
20
36.8581513
40
0.3528978
50
263.846392
51
270.0833719
0
ARC
8
DEFAULT_255_1_234
10
21.8646631
20
36.8323374
40
0.3271036
50
269.3649385
51
287.5152008
0
ARC
8
DEFAULT_255_1_234
10
21.8824788
20
36.7676238
40
0.2600406
50
288.0630309
51
323.8113348
0
ARC
8
DEFAULT_255_1_234
10
21.795363
20
36.8326049
40
0.3687189
50
323.6547608
51
342.6590488
0
ARC
8
DEFAULT_255_1_234
10
21.5922245
20
36.8986952
40
0.5823286
50
342.4091907
51
353.6451149
0
ARC
8
DEFAULT_255_1_234
10
21.3090756
20
36.933919
40
0.8676442
50
353.4029884
51
359.4847795
0
LINE
8
DEFAULT_255_1_234
10
23.1501315
20
37.5598211
11
23.1501315
21
36.783152
0
LINE
8
DEFAULT_255_1_234
10
23.1501315
20
36.783152
11
23.3123727
21
36.783152
0
LINE
8
DEFAULT_255_1_234
10
23.3123727
20
36.783152
11
23.3123727
21
36.6618728
0
LINE
8
DEFAULT_255_1_234
10
23.3123727
20
36.6618728
11
23.1501315
21
36.6618728
0
LINE
8
DEFAULT_255_1_234
10
23.1501315
20
36.6618728
11
23.1501315
21
36.3904
0
LINE
8
DEFAULT_255_1_234
10
23.1501315
20
36.3904
11
23.0007412
21
36.3904
0
LINE
8
DEFAULT_255_1_234
10
23.0007412
20
36.3904
11
23.0007412
21
36.6618728
0
LINE
8
DEFAULT_255_1_234
10
23.0007412
20
36.6618728
11
22.468237
21
36.6618728
0
LINE
8
DEFAULT_255_1_234
10
22.468237
20
36.6618728
11
22.468237
21
36.7494187
0
LINE
8
DEFAULT_255_1_234
10
22.468237
20
36.7494187
11
22.9919063
21
37.5598211
0
LINE
8
DEFAULT_255_1_234
10
22.9919063
20
37.5598211
11
23.1501315
21
37.5598211
0
LINE
8
DEFAULT_255_1_234
10
22.9830714
20
37.3244912
11
22.6369035
21
36.783152
0
LINE
8
DEFAULT_255_1_234
10
22.6369035
20
36.783152
11
23.0007412
21
36.783152
0
LINE
8
DEFAULT_255_1_234
10
23.0007412
20
36.783152
11
23.0007412
21
37.3566181
0
LINE
8
DEFAULT_255_1_234
10
23.0007412
20
37.3566181
11
22.9830714
21
37.3244912
0
LINE
8
DEFAULT_255_1_234
10
23.8874451
20
37.3590276
11
23.8874451
21
37.0176788
0
LINE
8
DEFAULT_255_1_234
10
23.8874451
20
37.0176788
11
24.2135337
21
37.0176788
0
LINE
8
DEFAULT_255_1_234
10
24.2135337
20
37.0176788
11
24.2135337
21
36.8771233
0
LINE
8
DEFAULT_255_1_234
10
24.2135337
20
36.8771233
11
23.8874451
21
36.8771233
0
LINE
8
DEFAULT_255_1_234
10
23.8874451
20
36.8771233
11
23.8874451
21
36.5076634
0
LINE
8
DEFAULT_255_1_234
10
23.8874451
20
36.5076634
11
23.7380548
21
36.5076634
0
LINE
8
DEFAULT_255_1_234
10
23.7380548
20
36.5076634
11
23.7380548
21
36.8771233
0
LINE
8
DEFAULT_255_1_234
10
23.7380548
20
36.8771233
11
23.4119662
21
36.8771233
0
LINE
8
DEFAULT_255_1_234
10
23.4119662
20
36.8771233
11
23.4119662
21
37.0176788
0
LINE
8
DEFAULT_255_1_234
10
23.4119662
20
37.0176788
11
23.7380548
21
37.0176788
0
LINE
8
DEFAULT_255_1_234
10
23.7380548
20
37.0176788
11
23.7380548
21
37.3590276
0
LINE
8
DEFAULT_255_1_234
10
23.7380548
20
37.3590276
11
23.8874451
21
37.3590276
0
LINE
8
DEFAULT_255_1_234
10
22.3300911
20
44.9487534
11
22.3300911
21
44.8748614
0
LINE
8
DEFAULT_255_1_234
10
21.3895745
20
44.8644201
11
21.3895745
21
44.9487534
0
LINE
8
DEFAULT_255_1_234
10
22.1766849
20
44.8636169
11
22.1766849
21
44.9503597
0
LINE
8
DEFAULT_255_1_234
10
21.5429807
20
44.960801
11
21.5429807
21
44.8748614
0
ARC
8
DEFAULT_255_1_234
10
21.4658937
20
44.8709015
40
0.8642064
50
350.487711
51
0.2625388
0
ARC
8
DEFAULT_255_1_234
10
21.6952178
20
44.8314578
40
0.631518
50
336.0277639
51
350.5787438
0
ARC
8
DEFAULT_255_1_234
10
21.8297002
20
44.7706892
40
0.4839466
50
319.8877444
51
336.1328423
0
ARC
8
DEFAULT_255_1_234
10
21.8899643
20
44.722458
40
0.4067874
50
302.4806467
51
319.6143626
0
ARC
8
DEFAULT_255_1_234
10
21.8784653
20
44.7446202
40
0.4316636
50
275.8195682
51
302.1884709
0
ARC
8
DEFAULT_255_1_234
10
21.8618286
20
44.8588665
40
0.5470306
50
269.9171439
51
276.3397983
0
ARC
8
DEFAULT_255_1_234
10
21.8573496
20
44.7902681
40
0.4784458
50
252.5219675
51
270.4416499
0
ARC
8
DEFAULT_255_1_234
10
21.8429755
20
44.7363592
40
0.422716
50
237.5352116
51
252.1857531
0
ARC
8
DEFAULT_255_1_234
10
21.8518951
20
44.7477363
40
0.4371052
50
209.063312
51
237.3492538
0
ARC
8
DEFAULT_255_1_234
10
21.9388799
20
44.8023685
40
0.5397041
50
205.1183774
51
209.6470015
0
ARC
8
DEFAULT_255_1_234
10
22.0185836
20
44.836183
40
0.6262326
50
188.7215458
51
204.8240747
0
ARC
8
DEFAULT_255_1_234
10
22.2183364
20
44.8698067
40
0.8287794
50
180.3723947
51
188.9252049
0
ARC
8
DEFAULT_255_1_234
10
22.2156116
20
44.9527402
40
0.8260467
50
169.5253763
51
180.2765336
0
ARC
8
DEFAULT_255_1_234
10
22.0253564
20
44.9877309
40
0.6326007
50
155.8315255
51
169.5089989
0
ARC
8
DEFAULT_255_1_234
10
21.8973066
20
45.0471348
40
0.4914567
50
139.6258461
51
156.0379525
0
ARC
8
DEFAULT_255_1_234
10
21.8383399
20
45.0945799
40
0.4158054
50
122.6416387
51
139.3430715
0
ARC
8
DEFAULT_255_1_234
10
21.8484019
20
45.0762451
40
0.4366739
50
93.0223692
51
122.455762
0
ARC
8
DEFAULT_255_1_234
10
21.8592016
20
44.9797709
40
0.5336137
50
89.975342
51
93.6341897
0
ARC
8
DEFAULT_255_1_234
10
21.8630795
20
45.0196242
40
0.4937738
50
73.746375
51
90.4233405
0
ARC
8
DEFAULT_255_1_234
10
21.8806373
20
45.0876287
40
0.4235786
50
57.662753
51
73.4518111
0
ARC
8
DEFAULT_255_1_234
10
21.879838
20
45.0897832
40
0.4221899
50
29.1440151
51
57.414694
0
ARC
8
DEFAULT_255_1_234
10
21.7863574
20
45.0314005
40
0.5322966
50
24.0982783
51
29.7323517
0
ARC
8
DEFAULT_255_1_234
10
21.682985
20
44.9885399
40
0.6441673
50
8.6655297
51
23.8241346
0
ARC
8
DEFAULT_255_1_234
10
21.4595588
20
44.9520854
40
0.8705386
50
359.7806941
51
8.8218784
0
ARC
8
DEFAULT_255_1_234
10
21.3448586
20
44.9546345
40
0.8318373
50
359.7055579
51
8.036044
0
ARC
8
DEFAULT_255_1_234
10
21.6448592
20
44.9983239
40
0.5286768
50
7.8928306
51
20.2962107
0
ARC
8
DEFAULT_255_1_234
10
21.8076162
20
45.0583395
40
0.3552073
50
20.3231126
51
36.4992797
0
ARC
8
DEFAULT_255_1_234
10
21.8761708
20
45.1111402
40
0.2686974
50
36.1437156
51
85.6627023
0
ARC
8
DEFAULT_255_1_234
10
21.8599254
20
45.0071221
40
0.373739
50
84.3852322
51
90.0757696
0
ARC
8
DEFAULT_255_1_234
10
21.8556927
20
45.0731839
40
0.3076997
50
89.3038458
51
109.9045693
0
ARC
8
DEFAULT_255_1_234
10
21.8464318
20
45.1114062
40
0.2686424
50
110.8228367
51
143.9179474
0
ARC
8
DEFAULT_255_1_234
10
21.9397978
20
45.0401236
40
0.3860887
50
143.5289163
51
163.2980757
0
ARC
8
DEFAULT_255_1_234
10
22.1305799
20
44.9801433
40
0.5860659
50
163.0418846
51
174.3140048
0
ARC
8
DEFAULT_255_1_234
10
22.3709911
20
44.9523854
40
0.8280531
50
174.0509143
51
179.4176892
0
ARC
8
DEFAULT_255_1_234
10
22.320565
20
44.8706954
40
0.7775954
50
179.6930361
51
188.7906598
0
ARC
8
DEFAULT_255_1_234
10
22.0542129
20
44.8280935
40
0.5078633
50
188.6331305
51
202.5629587
0
ARC
8
DEFAULT_255_1_234
10
21.9287721
20
44.7776996
40
0.3726913
50
202.8081362
51
216.1193925
0
ARC
8
DEFAULT_255_1_234
10
21.8478291
20
44.7125676
40
0.2689577
50
215.0755913
51
264.6379694
0
ARC
8
DEFAULT_255_1_234
10
21.860524
20
44.7956513
40
0.3528978
50
263.846392
51
270.0833719
0
ARC
8
DEFAULT_255_1_234
10
21.8646631
20
44.7698374
40
0.3271036
50
269.3649385
51
287.5152008
0
ARC
8
DEFAULT_255_1_234
10
21.8824788
20
44.7051238
40
0.2600406
50
288.0630309
51
323.8113348
0
ARC
8
DEFAULT_255_1_234
10
21.795363
20
44.7701049
40
0.3687189
50
323.6547608
51
342.6590488
0
ARC
8
DEFAULT_255_1_234
10
21.5922245
20
44.8361952
40
0.5823286
50
342.4091907
51
353.6451149
0
ARC
8
DEFAULT_255_1_234
10
21.3090756
20
44.871419
40
0.8676442
50
353.4029884
51
359.4847795
0
LINE
8
DEFAULT_255_1_234
10
22.7389065
20
44.8636169
11
22.7389065
21
44.9848962
0
LINE
8
DEFAULT_255_1_234
10
22.7389065
20
44.9848962
11
22.8505477
21
44.9848962
0
LINE
8
DEFAULT_255_1_234
10
22.6601955
20
45.1905087
11
22.5116083
21
45.1905087
0
LINE
8
DEFAULT_255_1_234
10
22.5011671
20
44.6363188
11
22.6505574
21
44.6363188
0
LINE
8
DEFAULT_255_1_234
10
22.8505477
20
44.8636169
11
22.7389065
21
44.8636169
0
ARC
8
DEFAULT_255_1_234
10
22.8476343
20
45.3241713
40
0.3392876
50
270.4919872
51
281.8951556
0
ARC
8
DEFAULT_255_1_234
10
22.8717605
20
45.2139702
40
0.2264817
50
281.6691735
51
301.2943132
0
ARC
8
DEFAULT_255_1_234
10
22.8887815
20
45.1828304
40
0.1910381
50
301.7833094
51
311.7545298
0
ARC
8
DEFAULT_255_1_234
10
22.8979391
20
45.1726748
40
0.1773635
50
311.7323931
51
354.2802411
0
ARC
8
DEFAULT_255_1_234
10
22.8253016
20
45.1851722
40
0.2509385
50
353.0937916
51
0.1181479
0
ARC
8
DEFAULT_255_1_234
10
22.7791801
20
45.1899386
40
0.2970898
50
359.1805295
51
15.0453146
0
ARC
8
DEFAULT_255_1_234
10
22.9137638
20
45.2291992
40
0.1569564
50
13.9577229
51
77.6713066
0
ARC
8
DEFAULT_255_1_234
10
22.8751167
20
45.0906949
40
0.3006298
50
76.1116566
51
90.7026153
0
ARC
8
DEFAULT_255_1_234
10
22.8692006
20
45.1180545
40
0.2732568
50
89.5324876
51
103.531937
0
ARC
8
DEFAULT_255_1_234
10
22.849145
20
45.1979884
40
0.1908508
50
103.2931773
51
133.5619022
0
ARC
8
DEFAULT_255_1_234
10
22.8446938
20
45.2039375
40
0.1834746
50
133.8349307
51
173.5344437
0
ARC
8
DEFAULT_255_1_234
10
22.9169981
20
45.1911213
40
0.2568033
50
172.5096846
51
180.1366907
0
ARC
8
DEFAULT_255_1_234
10
22.8218875
20
45.1945622
40
0.3103056
50
155.3484492
51
180.7484736
0
ARC
8
DEFAULT_255_1_234
10
22.8169964
20
45.1916846
40
0.3070957
50
131.5744599
51
154.4798489
0
ARC
8
DEFAULT_255_1_234
10
22.8483112
20
45.160031
40
0.3515643
50
96.9875458
51
131.9690667
0
ARC
8
DEFAULT_255_1_234
10
22.8702591
20
45.0354636
40
0.4779224
50
89.8596053
51
97.7825159
0
ARC
8
DEFAULT_255_1_234
10
22.8750655
20
45.0092616
40
0.5041361
50
78.3655447
51
90.4131539
0
ARC
8
DEFAULT_255_1_234
10
22.9108573
20
45.1751887
40
0.3344039
50
56.6229102
51
78.638727
0
ARC
8
DEFAULT_255_1_234
10
22.9323516
20
45.2127805
40
0.2912001
50
47.0253525
51
56.0854072
0
ARC
8
DEFAULT_255_1_234
10
22.9343296
20
45.2167223
40
0.2869704
50
10.9208013
51
46.7778124
0
ARC
8
DEFAULT_255_1_234
10
22.7979363
20
45.1851857
40
0.426899
50
359.6364486
51
11.6087304
0
ARC
8
DEFAULT_255_1_234
10
22.9814207
20
45.1836752
40
0.243409
50
332.3549906
51
359.7179418
0
ARC
8
DEFAULT_255_1_234
10
22.9163808
20
45.2145142
40
0.3153459
50
325.2333722
51
332.8745602
0
ARC
8
DEFAULT_255_1_234
10
22.9316432
20
45.2038828
40
0.2967456
50
292.9802137
51
325.2392345
0
ARC
8
DEFAULT_255_1_234
10
22.9041806
20
45.2572863
40
0.3566604
50
292.5402179
51
293.6924929
0
ARC
8
DEFAULT_255_1_234
10
22.9434402
20
44.6118091
40
0.3307468
50
57.6435486
51
72.8625112
0
ARC
8
DEFAULT_255_1_234
10
22.9788901
20
44.6692549
40
0.2632492
50
36.7248896
51
57.4697979
0
ARC
8
DEFAULT_255_1_234
10
22.9777534
20
44.670522
40
0.2634081
50
8.0545065
51
36.356114
0
ARC
8
DEFAULT_255_1_234
10
22.8914719
20
44.6550174
40
0.3510261
50
359.8320645
51
8.5869982
0
ARC
8
DEFAULT_255_1_234
10
22.8539496
20
44.6502101
40
0.3885653
50
343.9829931
51
0.5571613
0
ARC
8
DEFAULT_255_1_234
10
22.9425693
20
44.6259438
40
0.2966924
50
311.6359546
51
343.7651759
0
ARC
8
DEFAULT_255_1_234
10
22.9047262
20
44.6686102
40
0.3537231
50
279.7829875
51
311.6255694
0
ARC
8
DEFAULT_255_1_234
10
22.8746038
20
44.812328
40
0.5004971
50
269.7286406
51
280.3856417
0
ARC
8
DEFAULT_255_1_234
10
22.8684111
20
44.8081996
40
0.4963778
50
256.6828919
51
270.4412052
0
ARC
8
DEFAULT_255_1_234
10
22.8345407
20
44.6697394
40
0.3538406
50
229.4223008
51
256.8556159
0
ARC
8
DEFAULT_255_1_234
10
22.7930799
20
44.6230736
40
0.2914296
50
181.818294
51
229.6455059
0
ARC
8
DEFAULT_255_1_234
10
22.8970756
20
44.6361496
40
0.3959084
50
179.9755256
51
183.2323064
0
ARC
8
DEFAULT_255_1_234
10
22.8798501
20
44.6341037
40
0.2293034
50
179.4465117
51
196.2869258
0
ARC
8
DEFAULT_255_1_234
10
22.8310909
20
44.6207651
40
0.1787621
50
196.5661473
51
227.705904
0
ARC
8
DEFAULT_255_1_234
10
22.8475004
20
44.6391155
40
0.2033784
50
227.7652068
51
257.8762805
0
ARC
8
DEFAULT_255_1_234
10
22.8699974
20
44.7334156
40
0.3003081
50
257.4584385
51
270.426602
0
ARC
8
DEFAULT_255_1_234
10
22.8745541
20
44.7623996
40
0.329292
50
269.5962073
51
280.8789248
0
ARC
8
DEFAULT_255_1_234
10
22.8975069
20
44.6477685
40
0.2123908
50
280.6346389
51
299.8595945
0
ARC
8
DEFAULT_255_1_234
10
22.9165976
20
44.6115212
40
0.171457
50
300.3576302
51
314.5517981
0
ARC
8
DEFAULT_255_1_234
10
22.9083036
20
44.6175919
40
0.1816095
50
315.0728369
51
345.0431014
0
ARC
8
DEFAULT_255_1_234
10
22.8159851
20
44.6444841
40
0.2777492
50
344.5986631
51
357.9269593
0
ARC
8
DEFAULT_255_1_234
10
22.7264177
20
44.6506276
40
0.3674917
50
357.4748886
51
0.0231117
0
ARC
8
DEFAULT_255_1_234
10
22.8287286
20
44.6530679
40
0.2651907
50
359.5047933
51
13.4239635
0
ARC
8
DEFAULT_255_1_234
10
22.915393
20
44.6752478
40
0.1757509
50
12.9498199
51
48.7551375
0
ARC
8
DEFAULT_255_1_234
10
22.8971664
20
44.65034
40
0.2065134
50
49.5088623
51
72.1836453
0
ARC
8
DEFAULT_255_1_234
10
22.8613816
20
44.5441291
40
0.3185836
50
71.9010081
51
84.3554254
0
ARC
8
DEFAULT_255_1_234
10
22.8452448
20
44.4080326
40
0.4556151
50
84.0193428
51
89.333121
0
LINE
8
DEFAULT_255_1_234
10
23.8874451
20
45.2965276
11
23.8874451
21
44.9551788
0
LINE
8
DEFAULT_255_1_234
10
23.8874451
20
44.9551788
11
24.2135337
21
44.9551788
0
LINE
8
DEFAULT_255_1_234
10
24.2135337
20
44.9551788
11
24.2135337
21
44.8146233
0
LINE
8
DEFAULT_255_1_234
10
24.2135337
20
44.8146233
11
23.8874451
21
44.8146233
0
LINE
8
DEFAULT_255_1_234
10
23.8874451
20
44.8146233
11
23.8874451
21
44.4451634
0
LINE
8
DEFAULT_255_1_234
10
23.8874451
20
44.4451634
11
23.7380548
21
44.4451634
0
LINE
8
DEFAULT_255_1_234
10
23.7380548
20
44.4451634
11
23.7380548
21
44.8146233
0
LINE
8
DEFAULT_255_1_234
10
23.7380548
20
44.8146233
11
23.4119662
21
44.8146233
0
LINE
8
DEFAULT_255_1_234
10
23.4119662
20
44.8146233
11
23.4119662
21
44.9551788
0
LINE
8
DEFAULT_255_1_234
10
23.4119662
20
44.9551788
11
23.7380548
21
44.9551788
0
LINE
8
DEFAULT_255_1_234
10
23.7380548
20
44.9551788
11
23.7380548
21
45.2965276
0
LINE
8
DEFAULT_255_1_234
10
23.7380548
20
45.2965276
11
23.8874451
21
45.2965276
0
LINE
8
DEFAULT_255_1_234
10
22.3300911
20
52.8862534
11
22.3300911
21
52.8123614
0
LINE
8
DEFAULT_255_1_234
10
21.3895745
20
52.8019201
11
21.3895745
21
52.8862534
0
LINE
8
DEFAULT_255_1_234
10
22.1766849
20
52.8011169
11
22.1766849
21
52.8878597
0
LINE
8
DEFAULT_255_1_234
10
21.5429807
20
52.898301
11
21.5429807
21
52.8123614
0
ARC
8
DEFAULT_255_1_234
10
21.4658937
20
52.8084015
40
0.8642064
50
350.487711
51
0.2625388
0
ARC
8
DEFAULT_255_1_234
10
21.6952178
20
52.7689578
40
0.631518
50
336.0277639
51
350.5787438
0
ARC
8
DEFAULT_255_1_234
10
21.8297002
20
52.7081892
40
0.4839466
50
319.8877444
51
336.1328423
0
ARC
8
DEFAULT_255_1_234
10
21.8899643
20
52.659958
40
0.4067874
50
302.4806467
51
319.6143626
0
ARC
8
DEFAULT_255_1_234
10
21.8784653
20
52.6821202
40
0.4316636
50
275.8195682
51
302.1884709
0
ARC
8
DEFAULT_255_1_234
10
21.8618286
20
52.7963665
40
0.5470306
50
269.9171439
51
276.3397983
0
ARC
8
DEFAULT_255_1_234
10
21.8573496
20
52.7277681
40
0.4784458
50
252.5219675
51
270.4416499
0
ARC
8
DEFAULT_255_1_234
10
21.8429755
20
52.6738592
40
0.422716
50
237.5352116
51
252.1857531
0
ARC
8
DEFAULT_255_1_234
10
21.8518951
20
52.6852363
40
0.4371052
50
209.063312
51
237.3492538
0
ARC
8
DEFAULT_255_1_234
10
21.9388799
20
52.7398685
40
0.5397041
50
205.1183774
51
209.6470015
0
ARC
8
DEFAULT_255_1_234
10
22.0185836
20
52.773683
40
0.6262326
50
188.7215458
51
204.8240747
0
ARC
8
DEFAULT_255_1_234
10
22.2183364
20
52.8073067
40
0.8287794
50
180.3723947
51
188.9252049
0
ARC
8
DEFAULT_255_1_234
10
22.2156116
20
52.8902402
40
0.8260467
50
169.5253763
51
180.2765336
0
ARC
8
DEFAULT_255_1_234
10
22.0253564
20
52.9252309
40
0.6326007
50
155.8315255
51
169.5089989
0
ARC
8
DEFAULT_255_1_234
10
21.8973066
20
52.9846348
40
0.4914567
50
139.6258461
51
156.0379525
0
ARC
8
DEFAULT_255_1_234
10
21.8383399
20
53.0320799
40
0.4158054
50
122.6416387
51
139.3430715
0
ARC
8
DEFAULT_255_1_234
10
21.8484019
20
53.0137451
40
0.4366739
50
93.0223692
51
122.455762
0
ARC
8
DEFAULT_255_1_234
10
21.8592016
20
52.9172709
40
0.5336137
50
89.975342
51
93.6341897
0
ARC
8
DEFAULT_255_1_234
10
21.8630795
20
52.9571242
40
0.4937738
50
73.746375
51
90.4233405
0
ARC
8
DEFAULT_255_1_234
10
21.8806373
20
53.0251287
40
0.4235786
50
57.662753
51
73.4518111
0
ARC
8
DEFAULT_255_1_234
10
21.879838
20
53.0272832
40
0.4221899
50
29.1440151
51
57.414694
0
ARC
8
DEFAULT_255_1_234
10
21.7863574
20
52.9689005
40
0.5322966
50
24.0982783
51
29.7323517
0
ARC
8
DEFAULT_255_1_234
10
21.682985
20
52.9260399
40
0.6441673
50
8.6655297
51
23.8241346
0
ARC
8
DEFAULT_255_1_234
10
21.4595588
20
52.8895854
40
0.8705386
50
359.7806941
51
8.8218784
0
ARC
8
DEFAULT_255_1_234
10
21.3448586
20
52.8921345
40
0.8318373
50
359.7055579
51
8.036044
0
ARC
8
DEFAULT_255_1_234
10
21.6448592
20
52.9358239
40
0.5286768
50
7.8928306
51
20.2962107
0
ARC
8
DEFAULT_255_1_234
10
21.8076162
20
52.9958395
40
0.3552073
50
20.3231126
51
36.4992797
0
ARC
8
DEFAULT_255_1_234
10
21.8761708
20
53.0486402
40
0.2686974
50
36.1437156
51
85.6627023
0
ARC
8
DEFAULT_255_1_234
10
21.8599254
20
52.9446221
40
0.373739
50
84.3852322
51
90.0757696
0
ARC
8
DEFAULT_255_1_234
10
21.8556927
20
53.0106839
40
0.3076997
50
89.3038458
51
109.9045693
0
ARC
8
DEFAULT_255_1_234
10
21.8464318
20
53.0489062
40
0.2686424
50
110.8228367
51
143.9179474
0
ARC
8
DEFAULT_255_1_234
10
21.9397978
20
52.9776236
40
0.3860887
50
143.5289163
51
163.2980757
0
ARC
8
DEFAULT_255_1_234
10
22.1305799
20
52.9176433
40
0.5860659
50
163.0418846
51
174.3140048
0
ARC
8
DEFAULT_255_1_234
10
22.3709911
20
52.8898854
40
0.8280531
50
174.0509143
51
179.4176892
0
ARC
8
DEFAULT_255_1_234
10
22.320565
20
52.8081954
40
0.7775954
50
179.6930361
51
188.7906598
0
ARC
8
DEFAULT_255_1_234
10
22.0542129
20
52.7655935
40
0.5078633
50
188.6331305
51
202.5629587
0
ARC
8
DEFAULT_255_1_234
10
21.9287721
20
52.7151996
40
0.3726913
50
202.8081362
51
216.1193925
0
ARC
8
DEFAULT_255_1_234
10
21.8478291
20
52.6500676
40
0.2689577
50
215.0755913
51
264.6379694
0
ARC
8
DEFAULT_255_1_234
10
21.860524
20
52.7331513
40
0.3528978
50
263.846392
51
270.0833719
0
ARC
8
DEFAULT_255_1_234
10
21.8646631
20
52.7073374
40
0.3271036
50
269.3649385
51
287.5152008
0
ARC
8
DEFAULT_255_1_234
10
21.8824788
20
52.6426238
40
0.2600406
50
288.0630309
51
323.8113348
0
ARC
8
DEFAULT_255_1_234
10
21.795363
20
52.7076049
40
0.3687189
50
323.6547608
51
342.6590488
0
ARC
8
DEFAULT_255_1_234
10
21.5922245
20
52.7736952
40
0.5823286
50
342.4091907
51
353.6451149
0
ARC
8
DEFAULT_255_1_234
10
21.3090756
20
52.808919
40
0.8676442
50
353.4029884
51
359.4847795
0
LINE
8
DEFAULT_255_1_234
10
23.2890806
20
52.3866792
11
23.2890806
21
52.2654
0
LINE
8
DEFAULT_255_1_234
10
23.2890806
20
52.2654
11
22.5228528
21
52.2654
0
LINE
8
DEFAULT_255_1_234
10
22.5228528
20
52.2654
11
22.5228528
21
52.3722221
0
LINE
8
DEFAULT_255_1_234
10
22.5228528
20
52.3722221
11
22.9276524
21
52.8219995
0
LINE
8
DEFAULT_255_1_234
10
22.6489511
20
53.0902595
11
22.5003639
21
53.0902595
0
LINE
8
DEFAULT_255_1_234
10
23.0151983
20
52.7264218
11
22.7019605
21
52.3866792
0
LINE
8
DEFAULT_255_1_234
10
22.7019605
20
52.3866792
11
23.2890806
21
52.3866792
0
ARC
8
DEFAULT_255_1_234
10
21.5786357
20
54.0149527
40
1.8008286
50
318.5132453
51
320.7828378
0
ARC
8
DEFAULT_255_1_234
10
22.1073332
20
53.5846426
40
1.1191493
50
320.7372736
51
323.9737074
0
ARC
8
DEFAULT_255_1_234
10
22.4993188
20
53.3006361
40
0.6350923
50
323.8961724
51
328.6421089
0
ARC
8
DEFAULT_255_1_234
10
22.7039783
20
53.1744031
40
0.3946393
50
328.8299013
51
331.789948
0
ARC
8
DEFAULT_255_1_234
10
22.8036962
20
53.1229509
40
0.2824501
50
331.4255242
51
352.9364833
0
ARC
8
DEFAULT_255_1_234
10
22.8173463
20
53.1198976
40
0.2685315
50
353.2248685
51
0.0169286
0
ARC
8
DEFAULT_255_1_234
10
22.8383339
20
53.122195
40
0.2475536
50
359.4866256
51
15.9339782
0
ARC
8
DEFAULT_255_1_234
10
22.8890325
20
53.1358286
40
0.1950618
50
16.1714718
51
43.5284424
0
ARC
8
DEFAULT_255_1_234
10
22.8967633
20
53.1435573
40
0.184134
50
43.4415429
51
83.1661404
0
ARC
8
DEFAULT_255_1_234
10
22.8833551
20
53.0698771
40
0.258926
50
82.160215
51
90.1505798
0
ARC
8
DEFAULT_255_1_234
10
22.8801979
20
53.0161865
40
0.3126255
50
89.5460705
51
102.5418777
0
ARC
8
DEFAULT_255_1_234
10
22.8559065
20
53.1192665
40
0.2067346
50
102.1739365
51
129.2061916
0
ARC
8
DEFAULT_255_1_234
10
22.8480137
20
53.1317094
40
0.1921118
50
129.7279328
51
135.7542026
0
ARC
8
DEFAULT_255_1_234
10
22.8601664
20
53.1220045
40
0.2075944
50
136.175737
51
166.3674722
0
ARC
8
DEFAULT_255_1_234
10
22.9608584
20
53.0950182
40
0.3118201
50
165.9092917
51
178.8683903
0
ARC
8
DEFAULT_255_1_234
10
23.0473445
20
53.0903179
40
0.3983935
50
178.438168
51
180.0083905
0
ARC
8
DEFAULT_255_1_234
10
22.9072047
20
53.0942231
40
0.4068601
50
163.2878735
51
180.5581814
0
ARC
8
DEFAULT_255_1_234
10
22.8270308
20
53.116284
40
0.3237344
50
133.454115
51
162.9470031
0
ARC
8
DEFAULT_255_1_234
10
22.844885
20
53.0973
40
0.349795
50
100.7869394
51
133.4384016
0
ARC
8
DEFAULT_255_1_234
10
22.8796621
20
52.9424319
40
0.5084616
50
89.6605301
51
101.3704185
0
ARC
8
DEFAULT_255_1_234
10
22.886296
20
52.9485496
40
0.502348
50
78.2171172
51
90.4130393
0
ARC
8
DEFAULT_255_1_234
10
22.9218038
20
53.1109637
40
0.3361092
50
55.9268222
51
78.4888551
0
ARC
8
DEFAULT_255_1_234
10
22.9414478
20
53.1448324
40
0.2970617
50
47.9292255
51
55.4054003
0
ARC
8
DEFAULT_255_1_234
10
22.9516039
20
53.1551502
40
0.2825983
50
4.3347696
51
48.0560701
0
ARC
8
DEFAULT_255_1_234
10
22.8420433
20
53.1381601
40
0.393225
50
359.925209
51
5.5967654
0
ARC
8
DEFAULT_255_1_234
10
22.8849325
20
53.1437816
40
0.3503892
50
337.8914096
51
358.9967724
0
ARC
8
DEFAULT_255_1_234
10
22.6135737
20
53.2484706
40
0.6412172
50
326.9135351
51
338.3505194
0
ARC
8
DEFAULT_255_1_234
10
22.215004
20
53.5039284
40
1.1146189
50
319.6472867
51
327.095818
0
ARC
8
DEFAULT_255_1_234
10
21.8317043
20
53.8201
40
1.6114559
50
317.2586784
51
319.9046139
0
LINE
8
DEFAULT_255_1_234
10
23.8874451
20
53.2340276
11
23.8874451
21
52.8926788
0
LINE
8
DEFAULT_255_1_234
10
23.8874451
20
52.8926788
11
24.2135337
21
52.8926788
0
LINE
8
DEFAULT_255_1_234
10
24.2135337
20
52.8926788
11
24.2135337
21
52.7521233
0
LINE
8
DEFAULT_255_1_234
10
24.2135337
20
52.7521233
11
23.8874451
21
52.7521233
0
LINE
8
DEFAULT_255_1_234
10
23.8874451
20
52.7521233
11
23.8874451
21
52.3826634
0
LINE
8
DEFAULT_255_1_234
10
23.8874451
20
52.3826634
11
23.7380548
21
52.3826634
0
LINE
8
DEFAULT_255_1_234
10
23.7380548
20
52.3826634
11
23.7380548
21
52.7521233
0
LINE
8
DEFAULT_255_1_234
10
23.7380548
20
52.7521233
11
23.4119662
21
52.7521233
0
LINE
8
DEFAULT_255_1_234
10
23.4119662
20
52.7521233
11
23.4119662
21
52.8926788
0
LINE
8
DEFAULT_255_1_234
10
23.4119662
20
52.8926788
11
23.7380548
21
52.8926788
0
LINE
8
DEFAULT_255_1_234
10
23.7380548
20
52.8926788
11
23.7380548
21
53.2340276
0
LINE
8
DEFAULT_255_1_234
10
23.7380548
20
53.2340276
11
23.8874451
21
53.2340276
0
LINE
8
DEFAULT_255_1_234
10
22.3300911
20
60.8237534
11
22.3300911
21
60.7498614
0
LINE
8
DEFAULT_255_1_234
10
21.3895745
20
60.7394201
11
21.3895745
21
60.8237534
0
LINE
8
DEFAULT_255_1_234
10
22.1766849
20
60.7386169
11
22.1766849
21
60.8253597
0
LINE
8
DEFAULT_255_1_234
10
21.5429807
20
60.835801
11
21.5429807
21
60.7498614
0
ARC
8
DEFAULT_255_1_234
10
21.4658937
20
60.7459015
40
0.8642064
50
350.487711
51
0.2625388
0
ARC
8
DEFAULT_255_1_234
10
21.6952178
20
60.7064578
40
0.631518
50
336.0277639
51
350.5787438
0
ARC
8
DEFAULT_255_1_234
10
21.8297002
20
60.6456892
40
0.4839466
50
319.8877444
51
336.1328423
0
ARC
8
DEFAULT_255_1_234
10
21.8899643
20
60.597458
40
0.4067874
50
302.4806467
51
319.6143626
0
ARC
8
DEFAULT_255_1_234
10
21.8784653
20
60.6196202
40
0.4316636
50
275.8195682
51
302.1884709
0
ARC
8
DEFAULT_255_1_234
10
21.8618286
20
60.7338665
40
0.5470306
50
269.9171439
51
276.3397983
0
ARC
8
DEFAULT_255_1_234
10
21.8573496
20
60.6652681
40
0.4784458
50
252.5219675
51
270.4416499
0
ARC
8
DEFAULT_255_1_234
10
21.8429755
20
60.6113592
40
0.422716
50
237.5352116
51
252.1857531
0
ARC
8
DEFAULT_255_1_234
10
21.8518951
20
60.6227363
40
0.4371052
50
209.063312
51
237.3492538
0
ARC
8
DEFAULT_255_1_234
10
21.9388799
20
60.6773685
40
0.5397041
50
205.1183774
51
209.6470015
0
ARC
8
DEFAULT_255_1_234
10
22.0185836
20
60.711183
40
0.6262326
50
188.7215458
51
204.8240747
0
ARC
8
DEFAULT_255_1_234
10
22.2183364
20
60.7448067
40
0.8287794
50
180.3723947
51
188.9252049
0
ARC
8
DEFAULT_255_1_234
10
22.2156116
20
60.8277402
40
0.8260467
50
169.5253763
51
180.2765336
0
ARC
8
DEFAULT_255_1_234
10
22.0253564
20
60.8627309
40
0.6326007
50
155.8315255
51
169.5089989
0
ARC
8
DEFAULT_255_1_234
10
21.8973066
20
60.9221348
40
0.4914567
50
139.6258461
51
156.0379525
0
ARC
8
DEFAULT_255_1_234
10
21.8383399
20
60.9695799
40
0.4158054
50
122.6416387
51
139.3430715
0
ARC
8
DEFAULT_255_1_234
10
21.8484019
20
60.9512451
40
0.4366739
50
93.0223692
51
122.455762
0
ARC
8
DEFAULT_255_1_234
10
21.8592016
20
60.8547709
40
0.5336137
50
89.975342
51
93.6341897
0
ARC
8
DEFAULT_255_1_234
10
21.8630795
20
60.8946242
40
0.4937738
50
73.746375
51
90.4233405
0
ARC
8
DEFAULT_255_1_234
10
21.8806373
20
60.9626287
40
0.4235786
50
57.662753
51
73.4518111
0
ARC
8
DEFAULT_255_1_234
10
21.879838
20
60.9647832
40
0.4221899
50
29.1440151
51
57.414694
0
ARC
8
DEFAULT_255_1_234
10
21.7863574
20
60.9064005
40
0.5322966
50
24.0982783
51
29.7323517
0
ARC
8
DEFAULT_255_1_234
10
21.682985
20
60.8635399
40
0.6441673
50
8.6655297
51
23.8241346
0
ARC
8
DEFAULT_255_1_234
10
21.4595588
20
60.8270854
40
0.8705386
50
359.7806941
51
8.8218784
0
ARC
8
DEFAULT_255_1_234
10
21.3448586
20
60.8296345
40
0.8318373
50
359.7055579
51
8.036044
0
ARC
8
DEFAULT_255_1_234
10
21.6448592
20
60.8733239
40
0.5286768
50
7.8928306
51
20.2962107
0
ARC
8
DEFAULT_255_1_234
10
21.8076162
20
60.9333395
40
0.3552073
50
20.3231126
51
36.4992797
0
ARC
8
DEFAULT_255_1_234
10
21.8761708
20
60.9861402
40
0.2686974
50
36.1437156
51
85.6627023
0
ARC
8
DEFAULT_255_1_234
10
21.8599254
20
60.8821221
40
0.373739
50
84.3852322
51
90.0757696
0
ARC
8
DEFAULT_255_1_234
10
21.8556927
20
60.9481839
40
0.3076997
50
89.3038458
51
109.9045693
0
ARC
8
DEFAULT_255_1_234
10
21.8464318
20
60.9864062
40
0.2686424
50
110.8228367
51
143.9179474
0
ARC
8
DEFAULT_255_1_234
10
21.9397978
20
60.9151236
40
0.3860887
50
143.5289163
51
163.2980757
0
ARC
8
DEFAULT_255_1_234
10
22.1305799
20
60.8551433
40
0.5860659
50
163.0418846
51
174.3140048
0
ARC
8
DEFAULT_255_1_234
10
22.3709911
20
60.8273854
40
0.8280531
50
174.0509143
51
179.4176892
0
ARC
8
DEFAULT_255_1_234
10
22.320565
20
60.7456954
40
0.7775954
50
179.6930361
51
188.7906598
0
ARC
8
DEFAULT_255_1_234
10
22.0542129
20
60.7030935
40
0.5078633
50
188.6331305
51
202.5629587
0
ARC
8
DEFAULT_255_1_234
10
21.9287721
20
60.6526996
40
0.3726913
50
202.8081362
51
216.1193925
0
ARC
8
DEFAULT_255_1_234
10
21.8478291
20
60.5875676
40
0.2689577
50
215.0755913
51
264.6379694
0
ARC
8
DEFAULT_255_1_234
10
21.860524
20
60.6706513
40
0.3528978
50
263.846392
51
270.0833719
0
ARC
8
DEFAULT_255_1_234
10
21.8646631
20
60.6448374
40
0.3271036
50
269.3649385
51
287.5152008
0
ARC
8
DEFAULT_255_1_234
10
21.8824788
20
60.5801238
40
0.2600406
50
288.0630309
51
323.8113348
0
ARC
8
DEFAULT_255_1_234
10
21.795363
20
60.6451049
40
0.3687189
50
323.6547608
51
342.6590488
0
ARC
8
DEFAULT_255_1_234
10
21.5922245
20
60.7111952
40
0.5823286
50
342.4091907
51
353.6451149
0
ARC
8
DEFAULT_255_1_234
10
21.3090756
20
60.746419
40
0.8676442
50
353.4029884
51
359.4847795
0
LINE
8
DEFAULT_255_1_234
10
23.0111825
20
61.3779433
11
23.0111825
21
60.2029
0
LINE
8
DEFAULT_255_1_234
10
23.0111825
20
60.2029
11
22.8617921
21
60.2029
0
LINE
8
DEFAULT_255_1_234
10
22.8617921
20
60.2029
11
22.8617921
21
61.1932133
0
LINE
8
DEFAULT_255_1_234
10
22.8617921
20
61.1932133
11
22.5622083
21
61.0831785
0
LINE
8
DEFAULT_255_1_234
10
22.5622083
20
61.0831785
11
22.5622083
21
61.2181117
0
LINE
8
DEFAULT_255_1_234
10
22.5622083
20
61.2181117
11
22.9878904
21
61.3779433
0
LINE
8
DEFAULT_255_1_234
10
22.9878904
20
61.3779433
11
23.0111825
21
61.3779433
0
LINE
8
DEFAULT_255_1_234
10
23.8874451
20
61.1715276
11
23.8874451
21
60.8301788
0
LINE
8
DEFAULT_255_1_234
10
23.8874451
20
60.8301788
11
24.2135337
21
60.8301788
0
LINE
8
DEFAULT_255_1_234
10
24.2135337
20
60.8301788
11
24.2135337
21
60.6896233
0
LINE
8
DEFAULT_255_1_234
10
24.2135337
20
60.6896233
11
23.8874451
21
60.6896233
0
LINE
8
DEFAULT_255_1_234
10
23.8874451
20
60.6896233
11
23.8874451
21
60.3201634
0
LINE
8
DEFAULT_255_1_234
10
23.8874451
20
60.3201634
11
23.7380548
21
60.3201634
0
LINE
8
DEFAULT_255_1_234
10
23.7380548
20
60.3201634
11
23.7380548
21
60.6896233
0
LINE
8
DEFAULT_255_1_234
10
23.7380548
20
60.6896233
11
23.4119662
21
60.6896233
0
LINE
8
DEFAULT_255_1_234
10
23.4119662
20
60.6896233
11
23.4119662
21
60.8301788
0
LINE
8
DEFAULT_255_1_234
10
23.4119662
20
60.8301788
11
23.7380548
21
60.8301788
0
LINE
8
DEFAULT_255_1_234
10
23.7380548
20
60.8301788
11
23.7380548
21
61.1715276
0
LINE
8
DEFAULT_255_1_234
10
23.7380548
20
61.1715276
11
23.8874451
21
61.1715276
0
LINE
8
DEFAULT_255_1_234
10
22.3300911
20
68.7612534
11
22.3300911
21
68.6873614
0
LINE
8
DEFAULT_255_1_234
10
21.3895745
20
68.6769201
11
21.3895745
21
68.7612534
0
LINE
8
DEFAULT_255_1_234
10
22.1766849
20
68.6761169
11
22.1766849
21
68.7628597
0
LINE
8
DEFAULT_255_1_234
10
21.5429807
20
68.773301
11
21.5429807
21
68.6873614
0
ARC
8
DEFAULT_255_1_234
10
21.4658937
20
68.6834015
40
0.8642064
50
350.487711
51
0.2625388
0
ARC
8
DEFAULT_255_1_234
10
21.6952178
20
68.6439578
40
0.631518
50
336.0277639
51
350.5787438
0
ARC
8
DEFAULT_255_1_234
10
21.8297002
20
68.5831892
40
0.4839466
50
319.8877444
51
336.1328423
0
ARC
8
DEFAULT_255_1_234
10
21.8899643
20
68.534958
40
0.4067874
50
302.4806467
51
319.6143626
0
ARC
8
DEFAULT_255_1_234
10
21.8784653
20
68.5571202
40
0.4316636
50
275.8195682
51
302.1884709
0
ARC
8
DEFAULT_255_1_234
10
21.8618286
20
68.6713665
40
0.5470306
50
269.9171439
51
276.3397983
0
ARC
8
DEFAULT_255_1_234
10
21.8573496
20
68.6027681
40
0.4784458
50
252.5219675
51
270.4416499
0
ARC
8
DEFAULT_255_1_234
10
21.8429755
20
68.5488592
40
0.422716
50
237.5352116
51
252.1857531
0
ARC
8
DEFAULT_255_1_234
10
21.8518951
20
68.5602363
40
0.4371052
50
209.063312
51
237.3492538
0
ARC
8
DEFAULT_255_1_234
10
21.9388799
20
68.6148685
40
0.5397041
50
205.1183774
51
209.6470015
0
ARC
8
DEFAULT_255_1_234
10
22.0185836
20
68.648683
40
0.6262326
50
188.7215458
51
204.8240747
0
ARC
8
DEFAULT_255_1_234
10
22.2183364
20
68.6823067
40
0.8287794
50
180.3723947
51
188.9252049
0
ARC
8
DEFAULT_255_1_234
10
22.2156116
20
68.7652402
40
0.8260467
50
169.5253763
51
180.2765336
0
ARC
8
DEFAULT_255_1_234
10
22.0253564
20
68.8002309
40
0.6326007
50
155.8315255
51
169.5089989
0
ARC
8
DEFAULT_255_1_234
10
21.8973066
20
68.8596348
40
0.4914567
50
139.6258461
51
156.0379525
0
ARC
8
DEFAULT_255_1_234
10
21.8383399
20
68.9070799
40
0.4158054
50
122.6416387
51
139.3430715
0
ARC
8
DEFAULT_255_1_234
10
21.8484019
20
68.8887451
40
0.4366739
50
93.0223692
51
122.455762
0
ARC
8
DEFAULT_255_1_234
10
21.8592016
20
68.7922709
40
0.5336137
50
89.975342
51
93.6341897
0
ARC
8
DEFAULT_255_1_234
10
21.8630795
20
68.8321242
40
0.4937738
50
73.746375
51
90.4233405
0
ARC
8
DEFAULT_255_1_234
10
21.8806373
20
68.9001287
40
0.4235786
50
57.662753
51
73.4518111
0
ARC
8
DEFAULT_255_1_234
10
21.879838
20
68.9022832
40
0.4221899
50
29.1440151
51
57.414694
0
ARC
8
DEFAULT_255_1_234
10
21.7863574
20
68.8439005
40
0.5322966
50
24.0982783
51
29.7323517
0
ARC
8
DEFAULT_255_1_234
10
21.682985
20
68.8010399
40
0.6441673
50
8.6655297
51
23.8241346
0
ARC
8
DEFAULT_255_1_234
10
21.4595588
20
68.7645854
40
0.8705386
50
359.7806941
51
8.8218784
0
ARC
8
DEFAULT_255_1_234
10
21.3448586
20
68.7671345
40
0.8318373
50
359.7055579
51
8.036044
0
ARC
8
DEFAULT_255_1_234
10
21.6448592
20
68.8108239
40
0.5286768
50
7.8928306
51
20.2962107
0
ARC
8
DEFAULT_255_1_234
10
21.8076162
20
68.8708395
40
0.3552073
50
20.3231126
51
36.4992797
0
ARC
8
DEFAULT_255_1_234
10
21.8761708
20
68.9236402
40
0.2686974
50
36.1437156
51
85.6627023
0
ARC
8
DEFAULT_255_1_234
10
21.8599254
20
68.8196221
40
0.373739
50
84.3852322
51
90.0757696
0
ARC
8
DEFAULT_255_1_234
10
21.8556927
20
68.8856839
40
0.3076997
50
89.3038458
51
109.9045693
0
ARC
8
DEFAULT_255_1_234
10
21.8464318
20
68.9239062
40
0.2686424
50
110.8228367
51
143.9179474
0
ARC
8
DEFAULT_255_1_234
10
21.9397978
20
68.8526236
40
0.3860887
50
143.5289163
51
163.2980757
0
ARC
8
DEFAULT_255_1_234
10
22.1305799
20
68.7926433
40
0.5860659
50
163.0418846
51
174.3140048
0
ARC
8
DEFAULT_255_1_234
10
22.3709911
20
68.7648854
40
0.8280531
50
174.0509143
51
179.4176892
0
ARC
8
DEFAULT_255_1_234
10
22.320565
20
68.6831954
40
0.7775954
50
179.6930361
51
188.7906598
0
ARC
8
DEFAULT_255_1_234
10
22.0542129
20
68.6405935
40
0.5078633
50
188.6331305
51
202.5629587
0
ARC
8
DEFAULT_255_1_234
10
21.9287721
20
68.5901996
40
0.3726913
50
202.8081362
51
216.1193925
0
ARC
8
DEFAULT_255_1_234
10
21.8478291
20
68.5250676
40
0.2689577
50
215.0755913
51
264.6379694
0
ARC
8
DEFAULT_255_1_234
10
21.860524
20
68.6081513
40
0.3528978
50
263.846392
51
270.0833719
0
ARC
8
DEFAULT_255_1_234
10
21.8646631
20
68.5823374
40
0.3271036
50
269.3649385
51
287.5152008
0
ARC
8
DEFAULT_255_1_234
10
21.8824788
20
68.5176238
40
0.2600406
50
288.0630309
51
323.8113348
0
ARC
8
DEFAULT_255_1_234
10
21.795363
20
68.5826049
40
0.3687189
50
323.6547608
51
342.6590488
0
ARC
8
DEFAULT_255_1_234
10
21.5922245
20
68.6486952
40
0.5823286
50
342.4091907
51
353.6451149
0
ARC
8
DEFAULT_255_1_234
10
21.3090756
20
68.683919
40
0.8676442
50
353.4029884
51
359.4847795
0
LINE
8
DEFAULT_255_1_234
10
23.2561505
20
68.8319327
11
23.2561505
21
68.6391709
0
LINE
8
DEFAULT_255_1_234
10
22.5180337
20
68.6190916
11
22.5180337
21
68.8174755
0
LINE
8
DEFAULT_255_1_234
10
23.1075633
20
68.5990123
11
23.1075633
21
68.8423739
0
LINE
8
DEFAULT_255_1_234
10
22.6666209
20
68.8536184
11
22.6666209
21
68.6158789
0
ARC
8
DEFAULT_255_1_234
10
22.0314394
20
68.6342805
40
1.2247208
50
353.8441951
51
0.2287902
0
ARC
8
DEFAULT_255_1_234
10
22.4953898
20
68.5824806
40
0.7578929
50
344.4934747
51
353.9765454
0
ARC
8
DEFAULT_255_1_234
10
22.7946488
20
68.4973981
40
0.4467846
50
329.2803592
51
344.7472793
0
ARC
8
DEFAULT_255_1_234
10
22.8939313
20
68.4429018
40
0.3336173
50
324.9352394
51
328.6160465
0
ARC
8
DEFAULT_255_1_234
10
22.9316422
20
68.4165427
40
0.2876076
50
280.580143
51
324.9173126
0
ARC
8
DEFAULT_255_1_234
10
22.8915214
20
68.5836099
40
0.4592847
50
269.5977311
51
281.6734359
0
ARC
8
DEFAULT_255_1_234
10
22.884312
20
68.5716173
40
0.4472986
50
256.6228859
51
270.51044
0
ARC
8
DEFAULT_255_1_234
10
22.8441098
20
68.4167877
40
0.2873874
50
215.8618325
51
257.2788573
0
ARC
8
DEFAULT_255_1_234
10
22.946213
20
68.4852977
40
0.4102928
50
197.9693508
51
215.2623606
0
ARC
8
DEFAULT_255_1_234
10
23.1947245
20
68.5691709
40
0.6725652
50
187.8816417
51
198.2346507
0
ARC
8
DEFAULT_255_1_234
10
23.5905453
20
68.6263079
40
1.0724845
50
180.8976217
51
188.0055519
0
ARC
8
DEFAULT_255_1_234
10
23.8705642
20
68.6366777
40
1.3526448
50
180.7449369
51
181.1510016
0
ARC
8
DEFAULT_255_1_234
10
23.7128371
20
68.8223042
40
1.1948131
50
173.7675579
51
180.231553
0
ARC
8
DEFAULT_255_1_234
10
23.2610517
20
68.8733666
40
0.7401564
50
164.3058563
51
173.9002247
0
ARC
8
DEFAULT_255_1_234
10
22.9698586
20
68.9572656
40
0.4371288
50
148.7922025
51
164.568378
0
ARC
8
DEFAULT_255_1_234
10
22.8747038
20
69.0103929
40
0.3282386
50
144.5883898
51
148.1176286
0
ARC
8
DEFAULT_255_1_234
10
22.8403936
20
69.0343315
40
0.2864044
50
101.6440918
51
144.514236
0
ARC
8
DEFAULT_255_1_234
10
22.8829003
20
68.8654069
40
0.4604934
50
89.5284041
51
102.5819763
0
ARC
8
DEFAULT_255_1_234
10
22.8908091
20
68.8615018
40
0.464401
50
77.0437873
51
90.5081339
0
ARC
8
DEFAULT_255_1_234
10
22.9310092
20
69.0257615
40
0.2953195
50
48.2778575
51
77.4994676
0
ARC
8
DEFAULT_255_1_234
10
22.9382724
20
69.0386746
40
0.2808655
50
36.3142134
51
47.6305865
0
ARC
8
DEFAULT_255_1_234
10
22.8514031
20
68.9801515
40
0.3855453
50
18.2931786
51
35.6769206
0
ARC
8
DEFAULT_255_1_234
10
22.5970789
20
68.8928593
40
0.654423
50
8.024666
51
18.5605216
0
ARC
8
DEFAULT_255_1_234
10
22.180771
20
68.8313792
40
1.0752407
50
1.1274072
51
8.1718305
0
ARC
8
DEFAULT_255_1_234
10
21.85719
20
68.8186885
40
1.3990231
50
0.5424119
51
1.3863029
0
ARC
8
DEFAULT_255_1_234
10
22.0393278
20
68.8459342
40
1.0682415
50
359.8090433
51
4.9407866
0
ARC
8
DEFAULT_255_1_234
10
22.4603292
20
68.8835113
40
0.6455691
50
4.8362157
51
12.2904523
0
ARC
8
DEFAULT_255_1_234
10
22.7358407
20
68.9448965
40
0.3633074
50
12.0805627
51
23.8173984
0
ARC
8
DEFAULT_255_1_234
10
22.8532112
20
68.9945919
40
0.2358723
50
24.2871213
51
31.3935614
0
ARC
8
DEFAULT_255_1_234
10
22.9056809
20
69.0289233
40
0.1732111
50
30.7407893
51
82.4657128
0
ARC
8
DEFAULT_255_1_234
10
22.8876944
20
68.9405691
40
0.263235
50
81.1060089
51
90.2184952
0
ARC
8
DEFAULT_255_1_234
10
22.8841242
20
68.9663924
40
0.2374236
50
89.3806855
51
105.6762551
0
ARC
8
DEFAULT_255_1_234
10
22.8657873
20
69.0330567
40
0.1682847
50
105.7981136
51
149.7388061
0
ARC
8
DEFAULT_255_1_234
10
22.9721951
20
68.969095
40
0.2924306
50
149.4208916
51
163.6286378
0
ARC
8
DEFAULT_255_1_234
10
23.1812839
20
68.905325
40
0.5110213
50
163.3763315
51
172.1410975
0
ARC
8
DEFAULT_255_1_234
10
23.5113558
20
68.8580518
40
0.8444586
50
172.0259487
51
178.0703232
0
ARC
8
DEFAULT_255_1_234
10
23.8143648
20
68.8436906
40
1.1477868
50
177.8631668
51
179.5044149
0
ARC
8
DEFAULT_255_1_234
10
23.7071052
20
68.6122389
40
1.0404907
50
179.7995573
51
185.2460446
0
ARC
8
DEFAULT_255_1_234
10
23.3028092
20
68.5739513
40
0.6343885
50
185.1411642
51
193.0079639
0
ARC
8
DEFAULT_255_1_234
10
23.0384564
20
68.5114641
40
0.3627568
50
192.7897626
51
205.2507664
0
ARC
8
DEFAULT_255_1_234
10
22.9338111
20
68.4647415
40
0.2481908
50
205.8005384
51
211.2537509
0
ARC
8
DEFAULT_255_1_234
10
22.8814552
20
68.429658
40
0.1852521
50
210.3789793
51
238.4008143
0
ARC
8
DEFAULT_255_1_234
10
22.8795074
20
68.4343376
40
0.1882621
50
239.6520629
51
265.9793761
0
ARC
8
DEFAULT_255_1_234
10
22.8880274
20
68.5015427
40
0.2559272
50
265.1315437
51
270.060332
0
ARC
8
DEFAULT_255_1_234
10
22.8909053
20
68.4691534
40
0.2235528
50
269.3314664
51
287.2178029
0
ARC
8
DEFAULT_255_1_234
10
22.9046905
20
68.4188279
40
0.1714108
50
287.7958004
51
329.080874
0
ARC
8
DEFAULT_255_1_234
10
22.8089361
20
68.478593
40
0.2842745
50
328.6634704
51
343.3325132
0
ARC
8
DEFAULT_255_1_234
10
22.5916381
20
68.5462863
40
0.5118644
50
343.0499468
51
351.9393422
0
ARC
8
DEFAULT_255_1_234
10
22.2449681
20
68.5973949
40
0.8622784
50
351.8069023
51
357.7959224
0
ARC
8
DEFAULT_255_1_234
10
21.9214237
20
68.6141721
40
1.1862365
50
357.5871873
51
359.2677531
0
LINE
8
DEFAULT_255_1_234
10
23.8874451
20
69.1090276
11
23.8874451
21
68.7676788
0
LINE
8
DEFAULT_255_1_234
10
23.8874451
20
68.7676788
11
24.2135337
21
68.7676788
0
LINE
8
DEFAULT_255_1_234
10
24.2135337
20
68.7676788
11
24.2135337
21
68.6271233
0
LINE
8
DEFAULT_255_1_234
10
24.2135337
20
68.6271233
11
23.8874451
21
68.6271233
0
LINE
8
DEFAULT_255_1_234
10
23.8874451
20
68.6271233
11
23.8874451
21
68.2576634
0
LINE
8
DEFAULT_255_1_234
10
23.8874451
20
68.2576634
11
23.7380548
21
68.2576634
0
LINE
8
DEFAULT_255_1_234
10
23.7380548
20
68.2576634
11
23.7380548
21
68.6271233
0
LINE
8
DEFAULT_255_1_234
10
23.7380548
20
68.6271233
11
23.4119662
21
68.6271233
0
LINE
8
DEFAULT_255_1_234
10
23.4119662
20
68.6271233
11
23.4119662
21
68.7676788
0
LINE
8
DEFAULT_255_1_234
10
23.4119662
20
68.7676788
11
23.7380548
21
68.7676788
0
LINE
8
DEFAULT_255_1_234
10
23.7380548
20
68.7676788
11
23.7380548
21
69.1090276
0
LINE
8
DEFAULT_255_1_234
10
23.7380548
20
69.1090276
11
23.8874451
21
69.1090276
0
LINE
8
DEFAULT_255_1_234
10
23.0452364
20
77.2473211
11
23.2444235
21
77.2473211
0
LINE
8
DEFAULT_255_1_234
10
23.2444235
20
77.2473211
11
23.6267342
21
76.2931506
0
LINE
8
DEFAULT_255_1_234
10
23.6267342
20
76.2931506
11
24.009045
21
77.2473211
0
LINE
8
DEFAULT_255_1_234
10
24.009045
20
77.2473211
11
24.2090353
21
77.2473211
0
LINE
8
DEFAULT_255_1_234
10
24.2090353
20
77.2473211
11
24.2090353
21
76.0779
0
LINE
8
DEFAULT_255_1_234
10
24.2090353
20
76.0779
11
24.0548259
21
76.0779
0
LINE
8
DEFAULT_255_1_234
10
24.0548259
20
76.0779
11
24.0548259
21
76.5332996
0
LINE
8
DEFAULT_255_1_234
10
24.0548259
20
76.5332996
11
24.069283
21
77.0248419
0
LINE
8
DEFAULT_255_1_234
10
24.069283
20
77.0248419
11
23.6853659
21
76.0779
0
LINE
8
DEFAULT_255_1_234
10
23.6853659
20
76.0779
11
23.5672994
21
76.0779
0
LINE
8
DEFAULT_255_1_234
10
23.5672994
20
76.0779
11
23.1841854
21
77.0224324
0
LINE
8
DEFAULT_255_1_234
10
23.1841854
20
77.0224324
11
23.1994458
21
76.5332996
0
LINE
8
DEFAULT_255_1_234
10
23.1994458
20
76.5332996
11
23.1994458
21
76.0779
0
LINE
8
DEFAULT_255_1_234
10
23.1994458
20
76.0779
11
23.0452364
21
76.0779
0
LINE
8
DEFAULT_255_1_234
10
23.0452364
20
76.0779
11
23.0452364
21
77.2473211
0
ENDSEC
0
EOF