0
SECTION
2
HEADER
9
$MEASUREMENT
70
1
0
ENDSEC
0
SECTION
2
TABLES
0
TABLE
2
LTYPE
0
LTYPE
72
65
70
64
2
CONTINUOUS
3
______
73
0
40
0
0
ENDTAB
0
TABLE
2
LAYER
0
LAYER
2
DEFAULT_255_2_778
70
0
62
255
6
CONTINUOUS
0
LAYER
2
DEFAULT_255_1_234
70
0
62
255
6
CONTINUOUS
0
LAYER
2
DEFAULT_255_2_778_1
70
0
62
255
6
CONTINUOUS
0
ENDTAB
0
ENDSEC
0
SECTION
2
ENTITIES
0
ARC
8
DEFAULT_255_2_778
10
3.5700693
20
155.1802019
40
0.7914215
50
129.1312896
51
180.1450914
0
ARC
8
DEFAULT_255_2_778
10
3.5703345
20
155.180689
40
0.7912112
50
89.854026
51
129.1684493
0
ARC
8
DEFAULT_255_2_778
10
25.7993937
20
155.1803756
40
0.7915249
50
39.4792447
51
90.147911
0
ARC
8
DEFAULT_255_2_778
10
25.7999935
20
155.1802222
40
0.7911595
50
359.8533901
51
39.5154338
0
ARC
8
DEFAULT_255_2_778
10
25.7996693
20
-1.9863503
40
0.7914836
50
309.4761667
51
0.1482649
0
ARC
8
DEFAULT_255_2_778
10
25.799398
20
-1.9867814
40
0.7913235
50
269.8517415
51
309.511178
0
ARC
8
DEFAULT_255_2_778
10
3.570342
20
-1.9867233
40
0.7913815
50
219.1282118
51
270.1454017
0
ARC
8
DEFAULT_255_2_778
10
3.5700247
20
-1.9863408
40
0.7913769
50
179.8524075
51
219.1641908
0
LINE
8
DEFAULT_255_2_778
10
3.5723503
20
155.9718978
11
25.7973503
21
155.9718978
0
LINE
8
DEFAULT_255_2_778
10
26.5911503
20
155.1781978
11
26.5911503
21
-1.9843022
0
LINE
8
DEFAULT_255_2_778
10
25.7973503
20
-2.7781022
11
3.5723503
21
-2.7781022
0
LINE
8
DEFAULT_255_2_778
10
2.7786503
20
-1.9843022
11
2.7786503
21
155.1781978
0
LINE
8
DEFAULT_255_1_234
10
10.410985
20
-0.0087609
11
10.410985
21
-0.1348592
0
LINE
8
DEFAULT_255_1_234
10
10.410985
20
-0.1348592
11
9.9202458
21
-0.1348592
0
LINE
8
DEFAULT_255_1_234
10
9.9202458
20
-0.1348592
11
9.9202458
21
-0.6513
0
LINE
8
DEFAULT_255_1_234
10
9.9202458
20
-0.6513
11
9.7660364
21
-0.6513
0
LINE
8
DEFAULT_255_1_234
10
9.7660364
20
-0.6513
11
9.7660364
21
0.5181211
0
LINE
8
DEFAULT_255_1_234
10
9.7660364
20
0.5181211
11
10.4904992
21
0.5181211
0
LINE
8
DEFAULT_255_1_234
10
10.4904992
20
0.5181211
11
10.4904992
21
0.3912196
0
LINE
8
DEFAULT_255_1_234
10
10.4904992
20
0.3912196
11
9.9202458
21
0.3912196
0
LINE
8
DEFAULT_255_1_234
10
9.9202458
20
0.3912196
11
9.9202458
21
-0.0087609
0
LINE
8
DEFAULT_255_1_234
10
9.9202458
20
-0.0087609
11
10.410985
21
-0.0087609
0
LINE
8
DEFAULT_255_1_234
10
10.6752292
20
0.5181211
11
10.8744163
21
0.5181211
0
LINE
8
DEFAULT_255_1_234
10
10.8744163
20
0.5181211
11
11.256727
21
-0.4360494
0
LINE
8
DEFAULT_255_1_234
10
11.256727
20
-0.4360494
11
11.6390377
21
0.5181211
0
LINE
8
DEFAULT_255_1_234
10
11.6390377
20
0.5181211
11
11.839028
21
0.5181211
0
LINE
8
DEFAULT_255_1_234
10
11.839028
20
0.5181211
11
11.839028
21
-0.6513
0
LINE
8
DEFAULT_255_1_234
10
11.839028
20
-0.6513
11
11.6848187
21
-0.6513
0
LINE
8
DEFAULT_255_1_234
10
11.6848187
20
-0.6513
11
11.6848187
21
-0.1959004
0
LINE
8
DEFAULT_255_1_234
10
11.6848187
20
-0.1959004
11
11.6992758
21
0.2956419
0
LINE
8
DEFAULT_255_1_234
10
11.6992758
20
0.2956419
11
11.3153587
21
-0.6513
0
LINE
8
DEFAULT_255_1_234
10
11.3153587
20
-0.6513
11
11.1972921
21
-0.6513
0
LINE
8
DEFAULT_255_1_234
10
11.1972921
20
-0.6513
11
10.8141782
21
0.2932324
0
LINE
8
DEFAULT_255_1_234
10
10.8141782
20
0.2932324
11
10.8294385
21
-0.1959004
0
LINE
8
DEFAULT_255_1_234
10
10.8294385
20
-0.1959004
11
10.8294385
21
-0.6513
0
LINE
8
DEFAULT_255_1_234
10
10.8294385
20
-0.6513
11
10.6752292
21
-0.6513
0
LINE
8
DEFAULT_255_1_234
10
10.6752292
20
-0.6513
11
10.6752292
21
0.5181211
0
LINE
8
DEFAULT_255_1_234
10
12.2598911
20
-0.0955037
11
12.1410214
21
-0.0649831
0
LINE
8
DEFAULT_255_1_234
10
12.1410214
20
-0.0649831
11
12.2004563
21
0.5181211
0
LINE
8
DEFAULT_255_1_234
10
12.2004563
20
0.5181211
11
12.7996239
21
0.5181211
0
LINE
8
DEFAULT_255_1_234
10
12.7996239
20
0.5181211
11
12.7996239
21
0.3807784
0
LINE
8
DEFAULT_255_1_234
10
12.7996239
20
0.3807784
11
12.3265545
21
0.3807784
0
LINE
8
DEFAULT_255_1_234
10
12.3265545
20
0.3807784
11
12.2912149
21
0.0619184
0
LINE
8
DEFAULT_255_1_234
10
12.0992563
20
-0.3436844
11
12.2398118
21
-0.3436844
0
LINE
8
DEFAULT_255_1_234
10
12.2992466
20
-0.0633768
11
12.2598911
21
-0.0955037
0
ARC
8
DEFAULT_255_1_234
10
12.4766933
20
-0.256077
40
0.3681349
50
93.7182161
51
120.2538958
0
ARC
8
DEFAULT_255_1_234
10
12.4861196
20
-0.3368606
40
0.449379
50
89.9660152
51
94.2496022
0
ARC
8
DEFAULT_255_1_234
10
12.490193
20
-0.2779451
40
0.390482
50
73.8043271
51
90.5585896
0
ARC
8
DEFAULT_255_1_234
10
12.5136827
20
-0.1921398
40
0.3015334
50
41.3071453
51
73.5430202
0
ARC
8
DEFAULT_255_1_234
10
12.4720654
20
-0.2279676
40
0.3564457
50
13.5075983
51
41.2174222
0
ARC
8
DEFAULT_255_1_234
10
12.3078858
20
-0.2709514
40
0.5261351
50
1.1331335
51
13.8829381
0
ARC
8
DEFAULT_255_1_234
10
12.1667227
20
-0.2785335
40
0.6674378
50
359.9919444
51
1.544251
0
ARC
8
DEFAULT_255_1_234
10
12.2944053
20
-0.282672
40
0.5397702
50
347.8572367
51
0.4293338
0
ARC
8
DEFAULT_255_1_234
10
12.4694371
20
-0.3223264
40
0.3603188
50
323.673004
51
348.1672506
0
ARC
8
DEFAULT_255_1_234
10
12.4988879
20
-0.3402832
40
0.3259678
50
316.8171152
51
323.1492751
0
ARC
8
DEFAULT_255_1_234
10
12.5050068
20
-0.343954
40
0.3189975
50
281.8396411
51
316.5457803
0
ARC
8
DEFAULT_255_1_234
10
12.4674331
20
-0.1884238
40
0.4789527
50
269.5770101
51
282.4214771
0
ARC
8
DEFAULT_255_1_234
10
12.4603143
20
-0.2097875
40
0.45759
50
256.2427136
51
270.4486331
0
ARC
8
DEFAULT_255_1_234
10
12.4304045
20
-0.3297771
40
0.3339303
50
228.9023911
51
256.3314342
0
ARC
8
DEFAULT_255_1_234
10
12.4230278
20
-0.3414254
40
0.32031
50
193.753695
51
228.5271154
0
ARC
8
DEFAULT_255_1_234
10
12.5468232
20
-0.30512
40
0.4492253
50
184.924711
51
194.497588
0
ARC
8
DEFAULT_255_1_234
10
12.5660799
20
-0.3015409
40
0.3289787
50
187.3600538
51
198.6732863
0
ARC
8
DEFAULT_255_1_234
10
12.4611093
20
-0.3379326
40
0.217884
50
198.4451669
51
217.794479
0
ARC
8
DEFAULT_255_1_234
10
12.4315268
20
-0.3588915
40
0.1816698
50
218.2887171
51
228.5612368
0
ARC
8
DEFAULT_255_1_234
10
12.4413055
20
-0.3457037
40
0.1980329
50
228.9654866
51
258.1234728
0
ARC
8
DEFAULT_255_1_234
10
12.4618765
20
-0.2576167
40
0.2884748
50
257.7258293
51
270.401361
0
ARC
8
DEFAULT_255_1_234
10
12.4663651
20
-0.3021179
40
0.2439788
50
269.4204404
51
286.4209037
0
ARC
8
DEFAULT_255_1_234
10
12.4812139
20
-0.3560343
40
0.1880666
50
286.7251356
51
320.600362
0
ARC
8
DEFAULT_255_1_234
10
12.4428964
20
-0.3249405
40
0.2374121
50
320.6712579
51
344.5441685
0
ARC
8
DEFAULT_255_1_234
10
12.327229
20
-0.2909955
40
0.3579479
50
344.2412205
51
356.7357071
0
ARC
8
DEFAULT_255_1_234
10
12.2023439
20
-0.2806556
40
0.4832297
50
356.3548756
51
0.0500261
0
ARC
8
DEFAULT_255_1_234
10
12.3359948
20
-0.277535
40
0.3495889
50
359.5576869
51
12.953486
0
ARC
8
DEFAULT_255_1_234
10
12.4414845
20
-0.2519566
40
0.2410532
50
12.6490276
51
41.6081334
0
ARC
8
DEFAULT_255_1_234
10
12.4645216
20
-0.2323679
40
0.2108218
50
41.7850273
51
85.9892764
0
ARC
8
DEFAULT_255_1_234
10
12.4521953
20
-0.3136538
40
0.2928454
50
84.6957577
51
90.0676183
0
ARC
8
DEFAULT_255_1_234
10
12.4498437
20
-0.3805284
40
0.3597255
50
89.6804936
51
99.1614436
0
ARC
8
DEFAULT_255_1_234
10
12.4293068
20
-0.2577869
40
0.235281
50
98.9830931
51
113.8908934
0
ARC
8
DEFAULT_255_1_234
10
12.4063478
20
-0.2036413
40
0.176479
50
114.1950727
51
127.3641004
0
LINE
8
DEFAULT_255_1_234
10
13.7296992
20
0.0402327
11
13.7296992
21
-0.1525291
0
LINE
8
DEFAULT_255_1_234
10
12.9915825
20
-0.1726084
11
12.9915825
21
0.0257755
0
LINE
8
DEFAULT_255_1_234
10
13.5811121
20
-0.1926877
11
13.5811121
21
0.0506739
0
LINE
8
DEFAULT_255_1_234
10
13.1401696
20
0.0619184
11
13.1401696
21
-0.1758211
0
ARC
8
DEFAULT_255_1_234
10
12.5049882
20
-0.1574195
40
1.2247208
50
353.8441951
51
0.2287902
0
ARC
8
DEFAULT_255_1_234
10
12.9689385
20
-0.2092194
40
0.7578929
50
344.4934747
51
353.9765454
0
ARC
8
DEFAULT_255_1_234
10
13.2681976
20
-0.2943019
40
0.4467846
50
329.2803592
51
344.7472793
0
ARC
8
DEFAULT_255_1_234
10
13.36748
20
-0.3487982
40
0.3336173
50
324.9352394
51
328.6160465
0
ARC
8
DEFAULT_255_1_234
10
13.4051909
20
-0.3751573
40
0.2876076
50
280.580143
51
324.9173126
0
ARC
8
DEFAULT_255_1_234
10
13.3650702
20
-0.2080901
40
0.4592847
50
269.5977311
51
281.6734359
0
ARC
8
DEFAULT_255_1_234
10
13.3578607
20
-0.2200827
40
0.4472986
50
256.6228859
51
270.51044
0
ARC
8
DEFAULT_255_1_234
10
13.3176585
20
-0.3749123
40
0.2873874
50
215.8618325
51
257.2788573
0
ARC
8
DEFAULT_255_1_234
10
13.4197617
20
-0.3064023
40
0.4102928
50
197.9693508
51
215.2623606
0
ARC
8
DEFAULT_255_1_234
10
13.6682732
20
-0.2225291
40
0.6725652
50
187.8816417
51
198.2346507
0
ARC
8
DEFAULT_255_1_234
10
14.0640941
20
-0.1653921
40
1.0724845
50
180.8976217
51
188.0055519
0
ARC
8
DEFAULT_255_1_234
10
14.3441129
20
-0.1550223
40
1.3526448
50
180.7449369
51
181.1510016
0
ARC
8
DEFAULT_255_1_234
10
14.1863858
20
0.0306042
40
1.1948131
50
173.7675579
51
180.231553
0
ARC
8
DEFAULT_255_1_234
10
13.7346004
20
0.0816666
40
0.7401564
50
164.3058563
51
173.9002247
0
ARC
8
DEFAULT_255_1_234
10
13.4434073
20
0.1655656
40
0.4371288
50
148.7922025
51
164.568378
0
ARC
8
DEFAULT_255_1_234
10
13.3482526
20
0.2186929
40
0.3282386
50
144.5883898
51
148.1176286
0
ARC
8
DEFAULT_255_1_234
10
13.3139423
20
0.2426315
40
0.2864044
50
101.6440918
51
144.514236
0
ARC
8
DEFAULT_255_1_234
10
13.356449
20
0.0737069
40
0.4604934
50
89.5284041
51
102.5819763
0
ARC
8
DEFAULT_255_1_234
10
13.3643578
20
0.0698018
40
0.464401
50
77.0437873
51
90.5081339
0
ARC
8
DEFAULT_255_1_234
10
13.404558
20
0.2340615
40
0.2953195
50
48.2778575
51
77.4994676
0
ARC
8
DEFAULT_255_1_234
10
13.4118211
20
0.2469746
40
0.2808655
50
36.3142134
51
47.6305865
0
ARC
8
DEFAULT_255_1_234
10
13.3249518
20
0.1884515
40
0.3855453
50
18.2931786
51
35.6769206
0
ARC
8
DEFAULT_255_1_234
10
13.0706277
20
0.1011593
40
0.654423
50
8.024666
51
18.5605216
0
ARC
8
DEFAULT_255_1_234
10
12.6543197
20
0.0396792
40
1.0752407
50
1.1274072
51
8.1718305
0
ARC
8
DEFAULT_255_1_234
10
12.3307387
20
0.0269885
40
1.3990231
50
0.5424119
51
1.3863029
0
ARC
8
DEFAULT_255_1_234
10
12.5128765
20
0.0542342
40
1.0682415
50
359.8090433
51
4.9407866
0
ARC
8
DEFAULT_255_1_234
10
12.9338779
20
0.0918113
40
0.6455691
50
4.8362157
51
12.2904523
0
ARC
8
DEFAULT_255_1_234
10
13.2093894
20
0.1531965
40
0.3633074
50
12.0805627
51
23.8173984
0
ARC
8
DEFAULT_255_1_234
10
13.3267599
20
0.2028919
40
0.2358723
50
24.2871213
51
31.3935614
0
ARC
8
DEFAULT_255_1_234
10
13.3792297
20
0.2372233
40
0.1732111
50
30.7407893
51
82.4657128
0
ARC
8
DEFAULT_255_1_234
10
13.3612431
20
0.1488691
40
0.263235
50
81.1060089
51
90.2184952
0
ARC
8
DEFAULT_255_1_234
10
13.357673
20
0.1746924
40
0.2374236
50
89.3806855
51
105.6762551
0
ARC
8
DEFAULT_255_1_234
10
13.339336
20
0.2413567
40
0.1682847
50
105.7981136
51
149.7388061
0
ARC
8
DEFAULT_255_1_234
10
13.4457439
20
0.177395
40
0.2924306
50
149.4208916
51
163.6286378
0
ARC
8
DEFAULT_255_1_234
10
13.6548327
20
0.113625
40
0.5110213
50
163.3763315
51
172.1410975
0
ARC
8
DEFAULT_255_1_234
10
13.9849046
20
0.0663518
40
0.8444586
50
172.0259487
51
178.0703232
0
ARC
8
DEFAULT_255_1_234
10
14.2879135
20
0.0519906
40
1.1477868
50
177.8631668
51
179.5044149
0
ARC
8
DEFAULT_255_1_234
10
14.180654
20
-0.1794611
40
1.0404907
50
179.7995573
51
185.2460446
0
ARC
8
DEFAULT_255_1_234
10
13.7763579
20
-0.2177487
40
0.6343885
50
185.1411642
51
193.0079639
0
ARC
8
DEFAULT_255_1_234
10
13.5120051
20
-0.2802359
40
0.3627568
50
192.7897626
51
205.2507664
0
ARC
8
DEFAULT_255_1_234
10
13.4073599
20
-0.3269585
40
0.2481908
50
205.8005384
51
211.2537509
0
ARC
8
DEFAULT_255_1_234
10
13.3550039
20
-0.362042
40
0.1852521
50
210.3789793
51
238.4008143
0
ARC
8
DEFAULT_255_1_234
10
13.3530561
20
-0.3573624
40
0.1882621
50
239.6520629
51
265.9793761
0
ARC
8
DEFAULT_255_1_234
10
13.3615761
20
-0.2901573
40
0.2559272
50
265.1315437
51
270.060332
0
ARC
8
DEFAULT_255_1_234
10
13.364454
20
-0.3225466
40
0.2235528
50
269.3314664
51
287.2178029
0
ARC
8
DEFAULT_255_1_234
10
13.3782392
20
-0.3728721
40
0.1714108
50
287.7958004
51
329.080874
0
ARC
8
DEFAULT_255_1_234
10
13.2824849
20
-0.313107
40
0.2842745
50
328.6634704
51
343.3325132
0
ARC
8
DEFAULT_255_1_234
10
13.0651869
20
-0.2454137
40
0.5118644
50
343.0499468
51
351.9393422
0
ARC
8
DEFAULT_255_1_234
10
12.7185169
20
-0.1943051
40
0.8622784
50
351.8069023
51
357.7959224
0
ARC
8
DEFAULT_255_1_234
10
12.3949725
20
-0.1775279
40
1.1862365
50
357.5871873
51
359.2677531
0
LINE
8
DEFAULT_255_1_234
10
14.6862792
20
-0.5300208
11
14.6862792
21
-0.6513
0
LINE
8
DEFAULT_255_1_234
10
14.6862792
20
-0.6513
11
13.9200514
21
-0.6513
0
LINE
8
DEFAULT_255_1_234
10
13.9200514
20
-0.6513
11
13.9200514
21
-0.5444779
0
LINE
8
DEFAULT_255_1_234
10
13.9200514
20
-0.5444779
11
14.324851
21
-0.0947005
0
LINE
8
DEFAULT_255_1_234
10
14.0461497
20
0.1735595
11
13.8975625
21
0.1735595
0
LINE
8
DEFAULT_255_1_234
10
14.412397
20
-0.1902782
11
14.0991592
21
-0.5300208
0
LINE
8
DEFAULT_255_1_234
10
14.0991592
20
-0.5300208
11
14.6862792
21
-0.5300208
0
ARC
8
DEFAULT_255_1_234
10
12.9758344
20
1.0982527
40
1.8008286
50
318.5132453
51
320.7828378
0
ARC
8
DEFAULT_255_1_234
10
13.5045318
20
0.6679426
40
1.1191493
50
320.7372736
51
323.9737074
0
ARC
8
DEFAULT_255_1_234
10
13.8965174
20
0.3839361
40
0.6350923
50
323.8961724
51
328.6421089
0
ARC
8
DEFAULT_255_1_234
10
14.101177
20
0.2577031
40
0.3946393
50
328.8299013
51
331.789948
0
ARC
8
DEFAULT_255_1_234
10
14.2008948
20
0.2062509
40
0.2824501
50
331.4255242
51
352.9364833
0
ARC
8
DEFAULT_255_1_234
10
14.2145449
20
0.2031976
40
0.2685315
50
353.2248685
51
0.0169286
0
ARC
8
DEFAULT_255_1_234
10
14.2355326
20
0.205495
40
0.2475536
50
359.4866256
51
15.9339782
0
ARC
8
DEFAULT_255_1_234
10
14.2862311
20
0.2191286
40
0.1950618
50
16.1714718
51
43.5284424
0
ARC
8
DEFAULT_255_1_234
10
14.293962
20
0.2268573
40
0.184134
50
43.4415429
51
83.1661404
0
ARC
8
DEFAULT_255_1_234
10
14.2805538
20
0.1531771
40
0.258926
50
82.160215
51
90.1505798
0
ARC
8
DEFAULT_255_1_234
10
14.2773965
20
0.0994865
40
0.3126255
50
89.5460705
51
102.5418777
0
ARC
8
DEFAULT_255_1_234
10
14.2531051
20
0.2025665
40
0.2067346
50
102.1739365
51
129.2061916
0
ARC
8
DEFAULT_255_1_234
10
14.2452123
20
0.2150094
40
0.1921118
50
129.7279328
51
135.7542026
0
ARC
8
DEFAULT_255_1_234
10
14.2573651
20
0.2053045
40
0.2075944
50
136.175737
51
166.3674722
0
ARC
8
DEFAULT_255_1_234
10
14.358057
20
0.1783182
40
0.3118201
50
165.9092917
51
178.8683903
0
ARC
8
DEFAULT_255_1_234
10
14.4445431
20
0.1736179
40
0.3983935
50
178.438168
51
180.0083905
0
ARC
8
DEFAULT_255_1_234
10
14.3044033
20
0.1775231
40
0.4068601
50
163.2878735
51
180.5581814
0
ARC
8
DEFAULT_255_1_234
10
14.2242295
20
0.199584
40
0.3237344
50
133.454115
51
162.9470031
0
ARC
8
DEFAULT_255_1_234
10
14.2420836
20
0.1806
40
0.349795
50
100.7869394
51
133.4384016
0
ARC
8
DEFAULT_255_1_234
10
14.2768607
20
0.0257319
40
0.5084616
50
89.6605301
51
101.3704185
0
ARC
8
DEFAULT_255_1_234
10
14.2834946
20
0.0318496
40
0.502348
50
78.2171172
51
90.4130393
0
ARC
8
DEFAULT_255_1_234
10
14.3190025
20
0.1942637
40
0.3361092
50
55.9268222
51
78.4888551
0
ARC
8
DEFAULT_255_1_234
10
14.3386465
20
0.2281324
40
0.2970617
50
47.9292255
51
55.4054003
0
ARC
8
DEFAULT_255_1_234
10
14.3488025
20
0.2384502
40
0.2825983
50
4.3347696
51
48.0560701
0
ARC
8
DEFAULT_255_1_234
10
14.2392419
20
0.2214601
40
0.393225
50
359.925209
51
5.5967654
0
ARC
8
DEFAULT_255_1_234
10
14.2821311
20
0.2270816
40
0.3503892
50
337.8914096
51
358.9967724
0
ARC
8
DEFAULT_255_1_234
10
14.0107723
20
0.3317706
40
0.6412172
50
326.9135351
51
338.3505194
0
ARC
8
DEFAULT_255_1_234
10
13.6122027
20
0.5872284
40
1.1146189
50
319.6472867
51
327.095818
0
ARC
8
DEFAULT_255_1_234
10
13.228903
20
0.9034
40
1.6114559
50
317.2586784
51
319.9046139
0
LINE
8
DEFAULT_255_1_234
10
15.1681835
20
-0.0938974
11
15.1681835
21
-0.2151766
0
LINE
8
DEFAULT_255_1_234
10
15.1681835
20
-0.2151766
11
14.7762347
21
-0.2151766
0
LINE
8
DEFAULT_255_1_234
10
14.7762347
20
-0.2151766
11
14.7762347
21
-0.0938974
0
LINE
8
DEFAULT_255_1_234
10
14.7762347
20
-0.0938974
11
15.1681835
21
-0.0938974
0
LINE
8
DEFAULT_255_1_234
10
16.0412335
20
-0.2802337
11
16.196246
21
-0.2802337
0
LINE
8
DEFAULT_255_1_234
10
15.2958882
20
-0.1212053
11
15.2958882
21
-0.0087609
0
LINE
8
DEFAULT_255_1_234
10
16.196246
20
0.1422357
11
16.0412335
21
0.1422357
0
LINE
8
DEFAULT_255_1_234
10
15.4509007
20
-0.0127768
11
15.4509007
21
-0.1260243
0
ARC
8
DEFAULT_255_1_234
10
15.6481847
20
-0.2205154
40
0.5513052
50
340.1774281
51
353.7814284
0
ARC
8
DEFAULT_255_1_234
10
15.80532
20
-0.2790418
40
0.3836379
50
311.4558989
51
340.4421614
0
ARC
8
DEFAULT_255_1_234
10
15.8019868
20
-0.2679472
40
0.3941894
50
282.4333181
51
310.7513653
0
ARC
8
DEFAULT_255_1_234
10
15.7580607
20
-0.0864321
40
0.5809175
50
269.9358511
51
282.809604
0
ARC
8
DEFAULT_255_1_234
10
15.7528673
20
0.0593212
40
0.7266847
50
270.0021091
51
270.3581957
0
ARC
8
DEFAULT_255_1_234
10
15.747609
20
-0.2007415
40
0.4666519
50
250.7884749
51
270.6489167
0
ARC
8
DEFAULT_255_1_234
10
15.7307925
20
-0.2644681
40
0.4009729
50
219.3627325
51
250.0611886
0
ARC
8
DEFAULT_255_1_234
10
15.8137136
20
-0.1939958
40
0.5097822
50
193.5479632
51
219.5756669
0
ARC
8
DEFAULT_255_1_234
10
16.0508757
20
-0.1324081
40
0.7547848
50
181.1218675
51
193.87563
0
ARC
8
DEFAULT_255_1_234
10
16.2578938
20
-0.121342
40
0.9620055
50
179.9918545
51
181.5394234
0
ARC
8
DEFAULT_255_1_234
10
16.072804
20
-0.0050212
40
0.7769248
50
169.5837241
51
180.2757934
0
ARC
8
DEFAULT_255_1_234
10
15.8890978
20
0.0289229
40
0.590109
50
155.0365899
51
169.6003176
0
ARC
8
DEFAULT_255_1_234
10
15.7755442
20
0.0836677
40
0.4640625
50
136.783148
51
155.2472683
0
ARC
8
DEFAULT_255_1_234
10
15.7365919
20
0.1167562
40
0.4130255
50
121.7633186
51
136.428115
0
ARC
8
DEFAULT_255_1_234
10
15.7500881
20
0.0918227
40
0.4413323
50
95.6459699
51
121.5490577
0
ARC
8
DEFAULT_255_1_234
10
15.7658163
20
-0.0190051
40
0.55319
50
89.924208
51
96.1377933
0
ARC
8
DEFAULT_255_1_234
10
15.7708596
20
-0.0071458
40
0.5413475
50
76.6779277
51
90.4563316
0
ARC
8
DEFAULT_255_1_234
10
15.8102219
20
0.1519114
40
0.3775041
50
47.485847
51
76.9287264
0
ARC
8
DEFAULT_255_1_234
10
15.7955192
20
0.1419159
40
0.3948286
50
16.5424086
51
46.8933463
0
ARC
8
DEFAULT_255_1_234
10
15.6347349
20
0.0890861
40
0.564021
50
5.4072051
51
17.0365086
0
ARC
8
DEFAULT_255_1_234
10
15.4908366
20
0.0659679
40
0.5556559
50
7.8891745
51
15.9239216
0
ARC
8
DEFAULT_255_1_234
10
15.6895379
20
0.1236631
40
0.3487515
50
15.7653144
51
27.9410532
0
ARC
8
DEFAULT_255_1_234
10
15.7999597
20
0.182779
40
0.2235026
50
27.8166557
51
46.4008329
0
ARC
8
DEFAULT_255_1_234
10
15.804924
20
0.1822082
40
0.2205286
50
47.4371857
51
75.0698205
0
ARC
8
DEFAULT_255_1_234
10
15.7740634
20
0.0747765
40
0.3322915
50
74.7008593
51
87.8124495
0
ARC
8
DEFAULT_255_1_234
10
15.7667322
20
-0.0308156
40
0.4380987
50
87.3814673
51
90.0240855
0
ARC
8
DEFAULT_255_1_234
10
15.7628865
20
0.0869291
40
0.3203749
50
89.3451631
51
108.5745436
0
ARC
8
DEFAULT_255_1_234
10
15.749197
20
0.1382908
40
0.2673494
50
109.2998449
51
143.3037509
0
ARC
8
DEFAULT_255_1_234
10
15.8254043
20
0.0796881
40
0.3634757
50
143.0753173
51
163.1916937
0
ARC
8
DEFAULT_255_1_234
10
16.0205771
20
0.0180967
40
0.5681262
50
162.9373603
51
174.6208611
0
ARC
8
DEFAULT_255_1_234
10
16.2831813
20
-0.010699
40
0.8322832
50
174.3419979
51
180.1430411
0
ARC
8
DEFAULT_255_1_234
10
16.1900969
20
-0.1301302
40
0.7392076
50
179.6817502
51
189.150529
0
ARC
8
DEFAULT_255_1_234
10
15.9400217
20
-0.171781
40
0.4856932
50
188.9910863
51
203.5773039
0
ARC
8
DEFAULT_255_1_234
10
15.832055
20
-0.2165789
40
0.3688271
50
203.9077269
51
215.1312379
0
ARC
8
DEFAULT_255_1_234
10
15.7397644
20
-0.2881059
40
0.2522457
50
213.9071664
51
263.8849284
0
ARC
8
DEFAULT_255_1_234
10
15.7522973
20
-0.2096482
40
0.3316174
50
263.1758525
51
270.1031083
0
ARC
8
DEFAULT_255_1_234
10
15.7555065
20
-0.0849635
40
0.4563091
50
269.6719807
51
279.0609165
0
ARC
8
DEFAULT_255_1_234
10
15.7821833
20
-0.2462093
40
0.2928759
50
278.8750225
51
293.6346586
0
ARC
8
DEFAULT_255_1_234
10
15.8142041
20
-0.32141
40
0.2111472
50
293.8553404
51
310.0518804
0
ARC
8
DEFAULT_255_1_234
10
15.8146895
20
-0.3276484
40
0.2060917
50
311.0646779
51
332.0108348
0
ARC
8
DEFAULT_255_1_234
10
15.6954622
20
-0.2619022
40
0.3422352
50
331.6588543
51
343.2878891
0
ARC
8
DEFAULT_255_1_234
10
15.4892137
20
-0.1985202
40
0.5580003
50
343.1446044
51
351.010618
0
ARC
8
DEFAULT_255_1_234
10
15.3350783
20
-0.1704129
40
0.7146438
50
350.7157277
51
351.1602153
0
LINE
8
DEFAULT_255_1_234
10
16.4066776
20
0.5181211
11
16.6058647
21
0.5181211
0
LINE
8
DEFAULT_255_1_234
10
16.6058647
20
0.5181211
11
16.9881754
21
-0.4360494
0
LINE
8
DEFAULT_255_1_234
10
16.9881754
20
-0.4360494
11
17.3704862
21
0.5181211
0
LINE
8
DEFAULT_255_1_234
10
17.3704862
20
0.5181211
11
17.5704765
21
0.5181211
0
LINE
8
DEFAULT_255_1_234
10
17.5704765
20
0.5181211
11
17.5704765
21
-0.6513
0
LINE
8
DEFAULT_255_1_234
10
17.5704765
20
-0.6513
11
17.4162671
21
-0.6513
0
LINE
8
DEFAULT_255_1_234
10
17.4162671
20
-0.6513
11
17.4162671
21
-0.1959004
0
LINE
8
DEFAULT_255_1_234
10
17.4162671
20
-0.1959004
11
17.4307242
21
0.2956419
0
LINE
8
DEFAULT_255_1_234
10
17.4307242
20
0.2956419
11
17.0468071
21
-0.6513
0
LINE
8
DEFAULT_255_1_234
10
17.0468071
20
-0.6513
11
16.9287406
21
-0.6513
0
LINE
8
DEFAULT_255_1_234
10
16.9287406
20
-0.6513
11
16.5456267
21
0.2932324
0
LINE
8
DEFAULT_255_1_234
10
16.5456267
20
0.2932324
11
16.560887
21
-0.1959004
0
LINE
8
DEFAULT_255_1_234
10
16.560887
20
-0.1959004
11
16.560887
21
-0.6513
0
LINE
8
DEFAULT_255_1_234
10
16.560887
20
-0.6513
11
16.4066776
21
-0.6513
0
LINE
8
DEFAULT_255_1_234
10
16.4066776
20
-0.6513
11
16.4066776
21
0.5181211
0
LINE
8
DEFAULT_255_1_234
10
18.6186183
20
0.1799849
11
18.4636058
21
0.1799849
0
LINE
8
DEFAULT_255_1_234
10
17.7712699
20
-0.3123606
11
17.9262825
21
-0.3123606
0
ARC
8
DEFAULT_255_1_234
10
18.5294871
20
1.0746768
40
1.252368
50
248.9199003
51
254.1439814
0
ARC
8
DEFAULT_255_1_234
10
18.3614365
20
0.6420234
40
0.788226
50
241.633709
51
249.0064503
0
ARC
8
DEFAULT_255_1_234
10
18.208576
20
0.3619317
40
0.4691427
50
230.498225
51
241.8087113
0
ARC
8
DEFAULT_255_1_234
10
18.1301334
20
0.2619906
40
0.3421437
50
227.4064532
51
229.9881192
0
ARC
8
DEFAULT_255_1_234
10
18.0813855
20
0.2144088
40
0.2741476
50
200.6781896
51
228.1763934
0
ARC
8
DEFAULT_255_1_234
10
18.0886165
20
0.2129077
40
0.2804109
50
179.5061581
51
199.8694617
0
ARC
8
DEFAULT_255_1_234
10
18.0876917
20
0.220321
40
0.2795204
50
132.4834203
51
181.0242172
0
ARC
8
DEFAULT_255_1_234
10
18.1472499
20
0.1640704
40
0.3612768
50
129.2532479
51
133.4242687
0
ARC
8
DEFAULT_255_1_234
10
18.1618949
20
0.1420965
40
0.3875675
50
101.98776
51
128.8742646
0
ARC
8
DEFAULT_255_1_234
10
18.2017559
20
-0.0300259
40
0.5642249
50
89.5906553
51
102.3169264
0
ARC
8
DEFAULT_255_1_234
10
18.2088052
20
0.0018148
40
0.5323783
50
77.2360837
51
90.3248275
0
ARC
8
DEFAULT_255_1_234
10
18.2295131
20
0.09854
40
0.4334697
50
63.837784
51
77.0809408
0
ARC
8
DEFAULT_255_1_234
10
18.2572892
20
0.1502911
40
0.3747796
50
45.9864267
51
64.1607727
0
ARC
8
DEFAULT_255_1_234
10
18.2833774
20
0.1800866
40
0.3352302
50
32.2747395
51
45.6547121
0
ARC
8
DEFAULT_255_1_234
10
18.2900214
20
0.181988
40
0.328603
50
359.6507365
51
32.6130309
0
ARC
8
DEFAULT_255_1_234
10
18.195731
20
0.182466
40
0.2678863
50
359.469343
51
14.9832209
0
ARC
8
DEFAULT_255_1_234
10
18.2662372
20
0.2013539
40
0.1948938
50
14.9781179
51
48.2004265
0
ARC
8
DEFAULT_255_1_234
10
18.2498016
20
0.1806983
40
0.2212521
50
48.5927837
51
74.1241538
0
ARC
8
DEFAULT_255_1_234
10
18.2164506
20
0.0706248
40
0.3362561
50
73.7888341
51
86.6652678
0
ARC
8
DEFAULT_255_1_234
10
18.2062071
20
-0.0501119
40
0.4573953
50
86.2640471
51
90.0526343
0
ARC
8
DEFAULT_255_1_234
10
18.2033784
20
-0.0105808
40
0.4178709
50
89.6697524
51
99.2309573
0
ARC
8
DEFAULT_255_1_234
10
18.1791235
20
0.1338964
40
0.2713749
50
99.069534
51
113.7658566
0
ARC
8
DEFAULT_255_1_234
10
18.1517426
20
0.1984677
40
0.2012469
50
114.0401004
51
127.9850673
0
ARC
8
DEFAULT_255_1_234
10
18.127699
20
0.228073
40
0.1631167
50
127.7287463
51
176.7105154
0
ARC
8
DEFAULT_255_1_234
10
18.1955707
20
0.2179693
40
0.2315392
50
175.1779447
51
180.0581938
0
ARC
8
DEFAULT_255_1_234
10
18.1112554
20
0.2167428
40
0.1472271
50
179.6142195
51
228.1246017
0
ARC
8
DEFAULT_255_1_234
10
18.1554223
20
0.2576308
40
0.2072299
50
226.5779593
51
230.8800004
0
ARC
8
DEFAULT_255_1_234
10
18.2025301
20
0.3201636
40
0.2854818
50
231.4635071
51
241.9260842
0
ARC
8
DEFAULT_255_1_234
10
18.322248
20
0.54048
40
0.53622
50
241.7178533
51
248.3259551
0
ARC
8
DEFAULT_255_1_234
10
18.4607851
20
0.8837064
40
0.9063478
50
248.2007737
51
252.4528373
0
ARC
8
DEFAULT_255_1_234
10
18.5811576
20
1.2558441
40
1.2974635
50
252.3391078
51
254.3469452
0
ARC
8
DEFAULT_255_1_234
10
17.8269279
20
-1.4418852
40
1.5037162
50
71.0197183
51
74.4087047
0
ARC
8
DEFAULT_255_1_234
10
17.9963964
20
-0.9526889
40
0.9859993
50
66.1847285
51
71.086374
0
ARC
8
DEFAULT_255_1_234
10
18.1520276
20
-0.60228
40
0.6025855
50
59.3536294
51
66.2691831
0
ARC
8
DEFAULT_255_1_234
10
18.2408929
20
-0.4519391
40
0.4279449
50
49.1020879
51
59.3293958
0
ARC
8
DEFAULT_255_1_234
10
18.3227669
20
-0.3586166
40
0.3038015
50
32.7919921
51
49.2505539
0
ARC
8
DEFAULT_255_1_234
10
18.3548759
20
-0.3357809
40
0.264448
50
31.1181161
51
32.4005348
0
ARC
8
DEFAULT_255_1_234
10
18.3460296
20
-0.3393221
40
0.2738556
50
8.1116974
51
30.7958831
0
ARC
8
DEFAULT_255_1_234
10
18.2649964
20
-0.3531247
40
0.3560327
50
359.8389159
51
8.4706516
0
ARC
8
DEFAULT_255_1_234
10
18.3275756
20
-0.3579863
40
0.2934776
50
337.4731098
51
0.7537279
0
ARC
8
DEFAULT_255_1_234
10
18.3454451
20
-0.3599613
40
0.2762607
50
307.5917067
51
336.4315538
0
ARC
8
DEFAULT_255_1_234
10
18.2994279
20
-0.3086898
40
0.3449979
50
307.6551545
51
308.4529766
0
ARC
8
DEFAULT_255_1_234
10
18.2763998
20
-0.273175
40
0.3871988
50
284.3734338
51
307.1424381
0
ARC
8
DEFAULT_255_1_234
10
18.2268828
20
-0.0910068
40
0.5759636
50
272.4382747
51
284.646547
0
ARC
8
DEFAULT_255_1_234
10
18.2142037
20
0.0889893
40
0.7563528
50
269.9708387
51
272.8178037
0
ARC
8
DEFAULT_255_1_234
10
18.2099076
20
-0.1148284
40
0.5525489
50
248.2707594
51
270.4055579
0
ARC
8
DEFAULT_255_1_234
10
18.2044817
20
-0.1338808
40
0.5328452
50
246.1383403
51
248.0542782
0
ARC
8
DEFAULT_255_1_234
10
18.1626196
20
-0.2218157
40
0.4355005
50
233.1670131
51
246.4950969
0
ARC
8
DEFAULT_255_1_234
10
18.1072101
20
-0.2966188
40
0.3424126
50
215.3403242
51
233.0843104
0
ARC
8
DEFAULT_255_1_234
10
18.0799533
20
-0.3164451
40
0.3087104
50
179.2419209
51
215.2648451
0
ARC
8
DEFAULT_255_1_234
10
18.1567126
20
-0.3150334
40
0.2304457
50
179.335461
51
199.1045811
0
ARC
8
DEFAULT_255_1_234
10
18.1234803
20
-0.3237234
40
0.1962176
50
199.8828939
51
232.7063202
0
ARC
8
DEFAULT_255_1_234
10
18.1707071
20
-0.2643212
40
0.2720938
50
232.3738199
51
255.5136649
0
ARC
8
DEFAULT_255_1_234
10
18.2047938
20
-0.1399165
40
0.4010747
50
255.2446292
51
267.5320849
0
ARC
8
DEFAULT_255_1_234
10
18.2135561
20
-0.0166298
40
0.5246356
50
267.1557994
51
270.0286766
0
ARC
8
DEFAULT_255_1_234
10
18.2163333
20
-0.061005
40
0.4802668
50
269.7000017
51
278.1660162
0
ARC
8
DEFAULT_255_1_234
10
18.2419338
20
-0.2340485
40
0.3053425
50
278.0231263
51
290.625471
0
ARC
8
DEFAULT_255_1_234
10
18.2767025
20
-0.3267975
40
0.206291
50
290.6619762
51
307.0370976
0
ARC
8
DEFAULT_255_1_234
10
18.3067415
20
-0.3636496
40
0.1587906
50
306.3943566
51
355.3030547
0
ARC
8
DEFAULT_255_1_234
10
18.2555346
20
-0.3559887
40
0.2104809
50
354.3660432
51
0.0698737
0
ARC
8
DEFAULT_255_1_234
10
18.2697691
20
-0.3537383
40
0.1962563
50
359.417946
51
16.1971788
0
ARC
8
DEFAULT_255_1_234
10
18.3153002
20
-0.3412582
40
0.149053
50
16.4723299
51
52.6262157
0
ARC
8
DEFAULT_255_1_234
10
18.2332055
20
-0.4496567
40
0.2850296
50
52.7386432
51
62.4979148
0
ARC
8
DEFAULT_255_1_234
10
18.0947132
20
-0.7102717
40
0.5801521
50
62.2515216
51
68.1220564
0
ARC
8
DEFAULT_255_1_234
10
17.9227043
20
-1.1330128
40
1.0365451
50
68.0062803
51
71.8053402
0
ARC
8
DEFAULT_255_1_234
10
17.7431415
20
-1.6715242
40
1.6042013
50
71.7183119
51
73.9258742
0
LINE
8
DEFAULT_255_1_234
10
12.5959293
20
149.4997
11
12.4842881
21
149.8049061
0
LINE
8
DEFAULT_255_1_234
10
12.4842881
20
149.8049061
11
11.9943521
21
149.8049061
0
LINE
8
DEFAULT_255_1_234
10
11.9943521
20
149.8049061
11
11.8843173
21
149.4997
0
LINE
8
DEFAULT_255_1_234
10
11.8843173
20
149.4997
11
11.7252889
21
149.4997
0
LINE
8
DEFAULT_255_1_234
10
11.7252889
20
149.4997
11
12.1718535
21
150.6691211
0
LINE
8
DEFAULT_255_1_234
10
12.1718535
20
150.6691211
11
12.3067867
21
150.6691211
0
LINE
8
DEFAULT_255_1_234
10
12.3067867
20
150.6691211
11
12.7541545
21
149.4997
0
LINE
8
DEFAULT_255_1_234
10
12.7541545
20
149.4997
11
12.5959293
21
149.4997
0
LINE
8
DEFAULT_255_1_234
10
12.2393201
20
150.4787689
11
12.0409362
21
149.9318075
0
LINE
8
DEFAULT_255_1_234
10
12.0409362
20
149.9318075
11
12.4385072
21
149.9318075
0
LINE
8
DEFAULT_255_1_234
10
12.4385072
20
149.9318075
11
12.2393201
21
150.4787689
0
LINE
8
DEFAULT_255_1_234
10
13.6079283
20
149.8707663
11
13.7629409
21
149.8707663
0
LINE
8
DEFAULT_255_1_234
10
12.862583
20
150.0297947
11
12.862583
21
150.1422391
0
LINE
8
DEFAULT_255_1_234
10
13.7629409
20
150.2932357
11
13.6079283
21
150.2932357
0
LINE
8
DEFAULT_255_1_234
10
13.0175956
20
150.1382232
11
13.0175956
21
150.0249757
0
ARC
8
DEFAULT_255_1_234
10
13.2148796
20
149.9304846
40
0.5513052
50
340.1774281
51
353.7814284
0
ARC
8
DEFAULT_255_1_234
10
13.3720148
20
149.8719582
40
0.3836379
50
311.4558989
51
340.4421614
0
ARC
8
DEFAULT_255_1_234
10
13.3686816
20
149.8830528
40
0.3941894
50
282.4333181
51
310.7513653
0
ARC
8
DEFAULT_255_1_234
10
13.3247555
20
150.0645679
40
0.5809175
50
269.9358511
51
282.809604
0
ARC
8
DEFAULT_255_1_234
10
13.3195622
20
150.2103212
40
0.7266847
50
270.0021091
51
270.3581957
0
ARC
8
DEFAULT_255_1_234
10
13.3143039
20
149.9502585
40
0.4666519
50
250.7884749
51
270.6489167
0
ARC
8
DEFAULT_255_1_234
10
13.2974873
20
149.8865319
40
0.4009729
50
219.3627325
51
250.0611886
0
ARC
8
DEFAULT_255_1_234
10
13.3804084
20
149.9570042
40
0.5097822
50
193.5479632
51
219.5756669
0
ARC
8
DEFAULT_255_1_234
10
13.6175705
20
150.0185919
40
0.7547848
50
181.1218675
51
193.87563
0
ARC
8
DEFAULT_255_1_234
10
13.8245886
20
150.029658
40
0.9620055
50
179.9918545
51
181.5394234
0
ARC
8
DEFAULT_255_1_234
10
13.6394988
20
150.1459788
40
0.7769248
50
169.5837241
51
180.2757934
0
ARC
8
DEFAULT_255_1_234
10
13.4557926
20
150.1799229
40
0.590109
50
155.0365899
51
169.6003176
0
ARC
8
DEFAULT_255_1_234
10
13.342239
20
150.2346677
40
0.4640625
50
136.783148
51
155.2472683
0
ARC
8
DEFAULT_255_1_234
10
13.3032867
20
150.2677562
40
0.4130255
50
121.7633186
51
136.428115
0
ARC
8
DEFAULT_255_1_234
10
13.3167829
20
150.2428227
40
0.4413323
50
95.6459699
51
121.5490577
0
ARC
8
DEFAULT_255_1_234
10
13.3325111
20
150.1319949
40
0.55319
50
89.924208
51
96.1377933
0
ARC
8
DEFAULT_255_1_234
10
13.3375544
20
150.1438542
40
0.5413475
50
76.6779277
51
90.4563316
0
ARC
8
DEFAULT_255_1_234
10
13.3769167
20
150.3029114
40
0.3775041
50
47.485847
51
76.9287264
0
ARC
8
DEFAULT_255_1_234
10
13.362214
20
150.2929159
40
0.3948286
50
16.5424086
51
46.8933463
0
ARC
8
DEFAULT_255_1_234
10
13.2014297
20
150.2400861
40
0.564021
50
5.4072051
51
17.0365086
0
ARC
8
DEFAULT_255_1_234
10
13.0575314
20
150.2169679
40
0.5556559
50
7.8891745
51
15.9239216
0
ARC
8
DEFAULT_255_1_234
10
13.2562328
20
150.2746631
40
0.3487515
50
15.7653144
51
27.9410532
0
ARC
8
DEFAULT_255_1_234
10
13.3666546
20
150.333779
40
0.2235026
50
27.8166557
51
46.4008329
0
ARC
8
DEFAULT_255_1_234
10
13.3716188
20
150.3332082
40
0.2205286
50
47.4371857
51
75.0698205
0
ARC
8
DEFAULT_255_1_234
10
13.3407583
20
150.2257765
40
0.3322915
50
74.7008593
51
87.8124495
0
ARC
8
DEFAULT_255_1_234
10
13.333427
20
150.1201844
40
0.4380987
50
87.3814673
51
90.0240855
0
ARC
8
DEFAULT_255_1_234
10
13.3295814
20
150.2379291
40
0.3203749
50
89.3451631
51
108.5745436
0
ARC
8
DEFAULT_255_1_234
10
13.3158919
20
150.2892908
40
0.2673494
50
109.2998449
51
143.3037509
0
ARC
8
DEFAULT_255_1_234
10
13.3920992
20
150.2306881
40
0.3634757
50
143.0753173
51
163.1916937
0
ARC
8
DEFAULT_255_1_234
10
13.5872719
20
150.1690967
40
0.5681262
50
162.9373603
51
174.6208611
0
ARC
8
DEFAULT_255_1_234
10
13.8498761
20
150.140301
40
0.8322832
50
174.3419979
51
180.1430411
0
ARC
8
DEFAULT_255_1_234
10
13.7567918
20
150.0208698
40
0.7392076
50
179.6817502
51
189.150529
0
ARC
8
DEFAULT_255_1_234
10
13.5067166
20
149.979219
40
0.4856932
50
188.9910863
51
203.5773039
0
ARC
8
DEFAULT_255_1_234
10
13.3987498
20
149.9344211
40
0.3688271
50
203.9077269
51
215.1312379
0
ARC
8
DEFAULT_255_1_234
10
13.3064592
20
149.8628941
40
0.2522457
50
213.9071664
51
263.8849284
0
ARC
8
DEFAULT_255_1_234
10
13.3189921
20
149.9413518
40
0.3316174
50
263.1758525
51
270.1031083
0
ARC
8
DEFAULT_255_1_234
10
13.3222013
20
150.0660365
40
0.4563091
50
269.6719807
51
279.0609165
0
ARC
8
DEFAULT_255_1_234
10
13.3488781
20
149.9047907
40
0.2928759
50
278.8750225
51
293.6346586
0
ARC
8
DEFAULT_255_1_234
10
13.3808989
20
149.82959
40
0.2111472
50
293.8553404
51
310.0518804
0
ARC
8
DEFAULT_255_1_234
10
13.3813843
20
149.8233516
40
0.2060917
50
311.0646779
51
332.0108348
0
ARC
8
DEFAULT_255_1_234
10
13.262157
20
149.8890978
40
0.3422352
50
331.6588543
51
343.2878891
0
ARC
8
DEFAULT_255_1_234
10
13.0559085
20
149.9524798
40
0.5580003
50
343.1446044
51
351.010618
0
ARC
8
DEFAULT_255_1_234
10
12.9017731
20
149.9805871
40
0.7146438
50
350.7157277
51
351.1602153
0
LINE
8
DEFAULT_255_1_234
10
14.1219596
20
150.0554963
11
14.0030898
21
150.0860169
0
LINE
8
DEFAULT_255_1_234
10
14.0030898
20
150.0860169
11
14.0625247
21
150.6691211
0
LINE
8
DEFAULT_255_1_234
10
14.0625247
20
150.6691211
11
14.6616924
21
150.6691211
0
LINE
8
DEFAULT_255_1_234
10
14.6616924
20
150.6691211
11
14.6616924
21
150.5317784
0
LINE
8
DEFAULT_255_1_234
10
14.6616924
20
150.5317784
11
14.188623
21
150.5317784
0
LINE
8
DEFAULT_255_1_234
10
14.188623
20
150.5317784
11
14.1532833
21
150.2129184
0
LINE
8
DEFAULT_255_1_234
10
13.9613248
20
149.8073156
11
14.1018802
21
149.8073156
0
LINE
8
DEFAULT_255_1_234
10
14.1613151
20
150.0876232
11
14.1219596
21
150.0554963
0
ARC
8
DEFAULT_255_1_234
10
14.3387617
20
149.894923
40
0.3681349
50
93.7182161
51
120.2538958
0
ARC
8
DEFAULT_255_1_234
10
14.348188
20
149.8141394
40
0.449379
50
89.9660152
51
94.2496022
0
ARC
8
DEFAULT_255_1_234
10
14.3522614
20
149.8730549
40
0.390482
50
73.8043271
51
90.5585896
0
ARC
8
DEFAULT_255_1_234
10
14.3757511
20
149.9588602
40
0.3015334
50
41.3071453
51
73.5430202
0
ARC
8
DEFAULT_255_1_234
10
14.3341339
20
149.9230324
40
0.3564457
50
13.5075983
51
41.2174222
0
ARC
8
DEFAULT_255_1_234
10
14.1699542
20
149.8800486
40
0.5261351
50
1.1331335
51
13.8829381
0
ARC
8
DEFAULT_255_1_234
10
14.0287911
20
149.8724665
40
0.6674378
50
359.9919444
51
1.544251
0
ARC
8
DEFAULT_255_1_234
10
14.1564738
20
149.868328
40
0.5397702
50
347.8572367
51
0.4293338
0
ARC
8
DEFAULT_255_1_234
10
14.3315055
20
149.8286736
40
0.3603188
50
323.673004
51
348.1672506
0
ARC
8
DEFAULT_255_1_234
10
14.3609563
20
149.8107168
40
0.3259678
50
316.8171152
51
323.1492751
0
ARC
8
DEFAULT_255_1_234
10
14.3670752
20
149.807046
40
0.3189975
50
281.8396411
51
316.5457803
0
ARC
8
DEFAULT_255_1_234
10
14.3295016
20
149.9625762
40
0.4789527
50
269.5770101
51
282.4214771
0
ARC
8
DEFAULT_255_1_234
10
14.3223828
20
149.9412125
40
0.45759
50
256.2427136
51
270.4486331
0
ARC
8
DEFAULT_255_1_234
10
14.292473
20
149.8212229
40
0.3339303
50
228.9023911
51
256.3314342
0
ARC
8
DEFAULT_255_1_234
10
14.2850963
20
149.8095746
40
0.32031
50
193.753695
51
228.5271154
0
ARC
8
DEFAULT_255_1_234
10
14.4088917
20
149.84588
40
0.4492253
50
184.924711
51
194.497588
0
ARC
8
DEFAULT_255_1_234
10
14.4281483
20
149.8494591
40
0.3289787
50
187.3600538
51
198.6732863
0
ARC
8
DEFAULT_255_1_234
10
14.3231777
20
149.8130674
40
0.217884
50
198.4451669
51
217.794479
0
ARC
8
DEFAULT_255_1_234
10
14.2935953
20
149.7921085
40
0.1816698
50
218.2887171
51
228.5612368
0
ARC
8
DEFAULT_255_1_234
10
14.303374
20
149.8052963
40
0.1980329
50
228.9654866
51
258.1234728
0
ARC
8
DEFAULT_255_1_234
10
14.323945
20
149.8933833
40
0.2884748
50
257.7258293
51
270.401361
0
ARC
8
DEFAULT_255_1_234
10
14.3284336
20
149.8488821
40
0.2439788
50
269.4204404
51
286.4209037
0
ARC
8
DEFAULT_255_1_234
10
14.3432823
20
149.7949657
40
0.1880666
50
286.7251356
51
320.600362
0
ARC
8
DEFAULT_255_1_234
10
14.3049648
20
149.8260595
40
0.2374121
50
320.6712579
51
344.5441685
0
ARC
8
DEFAULT_255_1_234
10
14.1892975
20
149.8600045
40
0.3579479
50
344.2412205
51
356.7357071
0
ARC
8
DEFAULT_255_1_234
10
14.0644123
20
149.8703444
40
0.4832297
50
356.3548756
51
0.0500261
0
ARC
8
DEFAULT_255_1_234
10
14.1980632
20
149.873465
40
0.3495889
50
359.5576869
51
12.953486
0
ARC
8
DEFAULT_255_1_234
10
14.303553
20
149.8990434
40
0.2410532
50
12.6490276
51
41.6081334
0
ARC
8
DEFAULT_255_1_234
10
14.3265901
20
149.9186321
40
0.2108218
50
41.7850273
51
85.9892764
0
ARC
8
DEFAULT_255_1_234
10
14.3142637
20
149.8373462
40
0.2928454
50
84.6957577
51
90.0676183
0
ARC
8
DEFAULT_255_1_234
10
14.3119121
20
149.7704716
40
0.3597255
50
89.6804936
51
99.1614436
0
ARC
8
DEFAULT_255_1_234
10
14.2913753
20
149.8932131
40
0.235281
50
98.9830931
51
113.8908934
0
ARC
8
DEFAULT_255_1_234
10
14.2684163
20
149.9473587
40
0.176479
50
114.1950727
51
127.3641004
0
LINE
8
DEFAULT_255_1_234
10
15.5917677
20
150.1912327
11
15.5917677
21
149.9984709
0
LINE
8
DEFAULT_255_1_234
10
14.8536509
20
149.9783916
11
14.8536509
21
150.1767755
0
LINE
8
DEFAULT_255_1_234
10
15.4431805
20
149.9583123
11
15.4431805
21
150.2016739
0
LINE
8
DEFAULT_255_1_234
10
15.0022381
20
150.2129184
11
15.0022381
21
149.9751789
0
ARC
8
DEFAULT_255_1_234
10
14.3670566
20
149.9935805
40
1.2247208
50
353.8441951
51
0.2287902
0
ARC
8
DEFAULT_255_1_234
10
14.831007
20
149.9417806
40
0.7578929
50
344.4934747
51
353.9765454
0
ARC
8
DEFAULT_255_1_234
10
15.130266
20
149.8566981
40
0.4467846
50
329.2803592
51
344.7472793
0
ARC
8
DEFAULT_255_1_234
10
15.2295485
20
149.8022018
40
0.3336173
50
324.9352394
51
328.6160465
0
ARC
8
DEFAULT_255_1_234
10
15.2672594
20
149.7758427
40
0.2876076
50
280.580143
51
324.9173126
0
ARC
8
DEFAULT_255_1_234
10
15.2271386
20
149.9429099
40
0.4592847
50
269.5977311
51
281.6734359
0
ARC
8
DEFAULT_255_1_234
10
15.2199292
20
149.9309173
40
0.4472986
50
256.6228859
51
270.51044
0
ARC
8
DEFAULT_255_1_234
10
15.179727
20
149.7760877
40
0.2873874
50
215.8618325
51
257.2788573
0
ARC
8
DEFAULT_255_1_234
10
15.2818301
20
149.8445977
40
0.4102928
50
197.9693508
51
215.2623606
0
ARC
8
DEFAULT_255_1_234
10
15.5303417
20
149.9284709
40
0.6725652
50
187.8816417
51
198.2346507
0
ARC
8
DEFAULT_255_1_234
10
15.9261625
20
149.9856079
40
1.0724845
50
180.8976217
51
188.0055519
0
ARC
8
DEFAULT_255_1_234
10
16.2061813
20
149.9959777
40
1.3526448
50
180.7449369
51
181.1510016
0
ARC
8
DEFAULT_255_1_234
10
16.0484542
20
150.1816042
40
1.1948131
50
173.7675579
51
180.231553
0
ARC
8
DEFAULT_255_1_234
10
15.5966689
20
150.2326666
40
0.7401564
50
164.3058563
51
173.9002247
0
ARC
8
DEFAULT_255_1_234
10
15.3054758
20
150.3165656
40
0.4371288
50
148.7922025
51
164.568378
0
ARC
8
DEFAULT_255_1_234
10
15.210321
20
150.3696929
40
0.3282386
50
144.5883898
51
148.1176286
0
ARC
8
DEFAULT_255_1_234
10
15.1760108
20
150.3936315
40
0.2864044
50
101.6440918
51
144.514236
0
ARC
8
DEFAULT_255_1_234
10
15.2185175
20
150.2247069
40
0.4604934
50
89.5284041
51
102.5819763
0
ARC
8
DEFAULT_255_1_234
10
15.2264263
20
150.2208018
40
0.464401
50
77.0437873
51
90.5081339
0
ARC
8
DEFAULT_255_1_234
10
15.2666264
20
150.3850615
40
0.2953195
50
48.2778575
51
77.4994676
0
ARC
8
DEFAULT_255_1_234
10
15.2738896
20
150.3979746
40
0.2808655
50
36.3142134
51
47.6305865
0
ARC
8
DEFAULT_255_1_234
10
15.1870203
20
150.3394515
40
0.3855453
50
18.2931786
51
35.6769206
0
ARC
8
DEFAULT_255_1_234
10
14.9326961
20
150.2521593
40
0.654423
50
8.024666
51
18.5605216
0
ARC
8
DEFAULT_255_1_234
10
14.5163881
20
150.1906792
40
1.0752407
50
1.1274072
51
8.1718305
0
ARC
8
DEFAULT_255_1_234
10
14.1928072
20
150.1779885
40
1.3990231
50
0.5424119
51
1.3863029
0
ARC
8
DEFAULT_255_1_234
10
14.374945
20
150.2052342
40
1.0682415
50
359.8090433
51
4.9407866
0
ARC
8
DEFAULT_255_1_234
10
14.7959464
20
150.2428113
40
0.6455691
50
4.8362157
51
12.2904523
0
ARC
8
DEFAULT_255_1_234
10
15.0714579
20
150.3041965
40
0.3633074
50
12.0805627
51
23.8173984
0
ARC
8
DEFAULT_255_1_234
10
15.1888284
20
150.3538919
40
0.2358723
50
24.2871213
51
31.3935614
0
ARC
8
DEFAULT_255_1_234
10
15.2412981
20
150.3882233
40
0.1732111
50
30.7407893
51
82.4657128
0
ARC
8
DEFAULT_255_1_234
10
15.2233115
20
150.2998691
40
0.263235
50
81.1060089
51
90.2184952
0
ARC
8
DEFAULT_255_1_234
10
15.2197414
20
150.3256924
40
0.2374236
50
89.3806855
51
105.6762551
0
ARC
8
DEFAULT_255_1_234
10
15.2014045
20
150.3923567
40
0.1682847
50
105.7981136
51
149.7388061
0
ARC
8
DEFAULT_255_1_234
10
15.3078123
20
150.328395
40
0.2924306
50
149.4208916
51
163.6286378
0
ARC
8
DEFAULT_255_1_234
10
15.5169011
20
150.264625
40
0.5110213
50
163.3763315
51
172.1410975
0
ARC
8
DEFAULT_255_1_234
10
15.846973
20
150.2173518
40
0.8444586
50
172.0259487
51
178.0703232
0
ARC
8
DEFAULT_255_1_234
10
16.149982
20
150.2029906
40
1.1477868
50
177.8631668
51
179.5044149
0
ARC
8
DEFAULT_255_1_234
10
16.0427224
20
149.9715389
40
1.0404907
50
179.7995573
51
185.2460446
0
ARC
8
DEFAULT_255_1_234
10
15.6384264
20
149.9332513
40
0.6343885
50
185.1411642
51
193.0079639
0
ARC
8
DEFAULT_255_1_234
10
15.3740736
20
149.8707641
40
0.3627568
50
192.7897626
51
205.2507664
0
ARC
8
DEFAULT_255_1_234
10
15.2694283
20
149.8240415
40
0.2481908
50
205.8005384
51
211.2537509
0
ARC
8
DEFAULT_255_1_234
10
15.2170724
20
149.788958
40
0.1852521
50
210.3789793
51
238.4008143
0
ARC
8
DEFAULT_255_1_234
10
15.2151245
20
149.7936376
40
0.1882621
50
239.6520629
51
265.9793761
0
ARC
8
DEFAULT_255_1_234
10
15.2236446
20
149.8608427
40
0.2559272
50
265.1315437
51
270.060332
0
ARC
8
DEFAULT_255_1_234
10
15.2265224
20
149.8284534
40
0.2235528
50
269.3314664
51
287.2178029
0
ARC
8
DEFAULT_255_1_234
10
15.2403076
20
149.7781279
40
0.1714108
50
287.7958004
51
329.080874
0
ARC
8
DEFAULT_255_1_234
10
15.1445533
20
149.837893
40
0.2842745
50
328.6634704
51
343.3325132
0
ARC
8
DEFAULT_255_1_234
10
14.9272553
20
149.9055863
40
0.5118644
50
343.0499468
51
351.9393422
0
ARC
8
DEFAULT_255_1_234
10
14.5805853
20
149.9566949
40
0.8622784
50
351.8069023
51
357.7959224
0
ARC
8
DEFAULT_255_1_234
10
14.2570409
20
149.9734721
40
1.1862365
50
357.5871873
51
359.2677531
0
LINE
8
DEFAULT_255_1_234
10
16.5154176
20
150.1912327
11
16.5154176
21
149.9984709
0
LINE
8
DEFAULT_255_1_234
10
15.7773008
20
149.9783916
11
15.7773008
21
150.1767755
0
LINE
8
DEFAULT_255_1_234
10
16.3668304
20
149.9583123
11
16.3668304
21
150.2016739
0
LINE
8
DEFAULT_255_1_234
10
15.925888
20
150.2129184
11
15.925888
21
149.9751789
0
ARC
8
DEFAULT_255_1_234
10
15.2907065
20
149.9935805
40
1.2247208
50
353.8441951
51
0.2287902
0
ARC
8
DEFAULT_255_1_234
10
15.7546569
20
149.9417806
40
0.7578929
50
344.4934747
51
353.9765454
0
ARC
8
DEFAULT_255_1_234
10
16.0539159
20
149.8566981
40
0.4467846
50
329.2803592
51
344.7472793
0
ARC
8
DEFAULT_255_1_234
10
16.1531984
20
149.8022018
40
0.3336173
50
324.9352394
51
328.6160465
0
ARC
8
DEFAULT_255_1_234
10
16.1909093
20
149.7758427
40
0.2876076
50
280.580143
51
324.9173126
0
ARC
8
DEFAULT_255_1_234
10
16.1507885
20
149.9429099
40
0.4592847
50
269.5977311
51
281.6734359
0
ARC
8
DEFAULT_255_1_234
10
16.1435791
20
149.9309173
40
0.4472986
50
256.6228859
51
270.51044
0
ARC
8
DEFAULT_255_1_234
10
16.1033769
20
149.7760877
40
0.2873874
50
215.8618325
51
257.2788573
0
ARC
8
DEFAULT_255_1_234
10
16.20548
20
149.8445977
40
0.4102928
50
197.9693508
51
215.2623606
0
ARC
8
DEFAULT_255_1_234
10
16.4539916
20
149.9284709
40
0.6725652
50
187.8816417
51
198.2346507
0
ARC
8
DEFAULT_255_1_234
10
16.8498124
20
149.9856079
40
1.0724845
50
180.8976217
51
188.0055519
0
ARC
8
DEFAULT_255_1_234
10
17.1298312
20
149.9959777
40
1.3526448
50
180.7449369
51
181.1510016
0
ARC
8
DEFAULT_255_1_234
10
16.9721042
20
150.1816042
40
1.1948131
50
173.7675579
51
180.231553
0
ARC
8
DEFAULT_255_1_234
10
16.5203188
20
150.2326666
40
0.7401564
50
164.3058563
51
173.9002247
0
ARC
8
DEFAULT_255_1_234
10
16.2291257
20
150.3165656
40
0.4371288
50
148.7922025
51
164.568378
0
ARC
8
DEFAULT_255_1_234
10
16.1339709
20
150.3696929
40
0.3282386
50
144.5883898
51
148.1176286
0
ARC
8
DEFAULT_255_1_234
10
16.0996607
20
150.3936315
40
0.2864044
50
101.6440918
51
144.514236
0
ARC
8
DEFAULT_255_1_234
10
16.1421674
20
150.2247069
40
0.4604934
50
89.5284041
51
102.5819763
0
ARC
8
DEFAULT_255_1_234
10
16.1500762
20
150.2208018
40
0.464401
50
77.0437873
51
90.5081339
0
ARC
8
DEFAULT_255_1_234
10
16.1902763
20
150.3850615
40
0.2953195
50
48.2778575
51
77.4994676
0
ARC
8
DEFAULT_255_1_234
10
16.1975395
20
150.3979746
40
0.2808655
50
36.3142134
51
47.6305865
0
ARC
8
DEFAULT_255_1_234
10
16.1106702
20
150.3394515
40
0.3855453
50
18.2931786
51
35.6769206
0
ARC
8
DEFAULT_255_1_234
10
15.856346
20
150.2521593
40
0.654423
50
8.024666
51
18.5605216
0
ARC
8
DEFAULT_255_1_234
10
15.440038
20
150.1906792
40
1.0752407
50
1.1274072
51
8.1718305
0
ARC
8
DEFAULT_255_1_234
10
15.1164571
20
150.1779885
40
1.3990231
50
0.5424119
51
1.3863029
0
ARC
8
DEFAULT_255_1_234
10
15.2985949
20
150.2052342
40
1.0682415
50
359.8090433
51
4.9407866
0
ARC
8
DEFAULT_255_1_234
10
15.7195963
20
150.2428113
40
0.6455691
50
4.8362157
51
12.2904523
0
ARC
8
DEFAULT_255_1_234
10
15.9951078
20
150.3041965
40
0.3633074
50
12.0805627
51
23.8173984
0
ARC
8
DEFAULT_255_1_234
10
16.1124783
20
150.3538919
40
0.2358723
50
24.2871213
51
31.3935614
0
ARC
8
DEFAULT_255_1_234
10
16.164948
20
150.3882233
40
0.1732111
50
30.7407893
51
82.4657128
0
ARC
8
DEFAULT_255_1_234
10
16.1469615
20
150.2998691
40
0.263235
50
81.1060089
51
90.2184952
0
ARC
8
DEFAULT_255_1_234
10
16.1433913
20
150.3256924
40
0.2374236
50
89.3806855
51
105.6762551
0
ARC
8
DEFAULT_255_1_234
10
16.1250544
20
150.3923567
40
0.1682847
50
105.7981136
51
149.7388061
0
ARC
8
DEFAULT_255_1_234
10
16.2314622
20
150.328395
40
0.2924306
50
149.4208916
51
163.6286378
0
ARC
8
DEFAULT_255_1_234
10
16.440551
20
150.264625
40
0.5110213
50
163.3763315
51
172.1410975
0
ARC
8
DEFAULT_255_1_234
10
16.7706229
20
150.2173518
40
0.8444586
50
172.0259487
51
178.0703232
0
ARC
8
DEFAULT_255_1_234
10
17.0736319
20
150.2029906
40
1.1477868
50
177.8631668
51
179.5044149
0
ARC
8
DEFAULT_255_1_234
10
16.9663723
20
149.9715389
40
1.0404907
50
179.7995573
51
185.2460446
0
ARC
8
DEFAULT_255_1_234
10
16.5620763
20
149.9332513
40
0.6343885
50
185.1411642
51
193.0079639
0
ARC
8
DEFAULT_255_1_234
10
16.2977235
20
149.8707641
40
0.3627568
50
192.7897626
51
205.2507664
0
ARC
8
DEFAULT_255_1_234
10
16.1930782
20
149.8240415
40
0.2481908
50
205.8005384
51
211.2537509
0
ARC
8
DEFAULT_255_1_234
10
16.1407223
20
149.788958
40
0.1852521
50
210.3789793
51
238.4008143
0
ARC
8
DEFAULT_255_1_234
10
16.1387744
20
149.7936376
40
0.1882621
50
239.6520629
51
265.9793761
0
ARC
8
DEFAULT_255_1_234
10
16.1472945
20
149.8608427
40
0.2559272
50
265.1315437
51
270.060332
0
ARC
8
DEFAULT_255_1_234
10
16.1501723
20
149.8284534
40
0.2235528
50
269.3314664
51
287.2178029
0
ARC
8
DEFAULT_255_1_234
10
16.1639575
20
149.7781279
40
0.1714108
50
287.7958004
51
329.080874
0
ARC
8
DEFAULT_255_1_234
10
16.0682032
20
149.837893
40
0.2842745
50
328.6634704
51
343.3325132
0
ARC
8
DEFAULT_255_1_234
10
15.8509052
20
149.9055863
40
0.5118644
50
343.0499468
51
351.9393422
0
ARC
8
DEFAULT_255_1_234
10
15.5042352
20
149.9566949
40
0.8622784
50
351.8069023
51
357.7959224
0
ARC
8
DEFAULT_255_1_234
10
15.1806908
20
149.9734721
40
1.1862365
50
357.5871873
51
359.2677531
0
ARC
8
DEFAULT_255_2_778
10
17.2795513
20
152.8265655
40
0.9032652
50
36.6636783
51
62.8800292
0
ARC
8
DEFAULT_255_2_778
10
17.362048
20
154.0955795
40
0.5698185
50
305.2984654
51
359.1896208
0
ARC
8
DEFAULT_255_2_778
10
17.3634372
20
154.0909256
40
0.5683825
50
359.6567283
51
359.9965559
0
ARC
8
DEFAULT_255_2_778
10
17.3738628
20
154.0907968
40
0.5579568
50
0.0097156
51
44.9837975
0
ARC
8
DEFAULT_255_2_778
10
17.3736736
20
154.0909297
40
0.5579968
50
44.9604089
51
90.0139948
0
ARC
8
DEFAULT_255_2_778
10
17.3735813
20
154.0733846
40
0.5755419
50
90.0043846
51
90.2659864
0
ARC
8
DEFAULT_255_2_778
10
17.3015142
20
152.8802344
40
0.8779024
50
272.428255
51
302.0472027
0
ARC
8
DEFAULT_255_2_778
10
17.3149911
20
152.8457487
40
0.841549
50
302.5153244
51
0.4882776
0
ARC
8
DEFAULT_255_2_778
10
17.3237108
20
152.8737449
40
0.833059
50
358.5675863
51
29.0157619
0
ARC
8
DEFAULT_255_2_778
10
15.115709
20
152.8276166
40
0.90203
50
36.6388615
51
62.8867752
0
ARC
8
DEFAULT_255_2_778
10
15.1980877
20
154.0952954
40
0.5692748
50
305.2706468
51
359.2174393
0
ARC
8
DEFAULT_255_2_778
10
15.2034234
20
154.0905241
40
0.563894
50
359.6947901
51
359.9999584
0
ARC
8
DEFAULT_255_2_778
10
15.2087973
20
154.0905658
40
0.5585202
50
359.9956834
51
44.9740581
0
ARC
8
DEFAULT_255_2_778
10
15.2091182
20
154.0908026
40
0.5581257
50
44.9801433
51
90.0010632
0
ARC
8
DEFAULT_255_2_778
10
15.2091083
20
154.0868714
40
0.562057
50
90.0000416
51
90.3056982
0
ARC
8
DEFAULT_255_2_778
10
15.1365968
20
152.8803822
40
0.8780507
50
272.42898
51
302.0445025
0
ARC
8
DEFAULT_255_2_778
10
15.1501929
20
152.8457943
40
0.8415468
50
302.5093151
51
0.4851764
0
ARC
8
DEFAULT_255_2_778
10
15.1579024
20
152.8734974
40
0.8340609
50
358.5863171
51
28.9970314
0
LINE
8
DEFAULT_255_2_778
10
13.4101095
20
153.3659203
11
12.9532095
21
154.6489203
0
LINE
8
DEFAULT_255_2_778
10
12.9532095
20
154.6489203
11
12.6084095
21
154.6489203
0
LINE
8
DEFAULT_255_2_778
10
12.6084095
20
154.6489203
11
12.6084095
21
153.3659203
0
LINE
8
DEFAULT_255_2_778
10
12.6084095
20
153.3659203
11
13.4101095
21
153.3659203
0
LINE
8
DEFAULT_255_2_778
10
12.6084095
20
152.5642203
11
13.0334095
21
152.5642203
0
LINE
8
DEFAULT_255_2_778
10
13.0334095
20
152.5642203
11
13.2257095
21
152.0031203
0
LINE
8
DEFAULT_255_2_778
10
13.2257095
20
152.0031203
11
13.8911095
21
152.0031203
0
LINE
8
DEFAULT_255_2_778
10
13.8911095
20
152.0031203
11
13.4342095
21
153.2858203
0
LINE
8
DEFAULT_255_2_778
10
13.4342095
20
153.2858203
11
12.6084095
21
153.2858203
0
LINE
8
DEFAULT_255_2_778
10
12.6084095
20
153.2858203
11
12.6084095
21
152.5642203
0
LINE
8
DEFAULT_255_2_778
10
12.5283095
20
154.6489203
11
12.1835095
21
154.6489203
0
LINE
8
DEFAULT_255_2_778
10
12.1835095
20
154.6489203
11
11.7266095
21
153.3659203
0
LINE
8
DEFAULT_255_2_778
10
11.7266095
20
153.3659203
11
12.5283095
21
153.3659203
0
LINE
8
DEFAULT_255_2_778
10
12.5283095
20
153.3659203
11
12.5283095
21
154.6489203
0
LINE
8
DEFAULT_255_2_778
10
11.7025095
20
153.2858203
11
11.2453095
21
152.0031203
0
LINE
8
DEFAULT_255_2_778
10
11.2453095
20
152.0031203
11
11.9107095
21
152.0031203
0
LINE
8
DEFAULT_255_2_778
10
11.9107095
20
152.0031203
11
12.1031095
21
152.5642203
0
LINE
8
DEFAULT_255_2_778
10
12.1031095
20
152.5642203
11
12.5280095
21
152.5642203
0
LINE
8
DEFAULT_255_2_778
10
12.5280095
20
152.5642203
11
12.5280095
21
153.2858203
0
LINE
8
DEFAULT_255_2_778
10
12.5280095
20
153.2858203
11
11.7025095
21
153.2858203
0
LINE
8
DEFAULT_255_2_778
10
16.2965095
20
154.6489203
11
17.0981095
21
154.6489203
0
LINE
8
DEFAULT_255_2_778
10
17.0981095
20
154.6489203
11
17.0981095
21
153.3659203
0
LINE
8
DEFAULT_255_2_778
10
17.0981095
20
153.3659203
11
16.2965095
21
153.3659203
0
LINE
8
DEFAULT_255_2_778
10
16.2965095
20
153.3659203
11
16.2965095
21
154.6489203
0
LINE
8
DEFAULT_255_2_778
10
17.3709095
20
154.6489203
11
17.1786095
21
154.6489203
0
LINE
8
DEFAULT_255_2_778
10
17.1786095
20
154.6489203
11
17.1786095
21
153.3659203
0
LINE
8
DEFAULT_255_2_778
10
17.1786095
20
153.3659203
11
18.0043095
21
153.3659203
0
LINE
8
DEFAULT_255_2_778
10
18.0043095
20
153.3659203
11
18.0041095
21
153.3659203
0
LINE
8
DEFAULT_255_2_778
10
16.2965095
20
153.2858203
11
17.0981095
21
153.2858203
0
LINE
8
DEFAULT_255_2_778
10
17.0981095
20
153.2858203
11
17.0981095
21
152.0031203
0
LINE
8
DEFAULT_255_2_778
10
17.0981095
20
152.0031203
11
16.2965095
21
152.0031203
0
LINE
8
DEFAULT_255_2_778
10
16.2965095
20
152.0031203
11
16.2965095
21
153.2858203
0
LINE
8
DEFAULT_255_2_778
10
17.1783095
20
152.0031203
11
17.3387095
21
152.0031203
0
LINE
8
DEFAULT_255_2_778
10
18.0522095
20
153.2778203
11
17.1783095
21
153.2778203
0
LINE
8
DEFAULT_255_2_778
10
17.1783095
20
153.2778203
11
17.1783095
21
152.0031203
0
LINE
8
DEFAULT_255_2_778
10
17.1783095
20
152.0031203
11
17.1783095
21
152.0031203
0
LINE
8
DEFAULT_255_2_778
10
14.1316095
20
154.6489203
11
14.9333095
21
154.6489203
0
LINE
8
DEFAULT_255_2_778
10
14.9333095
20
154.6489203
11
14.9333095
21
153.3659203
0
LINE
8
DEFAULT_255_2_778
10
14.9333095
20
153.3659203
11
14.1316095
21
153.3659203
0
LINE
8
DEFAULT_255_2_778
10
14.1316095
20
153.3659203
11
14.1316095
21
154.6489203
0
LINE
8
DEFAULT_255_2_778
10
15.2061095
20
154.6489203
11
15.0138095
21
154.6489203
0
LINE
8
DEFAULT_255_2_778
10
15.0138095
20
154.6489203
11
15.0138095
21
153.3659203
0
LINE
8
DEFAULT_255_2_778
10
15.0138095
20
153.3659203
11
15.8395095
21
153.3659203
0
LINE
8
DEFAULT_255_2_778
10
15.8395095
20
153.3659203
11
15.8395095
21
153.3659203
0
LINE
8
DEFAULT_255_2_778
10
14.1316095
20
153.2858203
11
14.9333095
21
153.2858203
0
LINE
8
DEFAULT_255_2_778
10
14.9333095
20
153.2858203
11
14.9333095
21
152.0031203
0
LINE
8
DEFAULT_255_2_778
10
14.9333095
20
152.0031203
11
14.1316095
21
152.0031203
0
LINE
8
DEFAULT_255_2_778
10
14.1316095
20
152.0031203
11
14.1316095
21
153.2858203
0
LINE
8
DEFAULT_255_2_778
10
15.0135095
20
152.0031203
11
15.1738095
21
152.0031203
0
LINE
8
DEFAULT_255_2_778
10
15.8874095
20
153.2778203
11
15.0135095
21
153.2778203
0
LINE
8
DEFAULT_255_2_778
10
15.0135095
20
153.2778203
11
15.0135095
21
152.0031203
0
LINE
8
DEFAULT_255_2_778
10
15.0135095
20
152.0031203
11
15.0135095
21
152.0031203
0
LINE
8
DEFAULT_255_2_778
10
9.3932417
20
140.0968574
11
10.7161417
21
140.0968574
0
LINE
8
DEFAULT_255_2_778
10
10.7161417
20
140.0968574
11
10.7161417
21
75.2739574
0
LINE
8
DEFAULT_255_2_778
10
9.3932834
20
75.2739333
11
12.0390834
21
75.2739333
0
LINE
8
DEFAULT_255_2_778
10
12.0390834
20
75.2739333
11
12.0390834
21
69.9822333
0
LINE
8
DEFAULT_255_2_778
10
12.0390834
20
69.9822333
11
9.3932834
21
69.9822333
0
LINE
8
DEFAULT_255_2_778
10
9.3932834
20
69.9822333
11
9.3932834
21
75.2739333
0
ARC
8
DEFAULT_255_2_778_1
10
13.1928591
20
70.084677
40
4.816461
50
120.9442904
51
122.351755
0
ARC
8
DEFAULT_255_2_778_1
10
12.7462523
20
70.7883039
40
3.9830657
50
122.3407904
51
124.1946752
0
ARC
8
DEFAULT_255_2_778_1
10
12.3063464
20
71.4348306
40
3.2010724
50
124.1855758
51
126.4338849
0
ARC
8
DEFAULT_255_2_778_1
10
11.9204129
20
71.9575611
40
2.5513094
50
126.4326926
51
128.8877368
0
ARC
8
DEFAULT_255_2_778_1
10
11.5855968
20
72.3719658
40
2.0185498
50
128.8749205
51
131.8726567
0
ARC
8
DEFAULT_255_2_778_1
10
11.2884677
20
72.7029854
40
1.5737356
50
131.8616166
51
135.4168838
0
ARC
8
DEFAULT_255_2_778_1
10
11.025668
20
72.9611765
40
1.2053256
50
135.3893975
51
139.9687014
0
ARC
8
DEFAULT_255_2_778_1
10
10.7927889
20
73.1560102
40
0.9016937
50
139.9301659
51
145.9260426
0
ARC
8
DEFAULT_255_2_778_1
10
10.596654
20
73.2880104
40
0.6652776
50
145.8787362
51
153.8146208
0
ARC
8
DEFAULT_255_2_778_1
10
10.4445553
20
73.3623797
40
0.4959714
50
153.770634
51
164.3484794
0
ARC
8
DEFAULT_255_2_778_1
10
10.3432387
20
73.3905786
40
0.3908039
50
164.3220276
51
179.8083066
0
ARC
8
DEFAULT_255_2_778_1
10
10.3642789
20
73.398715
40
0.4118985
50
180.9499449
51
213.8111542
0
ARC
8
DEFAULT_255_2_778_1
10
10.6401828
20
73.5682896
40
0.73561
50
212.8271214
51
224.258472
0
ARC
8
DEFAULT_255_2_778_1
10
11.0230335
20
73.9376236
40
1.267567
50
224.1376218
51
231.4508261
0
ARC
8
DEFAULT_255_2_778_1
10
11.6657195
20
74.7406168
40
2.2960809
50
231.3955893
51
236.1256478
0
ARC
8
DEFAULT_255_2_778_1
10
13.4980223
20
77.4871293
40
5.5976905
50
236.2233172
51
239.1314682
0
ARC
8
DEFAULT_255_2_778_1
10
25.447927
20
97.2148568
40
28.6623793
50
238.8606853
51
239.0711101
0
ARC
8
DEFAULT_255_2_778_1
10
6.2757281
20
65.1177653
40
8.7248518
50
57.2420924
51
59.4062964
0
ARC
8
DEFAULT_255_2_778_1
10
9.5034241
20
70.1487102
40
2.747542
50
52.8289294
51
57.079028
0
ARC
8
DEFAULT_255_2_778_1
10
10.2780783
20
71.1690488
40
1.466457
50
46.3041868
51
52.8596521
0
ARC
8
DEFAULT_255_2_778_1
10
10.7103073
20
71.6191842
40
0.8424061
50
36.2174211
51
46.4090895
0
ARC
8
DEFAULT_255_2_778_1
10
10.9948088
20
71.8240128
40
0.4918609
50
17.400375
51
36.5489745
0
ARC
8
DEFAULT_255_2_778_1
10
11.1088994
20
71.8638754
40
0.3710912
50
0.0676858
51
16.7951297
0
ARC
8
DEFAULT_255_2_778_1
10
11.0878613
20
71.8657428
40
0.3921317
50
343.8035191
51
359.7912046
0
ARC
8
DEFAULT_255_2_778_1
10
10.9815912
20
71.8962167
40
0.5026844
50
333.2506233
51
343.8465691
0
ARC
8
DEFAULT_255_2_778_1
10
10.8277757
20
71.9729313
40
0.6745679
50
325.6600948
51
333.3122657
0
ARC
8
DEFAULT_255_2_778_1
10
10.6323344
20
72.1057296
40
0.9108568
50
319.7560915
51
325.6976089
0
ARC
8
DEFAULT_255_2_778_1
10
10.404199
20
72.2975002
40
1.2088854
50
315.4577584
51
319.8037947
0
ARC
8
DEFAULT_255_2_778_1
10
10.1408127
20
72.5563507
40
1.5781764
50
311.7298824
51
315.4670864
0
ARC
8
DEFAULT_255_2_778_1
10
9.8317879
20
72.9019074
40
2.0417554
50
308.723055
51
311.7470879
0
ARC
8
DEFAULT_255_2_778_1
10
9.477589
20
73.3431492
40
2.6075745
50
306.1165163
51
308.7300151
0
ARC
8
DEFAULT_255_2_778_1
10
9.0746091
20
73.8944523
40
3.2904564
50
303.9559446
51
306.1266333
0
ARC
8
DEFAULT_255_2_778_1
10
8.6630432
20
74.503715
40
4.0257023
50
302.3733397
51
303.9712246
0
ARC
8
DEFAULT_255_2_778_1
10
8.2434347
20
75.1652058
40
4.8090549
50
300.9434827
51
302.3758078
0
LINE
8
DEFAULT_255_2_778
10
10.7161417
20
69.9822574
11
10.7161417
21
5.1593574
0
LINE
8
DEFAULT_255_2_778
10
10.7161417
20
5.1593574
11
9.3932417
21
5.1593574
0
LINE
8
DEFAULT_255_1_234
10
4.9274119
20
147.6366792
11
4.9274119
21
147.5154
0
LINE
8
DEFAULT_255_1_234
10
4.9274119
20
147.5154
11
4.161184
21
147.5154
0
LINE
8
DEFAULT_255_1_234
10
4.161184
20
147.5154
11
4.161184
21
147.6222221
0
LINE
8
DEFAULT_255_1_234
10
4.161184
20
147.6222221
11
4.5659836
21
148.0719995
0
LINE
8
DEFAULT_255_1_234
10
4.2872823
20
148.3402595
11
4.1386952
21
148.3402595
0
LINE
8
DEFAULT_255_1_234
10
4.6535296
20
147.9764218
11
4.3402918
21
147.6366792
0
LINE
8
DEFAULT_255_1_234
10
4.3402918
20
147.6366792
11
4.9274119
21
147.6366792
0
ARC
8
DEFAULT_255_1_234
10
3.216967
20
149.2649527
40
1.8008286
50
318.5132453
51
320.7828378
0
ARC
8
DEFAULT_255_1_234
10
3.7456644
20
148.8346426
40
1.1191493
50
320.7372736
51
323.9737074
0
ARC
8
DEFAULT_255_1_234
10
4.1376501
20
148.5506361
40
0.6350923
50
323.8961724
51
328.6421089
0
ARC
8
DEFAULT_255_1_234
10
4.3423096
20
148.4244031
40
0.3946393
50
328.8299013
51
331.789948
0
ARC
8
DEFAULT_255_1_234
10
4.4420274
20
148.3729509
40
0.2824501
50
331.4255242
51
352.9364833
0
ARC
8
DEFAULT_255_1_234
10
4.4556775
20
148.3698976
40
0.2685315
50
353.2248685
51
0.0169286
0
ARC
8
DEFAULT_255_1_234
10
4.4766652
20
148.372195
40
0.2475536
50
359.4866256
51
15.9339782
0
ARC
8
DEFAULT_255_1_234
10
4.5273637
20
148.3858286
40
0.1950618
50
16.1714718
51
43.5284424
0
ARC
8
DEFAULT_255_1_234
10
4.5350946
20
148.3935573
40
0.184134
50
43.4415429
51
83.1661404
0
ARC
8
DEFAULT_255_1_234
10
4.5216864
20
148.3198771
40
0.258926
50
82.160215
51
90.1505798
0
ARC
8
DEFAULT_255_1_234
10
4.5185291
20
148.2661865
40
0.3126255
50
89.5460705
51
102.5418777
0
ARC
8
DEFAULT_255_1_234
10
4.4942377
20
148.3692665
40
0.2067346
50
102.1739365
51
129.2061916
0
ARC
8
DEFAULT_255_1_234
10
4.4863449
20
148.3817094
40
0.1921118
50
129.7279328
51
135.7542026
0
ARC
8
DEFAULT_255_1_234
10
4.4984977
20
148.3720045
40
0.2075944
50
136.175737
51
166.3674722
0
ARC
8
DEFAULT_255_1_234
10
4.5991896
20
148.3450182
40
0.3118201
50
165.9092917
51
178.8683903
0
ARC
8
DEFAULT_255_1_234
10
4.6856757
20
148.3403179
40
0.3983935
50
178.438168
51
180.0083905
0
ARC
8
DEFAULT_255_1_234
10
4.5455359
20
148.3442231
40
0.4068601
50
163.2878735
51
180.5581814
0
ARC
8
DEFAULT_255_1_234
10
4.4653621
20
148.366284
40
0.3237344
50
133.454115
51
162.9470031
0
ARC
8
DEFAULT_255_1_234
10
4.4832162
20
148.3473
40
0.349795
50
100.7869394
51
133.4384016
0
ARC
8
DEFAULT_255_1_234
10
4.5179934
20
148.1924319
40
0.5084616
50
89.6605301
51
101.3704185
0
ARC
8
DEFAULT_255_1_234
10
4.5246273
20
148.1985496
40
0.502348
50
78.2171172
51
90.4130393
0
ARC
8
DEFAULT_255_1_234
10
4.5601351
20
148.3609637
40
0.3361092
50
55.9268222
51
78.4888551
0
ARC
8
DEFAULT_255_1_234
10
4.5797791
20
148.3948324
40
0.2970617
50
47.9292255
51
55.4054003
0
ARC
8
DEFAULT_255_1_234
10
4.5899352
20
148.4051502
40
0.2825983
50
4.3347696
51
48.0560701
0
ARC
8
DEFAULT_255_1_234
10
4.4803745
20
148.3881601
40
0.393225
50
359.925209
51
5.5967654
0
ARC
8
DEFAULT_255_1_234
10
4.5232637
20
148.3937816
40
0.3503892
50
337.8914096
51
358.9967724
0
ARC
8
DEFAULT_255_1_234
10
4.2519049
20
148.4984706
40
0.6412172
50
326.9135351
51
338.3505194
0
ARC
8
DEFAULT_255_1_234
10
3.8533353
20
148.7539284
40
1.1146189
50
319.6472867
51
327.095818
0
ARC
8
DEFAULT_255_1_234
10
3.4700356
20
149.0701
40
1.6114559
50
317.2586784
51
319.9046139
0
LINE
8
DEFAULT_255_1_234
10
5.7121127
20
148.6848211
11
5.7121127
21
147.908152
0
LINE
8
DEFAULT_255_1_234
10
5.7121127
20
147.908152
11
5.8743538
21
147.908152
0
LINE
8
DEFAULT_255_1_234
10
5.8743538
20
147.908152
11
5.8743538
21
147.7868728
0
LINE
8
DEFAULT_255_1_234
10
5.8743538
20
147.7868728
11
5.7121127
21
147.7868728
0
LINE
8
DEFAULT_255_1_234
10
5.7121127
20
147.7868728
11
5.7121127
21
147.5154
0
LINE
8
DEFAULT_255_1_234
10
5.7121127
20
147.5154
11
5.5627224
21
147.5154
0
LINE
8
DEFAULT_255_1_234
10
5.5627224
20
147.5154
11
5.5627224
21
147.7868728
0
LINE
8
DEFAULT_255_1_234
10
5.5627224
20
147.7868728
11
5.0302181
21
147.7868728
0
LINE
8
DEFAULT_255_1_234
10
5.0302181
20
147.7868728
11
5.0302181
21
147.8744187
0
LINE
8
DEFAULT_255_1_234
10
5.0302181
20
147.8744187
11
5.5538875
21
148.6848211
0
LINE
8
DEFAULT_255_1_234
10
5.5538875
20
148.6848211
11
5.7121127
21
148.6848211
0
LINE
8
DEFAULT_255_1_234
10
5.5450525
20
148.4494912
11
5.1988846
21
147.908152
0
LINE
8
DEFAULT_255_1_234
10
5.1988846
20
147.908152
11
5.5627224
21
147.908152
0
LINE
8
DEFAULT_255_1_234
10
5.5627224
20
147.908152
11
5.5627224
21
148.4816181
0
LINE
8
DEFAULT_255_1_234
10
5.5627224
20
148.4816181
11
5.5450525
21
148.4494912
0
LINE
8
DEFAULT_255_1_234
10
6.101652
20
148.6848211
11
6.434166
21
147.7202093
0
LINE
8
DEFAULT_255_1_234
10
6.434166
20
147.7202093
11
6.7682863
21
148.6848211
0
LINE
8
DEFAULT_255_1_234
10
6.7682863
20
148.6848211
11
6.9369528
21
148.6848211
0
LINE
8
DEFAULT_255_1_234
10
6.9369528
20
148.6848211
11
6.5032389
21
147.5154
0
LINE
8
DEFAULT_255_1_234
10
6.5032389
20
147.5154
11
6.3666994
21
147.5154
0
LINE
8
DEFAULT_255_1_234
10
6.3666994
20
147.5154
11
5.9337887
21
148.6848211
0
LINE
8
DEFAULT_255_1_234
10
5.9337887
20
148.6848211
11
6.101652
21
148.6848211
0
LINE
8
DEFAULT_255_1_234
10
4.4480154
20
4.6404
11
4.1243364
21
4.6404
0
LINE
8
DEFAULT_255_1_234
10
4.1243364
20
4.6404
11
4.1243364
21
5.8098211
0
LINE
8
DEFAULT_255_1_234
10
4.1243364
20
5.8098211
11
4.4544408
21
5.8098211
0
LINE
8
DEFAULT_255_1_234
10
4.9700784
20
5.2644661
11
4.9700784
21
5.1897709
0
LINE
8
DEFAULT_255_1_234
10
4.4584567
20
5.6829196
11
4.2785458
21
5.6829196
0
LINE
8
DEFAULT_255_1_234
10
4.2785458
20
5.6829196
11
4.2785458
21
4.7664983
0
LINE
8
DEFAULT_255_1_234
10
4.2785458
20
4.7664983
11
4.4407869
21
4.7664983
0
LINE
8
DEFAULT_255_1_234
10
4.8174754
20
5.1929836
11
4.8174754
21
5.2612534
0
ARC
8
DEFAULT_255_1_234
10
4.4583351
20
5.2232894
40
0.5865446
50
75.4101064
51
90.3804066
0
ARC
8
DEFAULT_255_1_234
10
4.4812864
20
5.3189492
40
0.4881916
50
60.145586
51
75.1888407
0
ARC
8
DEFAULT_255_1_234
10
4.497164
20
5.3466199
40
0.4562893
50
26.5253612
51
60.1450928
0
ARC
8
DEFAULT_255_1_234
10
4.3851389
20
5.2872158
40
0.5830602
50
7.4030428
51
26.8320788
0
ARC
8
DEFAULT_255_1_234
10
4.2257146
20
5.2623804
40
0.7443669
50
0.1605367
51
7.7176192
0
ARC
8
DEFAULT_255_1_234
10
4.242105
20
5.1859434
40
0.7279835
50
348.7289388
51
0.3012466
0
ARC
8
DEFAULT_255_1_234
10
4.4077481
20
5.1530386
40
0.559104
50
333.0706509
51
348.7181832
0
ARC
8
DEFAULT_255_1_234
10
4.5044238
20
5.1005319
40
0.4491417
50
299.2531685
51
333.4571258
0
ARC
8
DEFAULT_255_1_234
10
4.4683378
20
5.1690828
40
0.5265881
50
278.107187
51
299.0339503
0
ARC
8
DEFAULT_255_1_234
10
4.4427457
20
5.3198216
40
0.679442
50
270.4443897
51
278.4511052
0
ARC
8
DEFAULT_255_1_234
10
4.4448287
20
5.2269213
40
0.4604407
50
269.4970433
51
284.0205042
0
ARC
8
DEFAULT_255_1_234
10
4.4803588
20
5.0903978
40
0.3193797
50
283.7700273
51
318.1555492
0
ARC
8
DEFAULT_255_1_234
10
4.4466346
20
5.1156367
40
0.3613588
50
318.7415601
51
343.6873628
0
ARC
8
DEFAULT_255_1_234
10
4.2662369
20
5.1719832
40
0.5503313
50
343.3325091
51
355.8548958
0
ARC
8
DEFAULT_255_1_234
10
4.0564054
20
5.1919319
40
0.7610708
50
355.4988528
51
0.0791727
0
ARC
8
DEFAULT_255_1_234
10
4.1346676
20
5.265478
40
0.6828208
50
359.6455037
51
9.8607896
0
ARC
8
DEFAULT_255_1_234
10
4.3707374
20
5.3081099
40
0.4429406
50
9.6571907
51
26.1932807
0
ARC
8
DEFAULT_255_1_234
10
4.4635363
20
5.3512118
40
0.3406537
50
26.5777228
51
40.1532208
0
ARC
8
DEFAULT_255_1_234
10
4.4891089
20
5.3711619
40
0.308246
50
40.3840491
51
80.1431104
0
ARC
8
DEFAULT_255_1_234
10
4.4564207
20
5.2262333
40
0.4566909
50
79.2152159
51
89.7445637
0
LINE
8
DEFAULT_255_1_234
10
5.3684526
20
5.8098211
11
5.3684526
21
4.6404
0
LINE
8
DEFAULT_255_1_234
10
5.3684526
20
4.6404
11
5.2142433
21
4.6404
0
LINE
8
DEFAULT_255_1_234
10
5.2142433
20
4.6404
11
5.2142433
21
5.8098211
0
LINE
8
DEFAULT_255_1_234
10
5.2142433
20
5.8098211
11
5.3684526
21
5.8098211
0
LINE
8
DEFAULT_255_1_234
10
6.100144
20
5.8154433
11
6.100144
21
4.6404
0
LINE
8
DEFAULT_255_1_234
10
6.100144
20
4.6404
11
5.9507537
21
4.6404
0
LINE
8
DEFAULT_255_1_234
10
5.9507537
20
4.6404
11
5.9507537
21
5.6307133
0
LINE
8
DEFAULT_255_1_234
10
5.9507537
20
5.6307133
11
5.6511698
21
5.5206785
0
LINE
8
DEFAULT_255_1_234
10
5.6511698
20
5.5206785
11
5.6511698
21
5.6556117
0
LINE
8
DEFAULT_255_1_234
10
5.6511698
20
5.6556117
11
6.076852
21
5.8154433
0
LINE
8
DEFAULT_255_1_234
10
6.076852
20
5.8154433
11
6.100144
21
5.8154433
0
LINE
8
DEFAULT_255_1_234
10
4.4572154
20
12.5779
11
4.1335364
21
12.5779
0
LINE
8
DEFAULT_255_1_234
10
4.1335364
20
12.5779
11
4.1335364
21
13.7473211
0
LINE
8
DEFAULT_255_1_234
10
4.1335364
20
13.7473211
11
4.4636408
21
13.7473211
0
LINE
8
DEFAULT_255_1_234
10
4.9792784
20
13.2019661
11
4.9792784
21
13.1272709
0
LINE
8
DEFAULT_255_1_234
10
4.4676567
20
13.6204196
11
4.2877458
21
13.6204196
0
LINE
8
DEFAULT_255_1_234
10
4.2877458
20
13.6204196
11
4.2877458
21
12.7039983
0
LINE
8
DEFAULT_255_1_234
10
4.2877458
20
12.7039983
11
4.4499869
21
12.7039983
0
LINE
8
DEFAULT_255_1_234
10
4.8266754
20
13.1304836
11
4.8266754
21
13.1987534
0
ARC
8
DEFAULT_255_1_234
10
4.4675351
20
13.1607894
40
0.5865446
50
75.4101064
51
90.3804066
0
ARC
8
DEFAULT_255_1_234
10
4.4904864
20
13.2564492
40
0.4881916
50
60.145586
51
75.1888407
0
ARC
8
DEFAULT_255_1_234
10
4.506364
20
13.2841199
40
0.4562893
50
26.5253612
51
60.1450928
0
ARC
8
DEFAULT_255_1_234
10
4.3943389
20
13.2247158
40
0.5830602
50
7.4030428
51
26.8320788
0
ARC
8
DEFAULT_255_1_234
10
4.2349146
20
13.1998804
40
0.7443669
50
0.1605367
51
7.7176192
0
ARC
8
DEFAULT_255_1_234
10
4.251305
20
13.1234434
40
0.7279835
50
348.7289388
51
0.3012466
0
ARC
8
DEFAULT_255_1_234
10
4.4169481
20
13.0905386
40
0.559104
50
333.0706509
51
348.7181832
0
ARC
8
DEFAULT_255_1_234
10
4.5136238
20
13.0380319
40
0.4491417
50
299.2531685
51
333.4571258
0
ARC
8
DEFAULT_255_1_234
10
4.4775378
20
13.1065828
40
0.5265881
50
278.107187
51
299.0339503
0
ARC
8
DEFAULT_255_1_234
10
4.4519457
20
13.2573216
40
0.679442
50
270.4443897
51
278.4511052
0
ARC
8
DEFAULT_255_1_234
10
4.4540287
20
13.1644213
40
0.4604407
50
269.4970433
51
284.0205042
0
ARC
8
DEFAULT_255_1_234
10
4.4895588
20
13.0278978
40
0.3193797
50
283.7700273
51
318.1555492
0
ARC
8
DEFAULT_255_1_234
10
4.4558346
20
13.0531367
40
0.3613588
50
318.7415601
51
343.6873628
0
ARC
8
DEFAULT_255_1_234
10
4.2754369
20
13.1094832
40
0.5503313
50
343.3325091
51
355.8548958
0
ARC
8
DEFAULT_255_1_234
10
4.0656054
20
13.1294319
40
0.7610708
50
355.4988528
51
0.0791727
0
ARC
8
DEFAULT_255_1_234
10
4.1438676
20
13.202978
40
0.6828208
50
359.6455037
51
9.8607896
0
ARC
8
DEFAULT_255_1_234
10
4.3799374
20
13.2456099
40
0.4429406
50
9.6571907
51
26.1932807
0
ARC
8
DEFAULT_255_1_234
10
4.4727363
20
13.2887118
40
0.3406537
50
26.5777228
51
40.1532208
0
ARC
8
DEFAULT_255_1_234
10
4.4983089
20
13.3086619
40
0.308246
50
40.3840491
51
80.1431104
0
ARC
8
DEFAULT_255_1_234
10
4.4656207
20
13.1637333
40
0.4566909
50
79.2152159
51
89.7445637
0
LINE
8
DEFAULT_255_1_234
10
5.3776526
20
13.7473211
11
5.3776526
21
12.5779
0
LINE
8
DEFAULT_255_1_234
10
5.3776526
20
12.5779
11
5.2234433
21
12.5779
0
LINE
8
DEFAULT_255_1_234
10
5.2234433
20
12.5779
11
5.2234433
21
13.7473211
0
LINE
8
DEFAULT_255_1_234
10
5.2234433
20
13.7473211
11
5.3776526
21
13.7473211
0
LINE
8
DEFAULT_255_1_234
10
6.354312
20
13.2694327
11
6.354312
21
13.0766709
0
LINE
8
DEFAULT_255_1_234
10
5.6161953
20
13.0565916
11
5.6161953
21
13.2549755
0
LINE
8
DEFAULT_255_1_234
10
6.2057249
20
13.0365123
11
6.2057249
21
13.2798739
0
LINE
8
DEFAULT_255_1_234
10
5.7647824
20
13.2911184
11
5.7647824
21
13.0533789
0
ARC
8
DEFAULT_255_1_234
10
5.129601
20
13.0717805
40
1.2247208
50
353.8441951
51
0.2287902
0
ARC
8
DEFAULT_255_1_234
10
5.5935513
20
13.0199806
40
0.7578929
50
344.4934747
51
353.9765454
0
ARC
8
DEFAULT_255_1_234
10
5.8928104
20
12.9348981
40
0.4467846
50
329.2803592
51
344.7472793
0
ARC
8
DEFAULT_255_1_234
10
5.9920928
20
12.8804018
40
0.3336173
50
324.9352394
51
328.6160465
0
ARC
8
DEFAULT_255_1_234
10
6.0298037
20
12.8540427
40
0.2876076
50
280.580143
51
324.9173126
0
ARC
8
DEFAULT_255_1_234
10
5.989683
20
13.0211099
40
0.4592847
50
269.5977311
51
281.6734359
0
ARC
8
DEFAULT_255_1_234
10
5.9824735
20
13.0091173
40
0.4472986
50
256.6228859
51
270.51044
0
ARC
8
DEFAULT_255_1_234
10
5.9422713
20
12.8542877
40
0.2873874
50
215.8618325
51
257.2788573
0
ARC
8
DEFAULT_255_1_234
10
6.0443745
20
12.9227977
40
0.4102928
50
197.9693508
51
215.2623606
0
ARC
8
DEFAULT_255_1_234
10
6.292886
20
13.0066709
40
0.6725652
50
187.8816417
51
198.2346507
0
ARC
8
DEFAULT_255_1_234
10
6.6887069
20
13.0638079
40
1.0724845
50
180.8976217
51
188.0055519
0
ARC
8
DEFAULT_255_1_234
10
6.9687257
20
13.0741777
40
1.3526448
50
180.7449369
51
181.1510016
0
ARC
8
DEFAULT_255_1_234
10
6.8109986
20
13.2598042
40
1.1948131
50
173.7675579
51
180.231553
0
ARC
8
DEFAULT_255_1_234
10
6.3592132
20
13.3108666
40
0.7401564
50
164.3058563
51
173.9002247
0
ARC
8
DEFAULT_255_1_234
10
6.0680201
20
13.3947656
40
0.4371288
50
148.7922025
51
164.568378
0
ARC
8
DEFAULT_255_1_234
10
5.9728653
20
13.4478929
40
0.3282386
50
144.5883898
51
148.1176286
0
ARC
8
DEFAULT_255_1_234
10
5.9385551
20
13.4718315
40
0.2864044
50
101.6440918
51
144.514236
0
ARC
8
DEFAULT_255_1_234
10
5.9810618
20
13.3029069
40
0.4604934
50
89.5284041
51
102.5819763
0
ARC
8
DEFAULT_255_1_234
10
5.9889706
20
13.2990018
40
0.464401
50
77.0437873
51
90.5081339
0
ARC
8
DEFAULT_255_1_234
10
6.0291708
20
13.4632615
40
0.2953195
50
48.2778575
51
77.4994676
0
ARC
8
DEFAULT_255_1_234
10
6.0364339
20
13.4761746
40
0.2808655
50
36.3142134
51
47.6305865
0
ARC
8
DEFAULT_255_1_234
10
5.9495646
20
13.4176515
40
0.3855453
50
18.2931786
51
35.6769206
0
ARC
8
DEFAULT_255_1_234
10
5.6952405
20
13.3303593
40
0.654423
50
8.024666
51
18.5605216
0
ARC
8
DEFAULT_255_1_234
10
5.2789325
20
13.2688792
40
1.0752407
50
1.1274072
51
8.1718305
0
ARC
8
DEFAULT_255_1_234
10
4.9553515
20
13.2561885
40
1.3990231
50
0.5424119
51
1.3863029
0
ARC
8
DEFAULT_255_1_234
10
5.1374893
20
13.2834342
40
1.0682415
50
359.8090433
51
4.9407866
0
ARC
8
DEFAULT_255_1_234
10
5.5584907
20
13.3210113
40
0.6455691
50
4.8362157
51
12.2904523
0
ARC
8
DEFAULT_255_1_234
10
5.8340022
20
13.3823965
40
0.3633074
50
12.0805627
51
23.8173984
0
ARC
8
DEFAULT_255_1_234
10
5.9513727
20
13.4320919
40
0.2358723
50
24.2871213
51
31.3935614
0
ARC
8
DEFAULT_255_1_234
10
6.0038424
20
13.4664233
40
0.1732111
50
30.7407893
51
82.4657128
0
ARC
8
DEFAULT_255_1_234
10
5.9858559
20
13.3780691
40
0.263235
50
81.1060089
51
90.2184952
0
ARC
8
DEFAULT_255_1_234
10
5.9822858
20
13.4038924
40
0.2374236
50
89.3806855
51
105.6762551
0
ARC
8
DEFAULT_255_1_234
10
5.9639488
20
13.4705567
40
0.1682847
50
105.7981136
51
149.7388061
0
ARC
8
DEFAULT_255_1_234
10
6.0703567
20
13.406595
40
0.2924306
50
149.4208916
51
163.6286378
0
ARC
8
DEFAULT_255_1_234
10
6.2794455
20
13.342825
40
0.5110213
50
163.3763315
51
172.1410975
0
ARC
8
DEFAULT_255_1_234
10
6.6095174
20
13.2955518
40
0.8444586
50
172.0259487
51
178.0703232
0
ARC
8
DEFAULT_255_1_234
10
6.9125263
20
13.2811906
40
1.1477868
50
177.8631668
51
179.5044149
0
ARC
8
DEFAULT_255_1_234
10
6.8052668
20
13.0497389
40
1.0404907
50
179.7995573
51
185.2460446
0
ARC
8
DEFAULT_255_1_234
10
6.4009707
20
13.0114513
40
0.6343885
50
185.1411642
51
193.0079639
0
ARC
8
DEFAULT_255_1_234
10
6.1366179
20
12.9489641
40
0.3627568
50
192.7897626
51
205.2507664
0
ARC
8
DEFAULT_255_1_234
10
6.0319726
20
12.9022415
40
0.2481908
50
205.8005384
51
211.2537509
0
ARC
8
DEFAULT_255_1_234
10
5.9796167
20
12.867158
40
0.1852521
50
210.3789793
51
238.4008143
0
ARC
8
DEFAULT_255_1_234
10
5.9776689
20
12.8718376
40
0.1882621
50
239.6520629
51
265.9793761
0
ARC
8
DEFAULT_255_1_234
10
5.9861889
20
12.9390427
40
0.2559272
50
265.1315437
51
270.060332
0
ARC
8
DEFAULT_255_1_234
10
5.9890668
20
12.9066534
40
0.2235528
50
269.3314664
51
287.2178029
0
ARC
8
DEFAULT_255_1_234
10
6.002852
20
12.8563279
40
0.1714108
50
287.7958004
51
329.080874
0
ARC
8
DEFAULT_255_1_234
10
5.9070977
20
12.916093
40
0.2842745
50
328.6634704
51
343.3325132
0
ARC
8
DEFAULT_255_1_234
10
5.6897997
20
12.9837863
40
0.5118644
50
343.0499468
51
351.9393422
0
ARC
8
DEFAULT_255_1_234
10
5.3431297
20
13.0348949
40
0.8622784
50
351.8069023
51
357.7959224
0
ARC
8
DEFAULT_255_1_234
10
5.0195853
20
13.0516721
40
1.1862365
50
357.5871873
51
359.2677531
0
LINE
8
DEFAULT_255_1_234
10
5.0560293
20
20.5154
11
4.9443881
21
20.8206061
0
LINE
8
DEFAULT_255_1_234
10
4.9443881
20
20.8206061
11
4.4544521
21
20.8206061
0
LINE
8
DEFAULT_255_1_234
10
4.4544521
20
20.8206061
11
4.3444173
21
20.5154
0
LINE
8
DEFAULT_255_1_234
10
4.3444173
20
20.5154
11
4.1853889
21
20.5154
0
LINE
8
DEFAULT_255_1_234
10
4.1853889
20
20.5154
11
4.6319535
21
21.6848211
0
LINE
8
DEFAULT_255_1_234
10
4.6319535
20
21.6848211
11
4.7668867
21
21.6848211
0
LINE
8
DEFAULT_255_1_234
10
4.7668867
20
21.6848211
11
5.2142545
21
20.5154
0
LINE
8
DEFAULT_255_1_234
10
5.2142545
20
20.5154
11
5.0560293
21
20.5154
0
LINE
8
DEFAULT_255_1_234
10
4.6994201
20
21.4944689
11
4.5010362
21
20.9475075
0
LINE
8
DEFAULT_255_1_234
10
4.5010362
20
20.9475075
11
4.8986072
21
20.9475075
0
LINE
8
DEFAULT_255_1_234
10
4.8986072
20
20.9475075
11
4.6994201
21
21.4944689
0
LINE
8
DEFAULT_255_1_234
10
5.5371304
20
21.6848211
11
5.5371304
21
20.5154
0
LINE
8
DEFAULT_255_1_234
10
5.5371304
20
20.5154
11
5.382921
21
20.5154
0
LINE
8
DEFAULT_255_1_234
10
5.382921
20
20.5154
11
5.382921
21
21.6848211
0
LINE
8
DEFAULT_255_1_234
10
5.382921
20
21.6848211
11
5.5371304
21
21.6848211
0
LINE
8
DEFAULT_255_1_234
10
6.2688218
20
21.6904433
11
6.2688218
21
20.5154
0
LINE
8
DEFAULT_255_1_234
10
6.2688218
20
20.5154
11
6.1194314
21
20.5154
0
LINE
8
DEFAULT_255_1_234
10
6.1194314
20
20.5154
11
6.1194314
21
21.5057133
0
LINE
8
DEFAULT_255_1_234
10
6.1194314
20
21.5057133
11
5.8198476
21
21.3956785
0
LINE
8
DEFAULT_255_1_234
10
5.8198476
20
21.3956785
11
5.8198476
21
21.5306117
0
LINE
8
DEFAULT_255_1_234
10
5.8198476
20
21.5306117
11
6.2455297
21
21.6904433
0
LINE
8
DEFAULT_255_1_234
10
6.2455297
20
21.6904433
11
6.2688218
21
21.6904433
0
LINE
8
DEFAULT_255_1_234
10
6.8912815
20
21.0711963
11
6.7724118
21
21.1017169
0
LINE
8
DEFAULT_255_1_234
10
6.7724118
20
21.1017169
11
6.8318466
21
21.6848211
0
LINE
8
DEFAULT_255_1_234
10
6.8318466
20
21.6848211
11
7.4310143
21
21.6848211
0
LINE
8
DEFAULT_255_1_234
10
7.4310143
20
21.6848211
11
7.4310143
21
21.5474784
0
LINE
8
DEFAULT_255_1_234
10
7.4310143
20
21.5474784
11
6.9579449
21
21.5474784
0
LINE
8
DEFAULT_255_1_234
10
6.9579449
20
21.5474784
11
6.9226053
21
21.2286184
0
LINE
8
DEFAULT_255_1_234
10
6.7306467
20
20.8230156
11
6.8712021
21
20.8230156
0
LINE
8
DEFAULT_255_1_234
10
6.930637
20
21.1033232
11
6.8912815
21
21.0711963
0
ARC
8
DEFAULT_255_1_234
10
7.1080837
20
20.910623
40
0.3681349
50
93.7182161
51
120.2538958
0
ARC
8
DEFAULT_255_1_234
10
7.11751
20
20.8298394
40
0.449379
50
89.9660152
51
94.2496022
0
ARC
8
DEFAULT_255_1_234
10
7.1215834
20
20.8887549
40
0.390482
50
73.8043271
51
90.5585896
0
ARC
8
DEFAULT_255_1_234
10
7.145073
20
20.9745602
40
0.3015334
50
41.3071453
51
73.5430202
0
ARC
8
DEFAULT_255_1_234
10
7.1034558
20
20.9387324
40
0.3564457
50
13.5075983
51
41.2174222
0
ARC
8
DEFAULT_255_1_234
10
6.9392762
20
20.8957486
40
0.5261351
50
1.1331335
51
13.8829381
0
ARC
8
DEFAULT_255_1_234
10
6.7981131
20
20.8881665
40
0.6674378
50
359.9919444
51
1.544251
0
ARC
8
DEFAULT_255_1_234
10
6.9257957
20
20.884028
40
0.5397702
50
347.8572367
51
0.4293338
0
ARC
8
DEFAULT_255_1_234
10
7.1008275
20
20.8443736
40
0.3603188
50
323.673004
51
348.1672506
0
ARC
8
DEFAULT_255_1_234
10
7.1302783
20
20.8264168
40
0.3259678
50
316.8171152
51
323.1492751
0
ARC
8
DEFAULT_255_1_234
10
7.1363972
20
20.822746
40
0.3189975
50
281.8396411
51
316.5457803
0
ARC
8
DEFAULT_255_1_234
10
7.0988235
20
20.9782762
40
0.4789527
50
269.5770101
51
282.4214771
0
ARC
8
DEFAULT_255_1_234
10
7.0917047
20
20.9569125
40
0.45759
50
256.2427136
51
270.4486331
0
ARC
8
DEFAULT_255_1_234
10
7.0617949
20
20.8369229
40
0.3339303
50
228.9023911
51
256.3314342
0
ARC
8
DEFAULT_255_1_234
10
7.0544182
20
20.8252746
40
0.32031
50
193.753695
51
228.5271154
0
ARC
8
DEFAULT_255_1_234
10
7.1782136
20
20.86158
40
0.4492253
50
184.924711
51
194.497588
0
ARC
8
DEFAULT_255_1_234
10
7.1974703
20
20.8651591
40
0.3289787
50
187.3600538
51
198.6732863
0
ARC
8
DEFAULT_255_1_234
10
7.0924997
20
20.8287674
40
0.217884
50
198.4451669
51
217.794479
0
ARC
8
DEFAULT_255_1_234
10
7.0629172
20
20.8078085
40
0.1816698
50
218.2887171
51
228.5612368
0
ARC
8
DEFAULT_255_1_234
10
7.0726959
20
20.8209963
40
0.1980329
50
228.9654866
51
258.1234728
0
ARC
8
DEFAULT_255_1_234
10
7.0932669
20
20.9090833
40
0.2884748
50
257.7258293
51
270.401361
0
ARC
8
DEFAULT_255_1_234
10
7.0977555
20
20.8645821
40
0.2439788
50
269.4204404
51
286.4209037
0
ARC
8
DEFAULT_255_1_234
10
7.1126043
20
20.8106657
40
0.1880666
50
286.7251356
51
320.600362
0
ARC
8
DEFAULT_255_1_234
10
7.0742868
20
20.8417595
40
0.2374121
50
320.6712579
51
344.5441685
0
ARC
8
DEFAULT_255_1_234
10
6.9586194
20
20.8757045
40
0.3579479
50
344.2412205
51
356.7357071
0
ARC
8
DEFAULT_255_1_234
10
6.8337342
20
20.8860444
40
0.4832297
50
356.3548756
51
0.0500261
0
ARC
8
DEFAULT_255_1_234
10
6.9673852
20
20.889165
40
0.3495889
50
359.5576869
51
12.953486
0
ARC
8
DEFAULT_255_1_234
10
7.0728749
20
20.9147434
40
0.2410532
50
12.6490276
51
41.6081334
0
ARC
8
DEFAULT_255_1_234
10
7.095912
20
20.9343321
40
0.2108218
50
41.7850273
51
85.9892764
0
ARC
8
DEFAULT_255_1_234
10
7.0835856
20
20.8530462
40
0.2928454
50
84.6957577
51
90.0676183
0
ARC
8
DEFAULT_255_1_234
10
7.0812341
20
20.7861716
40
0.3597255
50
89.6804936
51
99.1614436
0
ARC
8
DEFAULT_255_1_234
10
7.0606972
20
20.9089131
40
0.235281
50
98.9830931
51
113.8908934
0
ARC
8
DEFAULT_255_1_234
10
7.0377382
20
20.9630587
40
0.176479
50
114.1950727
51
127.3641004
0
LINE
8
DEFAULT_255_1_234
10
5.1618293
20
28.4529
11
5.0501881
21
28.7581061
0
LINE
8
DEFAULT_255_1_234
10
5.0501881
20
28.7581061
11
4.5602521
21
28.7581061
0
LINE
8
DEFAULT_255_1_234
10
4.5602521
20
28.7581061
11
4.4502173
21
28.4529
0
LINE
8
DEFAULT_255_1_234
10
4.4502173
20
28.4529
11
4.2911889
21
28.4529
0
LINE
8
DEFAULT_255_1_234
10
4.2911889
20
28.4529
11
4.7377535
21
29.6223211
0
LINE
8
DEFAULT_255_1_234
10
4.7377535
20
29.6223211
11
4.8726867
21
29.6223211
0
LINE
8
DEFAULT_255_1_234
10
4.8726867
20
29.6223211
11
5.3200545
21
28.4529
0
LINE
8
DEFAULT_255_1_234
10
5.3200545
20
28.4529
11
5.1618293
21
28.4529
0
LINE
8
DEFAULT_255_1_234
10
4.8052201
20
29.4319689
11
4.6068362
21
28.8850075
0
LINE
8
DEFAULT_255_1_234
10
4.6068362
20
28.8850075
11
5.0044072
21
28.8850075
0
LINE
8
DEFAULT_255_1_234
10
5.0044072
20
28.8850075
11
4.8052201
21
29.4319689
0
LINE
8
DEFAULT_255_1_234
10
5.6429304
20
29.6223211
11
5.6429304
21
28.4529
0
LINE
8
DEFAULT_255_1_234
10
5.6429304
20
28.4529
11
5.488721
21
28.4529
0
LINE
8
DEFAULT_255_1_234
10
5.488721
20
28.4529
11
5.488721
21
29.6223211
0
LINE
8
DEFAULT_255_1_234
10
5.488721
20
29.6223211
11
5.6429304
21
29.6223211
0
LINE
8
DEFAULT_255_1_234
10
6.3746218
20
29.6279433
11
6.3746218
21
28.4529
0
LINE
8
DEFAULT_255_1_234
10
6.3746218
20
28.4529
11
6.2252314
21
28.4529
0
LINE
8
DEFAULT_255_1_234
10
6.2252314
20
28.4529
11
6.2252314
21
29.4432133
0
LINE
8
DEFAULT_255_1_234
10
6.2252314
20
29.4432133
11
5.9256476
21
29.3331785
0
LINE
8
DEFAULT_255_1_234
10
5.9256476
20
29.3331785
11
5.9256476
21
29.4681117
0
LINE
8
DEFAULT_255_1_234
10
5.9256476
20
29.4681117
11
6.3513297
21
29.6279433
0
LINE
8
DEFAULT_255_1_234
10
6.3513297
20
29.6279433
11
6.3746218
21
29.6279433
0
LINE
8
DEFAULT_255_1_234
10
7.4372208
20
29.6223211
11
7.4372208
21
28.845652
0
LINE
8
DEFAULT_255_1_234
10
7.4372208
20
28.845652
11
7.5994619
21
28.845652
0
LINE
8
DEFAULT_255_1_234
10
7.5994619
20
28.845652
11
7.5994619
21
28.7243728
0
LINE
8
DEFAULT_255_1_234
10
7.5994619
20
28.7243728
11
7.4372208
21
28.7243728
0
LINE
8
DEFAULT_255_1_234
10
7.4372208
20
28.7243728
11
7.4372208
21
28.4529
0
LINE
8
DEFAULT_255_1_234
10
7.4372208
20
28.4529
11
7.2878304
21
28.4529
0
LINE
8
DEFAULT_255_1_234
10
7.2878304
20
28.4529
11
7.2878304
21
28.7243728
0
LINE
8
DEFAULT_255_1_234
10
7.2878304
20
28.7243728
11
6.7553262
21
28.7243728
0
LINE
8
DEFAULT_255_1_234
10
6.7553262
20
28.7243728
11
6.7553262
21
28.8119187
0
LINE
8
DEFAULT_255_1_234
10
6.7553262
20
28.8119187
11
7.2789955
21
29.6223211
0
LINE
8
DEFAULT_255_1_234
10
7.2789955
20
29.6223211
11
7.4372208
21
29.6223211
0
LINE
8
DEFAULT_255_1_234
10
7.2701606
20
29.3869912
11
6.9239927
21
28.845652
0
LINE
8
DEFAULT_255_1_234
10
6.9239927
20
28.845652
11
7.2878304
21
28.845652
0
LINE
8
DEFAULT_255_1_234
10
7.2878304
20
28.845652
11
7.2878304
21
29.4191181
0
LINE
8
DEFAULT_255_1_234
10
7.2878304
20
29.4191181
11
7.2701606
21
29.3869912
0
LINE
8
DEFAULT_255_1_234
10
5.0560293
20
36.3904
11
4.9443881
21
36.6956061
0
LINE
8
DEFAULT_255_1_234
10
4.9443881
20
36.6956061
11
4.4544521
21
36.6956061
0
LINE
8
DEFAULT_255_1_234
10
4.4544521
20
36.6956061
11
4.3444173
21
36.3904
0
LINE
8
DEFAULT_255_1_234
10
4.3444173
20
36.3904
11
4.1853889
21
36.3904
0
LINE
8
DEFAULT_255_1_234
10
4.1853889
20
36.3904
11
4.6319535
21
37.5598211
0
LINE
8
DEFAULT_255_1_234
10
4.6319535
20
37.5598211
11
4.7668867
21
37.5598211
0
LINE
8
DEFAULT_255_1_234
10
4.7668867
20
37.5598211
11
5.2142545
21
36.3904
0
LINE
8
DEFAULT_255_1_234
10
5.2142545
20
36.3904
11
5.0560293
21
36.3904
0
LINE
8
DEFAULT_255_1_234
10
4.6994201
20
37.3694689
11
4.5010362
21
36.8225075
0
LINE
8
DEFAULT_255_1_234
10
4.5010362
20
36.8225075
11
4.8986072
21
36.8225075
0
LINE
8
DEFAULT_255_1_234
10
4.8986072
20
36.8225075
11
4.6994201
21
37.3694689
0
LINE
8
DEFAULT_255_1_234
10
5.5371304
20
37.5598211
11
5.5371304
21
36.3904
0
LINE
8
DEFAULT_255_1_234
10
5.5371304
20
36.3904
11
5.382921
21
36.3904
0
LINE
8
DEFAULT_255_1_234
10
5.382921
20
36.3904
11
5.382921
21
37.5598211
0
LINE
8
DEFAULT_255_1_234
10
5.382921
20
37.5598211
11
5.5371304
21
37.5598211
0
LINE
8
DEFAULT_255_1_234
10
6.2688218
20
37.5654433
11
6.2688218
21
36.3904
0
LINE
8
DEFAULT_255_1_234
10
6.2688218
20
36.3904
11
6.1194314
21
36.3904
0
LINE
8
DEFAULT_255_1_234
10
6.1194314
20
36.3904
11
6.1194314
21
37.3807133
0
LINE
8
DEFAULT_255_1_234
10
6.1194314
20
37.3807133
11
5.8198476
21
37.2706785
0
LINE
8
DEFAULT_255_1_234
10
5.8198476
20
37.2706785
11
5.8198476
21
37.4056117
0
LINE
8
DEFAULT_255_1_234
10
5.8198476
20
37.4056117
11
6.2455297
21
37.5654433
0
LINE
8
DEFAULT_255_1_234
10
6.2455297
20
37.5654433
11
6.2688218
21
37.5654433
0
LINE
8
DEFAULT_255_1_234
10
6.9201958
20
36.9261169
11
6.9201958
21
37.0473962
0
LINE
8
DEFAULT_255_1_234
10
6.9201958
20
37.0473962
11
7.0318369
21
37.0473962
0
LINE
8
DEFAULT_255_1_234
10
6.8414847
20
37.2530087
11
6.6928976
21
37.2530087
0
LINE
8
DEFAULT_255_1_234
10
6.6824563
20
36.6988188
11
6.8318466
21
36.6988188
0
LINE
8
DEFAULT_255_1_234
10
7.0318369
20
36.9261169
11
6.9201958
21
36.9261169
0
ARC
8
DEFAULT_255_1_234
10
7.0289236
20
37.3866713
40
0.3392876
50
270.4919872
51
281.8951556
0
ARC
8
DEFAULT_255_1_234
10
7.0530497
20
37.2764702
40
0.2264817
50
281.6691735
51
301.2943132
0
ARC
8
DEFAULT_255_1_234
10
7.0700708
20
37.2453304
40
0.1910381
50
301.7833094
51
311.7545298
0
ARC
8
DEFAULT_255_1_234
10
7.0792283
20
37.2351748
40
0.1773635
50
311.7323931
51
354.2802411
0
ARC
8
DEFAULT_255_1_234
10
7.0065909
20
37.2476722
40
0.2509385
50
353.0937916
51
0.1181479
0
ARC
8
DEFAULT_255_1_234
10
6.9604693
20
37.2524386
40
0.2970898
50
359.1805295
51
15.0453146
0
ARC
8
DEFAULT_255_1_234
10
7.095053
20
37.2916992
40
0.1569564
50
13.9577229
51
77.6713066
0
ARC
8
DEFAULT_255_1_234
10
7.0564059
20
37.1531949
40
0.3006298
50
76.1116566
51
90.7026153
0
ARC
8
DEFAULT_255_1_234
10
7.0504898
20
37.1805545
40
0.2732568
50
89.5324876
51
103.531937
0
ARC
8
DEFAULT_255_1_234
10
7.0304342
20
37.2604884
40
0.1908508
50
103.2931773
51
133.5619022
0
ARC
8
DEFAULT_255_1_234
10
7.025983
20
37.2664375
40
0.1834746
50
133.8349307
51
173.5344437
0
ARC
8
DEFAULT_255_1_234
10
7.0982873
20
37.2536213
40
0.2568033
50
172.5096846
51
180.1366907
0
ARC
8
DEFAULT_255_1_234
10
7.0031767
20
37.2570622
40
0.3103056
50
155.3484492
51
180.7484736
0
ARC
8
DEFAULT_255_1_234
10
6.9982856
20
37.2541846
40
0.3070957
50
131.5744599
51
154.4798489
0
ARC
8
DEFAULT_255_1_234
10
7.0296004
20
37.222531
40
0.3515643
50
96.9875458
51
131.9690667
0
ARC
8
DEFAULT_255_1_234
10
7.0515484
20
37.0979636
40
0.4779224
50
89.8596053
51
97.7825159
0
ARC
8
DEFAULT_255_1_234
10
7.0563547
20
37.0717616
40
0.5041361
50
78.3655447
51
90.4131539
0
ARC
8
DEFAULT_255_1_234
10
7.0921465
20
37.2376887
40
0.3344039
50
56.6229102
51
78.638727
0
ARC
8
DEFAULT_255_1_234
10
7.1136408
20
37.2752805
40
0.2912001
50
47.0253525
51
56.0854072
0
ARC
8
DEFAULT_255_1_234
10
7.1156188
20
37.2792223
40
0.2869704
50
10.9208013
51
46.7778124
0
ARC
8
DEFAULT_255_1_234
10
6.9792255
20
37.2476857
40
0.426899
50
359.6364486
51
11.6087304
0
ARC
8
DEFAULT_255_1_234
10
7.1627099
20
37.2461752
40
0.243409
50
332.3549906
51
359.7179418
0
ARC
8
DEFAULT_255_1_234
10
7.09767
20
37.2770142
40
0.3153459
50
325.2333722
51
332.8745602
0
ARC
8
DEFAULT_255_1_234
10
7.1129324
20
37.2663828
40
0.2967456
50
292.9802137
51
325.2392345
0
ARC
8
DEFAULT_255_1_234
10
7.0854698
20
37.3197863
40
0.3566604
50
292.5402179
51
293.6924929
0
ARC
8
DEFAULT_255_1_234
10
7.1247294
20
36.6743091
40
0.3307468
50
57.6435486
51
72.8625112
0
ARC
8
DEFAULT_255_1_234
10
7.1601794
20
36.7317549
40
0.2632492
50
36.7248896
51
57.4697979
0
ARC
8
DEFAULT_255_1_234
10
7.1590426
20
36.733022
40
0.2634081
50
8.0545065
51
36.356114
0
ARC
8
DEFAULT_255_1_234
10
7.0727611
20
36.7175174
40
0.3510261
50
359.8320645
51
8.5869982
0
ARC
8
DEFAULT_255_1_234
10
7.0352388
20
36.7127101
40
0.3885653
50
343.9829931
51
0.5571613
0
ARC
8
DEFAULT_255_1_234
10
7.1238585
20
36.6884438
40
0.2966924
50
311.6359546
51
343.7651759
0
ARC
8
DEFAULT_255_1_234
10
7.0860154
20
36.7311102
40
0.3537231
50
279.7829875
51
311.6255694
0
ARC
8
DEFAULT_255_1_234
10
7.055893
20
36.874828
40
0.5004971
50
269.7286406
51
280.3856417
0
ARC
8
DEFAULT_255_1_234
10
7.0497003
20
36.8706996
40
0.4963778
50
256.6828919
51
270.4412052
0
ARC
8
DEFAULT_255_1_234
10
7.0158299
20
36.7322394
40
0.3538406
50
229.4223008
51
256.8556159
0
ARC
8
DEFAULT_255_1_234
10
6.9743691
20
36.6855736
40
0.2914296
50
181.818294
51
229.6455059
0
ARC
8
DEFAULT_255_1_234
10
7.0783648
20
36.6986496
40
0.3959084
50
179.9755256
51
183.2323064
0
ARC
8
DEFAULT_255_1_234
10
7.0611393
20
36.6966037
40
0.2293034
50
179.4465117
51
196.2869258
0
ARC
8
DEFAULT_255_1_234
10
7.0123802
20
36.6832651
40
0.1787621
50
196.5661473
51
227.705904
0
ARC
8
DEFAULT_255_1_234
10
7.0287896
20
36.7016155
40
0.2033784
50
227.7652068
51
257.8762805
0
ARC
8
DEFAULT_255_1_234
10
7.0512867
20
36.7959156
40
0.3003081
50
257.4584385
51
270.426602
0
ARC
8
DEFAULT_255_1_234
10
7.0558433
20
36.8248996
40
0.329292
50
269.5962073
51
280.8789248
0
ARC
8
DEFAULT_255_1_234
10
7.0787961
20
36.7102685
40
0.2123908
50
280.6346389
51
299.8595945
0
ARC
8
DEFAULT_255_1_234
10
7.0978868
20
36.6740212
40
0.171457
50
300.3576302
51
314.5517981
0
ARC
8
DEFAULT_255_1_234
10
7.0895928
20
36.6800919
40
0.1816095
50
315.0728369
51
345.0431014
0
ARC
8
DEFAULT_255_1_234
10
6.9972743
20
36.7069841
40
0.2777492
50
344.5986631
51
357.9269593
0
ARC
8
DEFAULT_255_1_234
10
6.9077069
20
36.7131276
40
0.3674917
50
357.4748886
51
0.0231117
0
ARC
8
DEFAULT_255_1_234
10
7.0100178
20
36.7155679
40
0.2651907
50
359.5047933
51
13.4239635
0
ARC
8
DEFAULT_255_1_234
10
7.0966822
20
36.7377478
40
0.1757509
50
12.9498199
51
48.7551375
0
ARC
8
DEFAULT_255_1_234
10
7.0784556
20
36.71284
40
0.2065134
50
49.5088623
51
72.1836453
0
ARC
8
DEFAULT_255_1_234
10
7.0426708
20
36.6066291
40
0.3185836
50
71.9010081
51
84.3554254
0
ARC
8
DEFAULT_255_1_234
10
7.026534
20
36.4705326
40
0.4556151
50
84.0193428
51
89.333121
0
LINE
8
DEFAULT_255_1_234
10
5.0560293
20
44.3279
11
4.9443881
21
44.6331061
0
LINE
8
DEFAULT_255_1_234
10
4.9443881
20
44.6331061
11
4.4544521
21
44.6331061
0
LINE
8
DEFAULT_255_1_234
10
4.4544521
20
44.6331061
11
4.3444173
21
44.3279
0
LINE
8
DEFAULT_255_1_234
10
4.3444173
20
44.3279
11
4.1853889
21
44.3279
0
LINE
8
DEFAULT_255_1_234
10
4.1853889
20
44.3279
11
4.6319535
21
45.4973211
0
LINE
8
DEFAULT_255_1_234
10
4.6319535
20
45.4973211
11
4.7668867
21
45.4973211
0
LINE
8
DEFAULT_255_1_234
10
4.7668867
20
45.4973211
11
5.2142545
21
44.3279
0
LINE
8
DEFAULT_255_1_234
10
5.2142545
20
44.3279
11
5.0560293
21
44.3279
0
LINE
8
DEFAULT_255_1_234
10
4.6994201
20
45.3069689
11
4.5010362
21
44.7600075
0
LINE
8
DEFAULT_255_1_234
10
4.5010362
20
44.7600075
11
4.8986072
21
44.7600075
0
LINE
8
DEFAULT_255_1_234
10
4.8986072
20
44.7600075
11
4.6994201
21
45.3069689
0
LINE
8
DEFAULT_255_1_234
10
5.5371304
20
45.4973211
11
5.5371304
21
44.3279
0
LINE
8
DEFAULT_255_1_234
10
5.5371304
20
44.3279
11
5.382921
21
44.3279
0
LINE
8
DEFAULT_255_1_234
10
5.382921
20
44.3279
11
5.382921
21
45.4973211
0
LINE
8
DEFAULT_255_1_234
10
5.382921
20
45.4973211
11
5.5371304
21
45.4973211
0
LINE
8
DEFAULT_255_1_234
10
6.2688218
20
45.5029433
11
6.2688218
21
44.3279
0
LINE
8
DEFAULT_255_1_234
10
6.2688218
20
44.3279
11
6.1194314
21
44.3279
0
LINE
8
DEFAULT_255_1_234
10
6.1194314
20
44.3279
11
6.1194314
21
45.3182133
0
LINE
8
DEFAULT_255_1_234
10
6.1194314
20
45.3182133
11
5.8198476
21
45.2081785
0
LINE
8
DEFAULT_255_1_234
10
5.8198476
20
45.2081785
11
5.8198476
21
45.3431117
0
LINE
8
DEFAULT_255_1_234
10
5.8198476
20
45.3431117
11
6.2455297
21
45.5029433
0
LINE
8
DEFAULT_255_1_234
10
6.2455297
20
45.5029433
11
6.2688218
21
45.5029433
0
LINE
8
DEFAULT_255_1_234
10
7.4703698
20
44.4491792
11
7.4703698
21
44.3279
0
LINE
8
DEFAULT_255_1_234
10
7.4703698
20
44.3279
11
6.704142
21
44.3279
0
LINE
8
DEFAULT_255_1_234
10
6.704142
20
44.3279
11
6.704142
21
44.4347221
0
LINE
8
DEFAULT_255_1_234
10
6.704142
20
44.4347221
11
7.1089416
21
44.8844995
0
LINE
8
DEFAULT_255_1_234
10
6.8302403
20
45.1527595
11
6.6816531
21
45.1527595
0
LINE
8
DEFAULT_255_1_234
10
7.1964875
20
44.7889218
11
6.8832498
21
44.4491792
0
LINE
8
DEFAULT_255_1_234
10
6.8832498
20
44.4491792
11
7.4703698
21
44.4491792
0
ARC
8
DEFAULT_255_1_234
10
5.7599249
20
46.0774527
40
1.8008286
50
318.5132453
51
320.7828378
0
ARC
8
DEFAULT_255_1_234
10
6.2886224
20
45.6471426
40
1.1191493
50
320.7372736
51
323.9737074
0
ARC
8
DEFAULT_255_1_234
10
6.680608
20
45.3631361
40
0.6350923
50
323.8961724
51
328.6421089
0
ARC
8
DEFAULT_255_1_234
10
6.8852676
20
45.2369031
40
0.3946393
50
328.8299013
51
331.789948
0
ARC
8
DEFAULT_255_1_234
10
6.9849854
20
45.1854509
40
0.2824501
50
331.4255242
51
352.9364833
0
ARC
8
DEFAULT_255_1_234
10
6.9986355
20
45.1823976
40
0.2685315
50
353.2248685
51
0.0169286
0
ARC
8
DEFAULT_255_1_234
10
7.0196231
20
45.184695
40
0.2475536
50
359.4866256
51
15.9339782
0
ARC
8
DEFAULT_255_1_234
10
7.0703217
20
45.1983286
40
0.1950618
50
16.1714718
51
43.5284424
0
ARC
8
DEFAULT_255_1_234
10
7.0780525
20
45.2060573
40
0.184134
50
43.4415429
51
83.1661404
0
ARC
8
DEFAULT_255_1_234
10
7.0646444
20
45.1323771
40
0.258926
50
82.160215
51
90.1505798
0
ARC
8
DEFAULT_255_1_234
10
7.0614871
20
45.0786865
40
0.3126255
50
89.5460705
51
102.5418777
0
ARC
8
DEFAULT_255_1_234
10
7.0371957
20
45.1817665
40
0.2067346
50
102.1739365
51
129.2061916
0
ARC
8
DEFAULT_255_1_234
10
7.0293029
20
45.1942094
40
0.1921118
50
129.7279328
51
135.7542026
0
ARC
8
DEFAULT_255_1_234
10
7.0414556
20
45.1845045
40
0.2075944
50
136.175737
51
166.3674722
0
ARC
8
DEFAULT_255_1_234
10
7.1421476
20
45.1575182
40
0.3118201
50
165.9092917
51
178.8683903
0
ARC
8
DEFAULT_255_1_234
10
7.2286337
20
45.1528179
40
0.3983935
50
178.438168
51
180.0083905
0
ARC
8
DEFAULT_255_1_234
10
7.0884939
20
45.1567231
40
0.4068601
50
163.2878735
51
180.5581814
0
ARC
8
DEFAULT_255_1_234
10
7.00832
20
45.178784
40
0.3237344
50
133.454115
51
162.9470031
0
ARC
8
DEFAULT_255_1_234
10
7.0261742
20
45.1598
40
0.349795
50
100.7869394
51
133.4384016
0
ARC
8
DEFAULT_255_1_234
10
7.0609513
20
45.0049319
40
0.5084616
50
89.6605301
51
101.3704185
0
ARC
8
DEFAULT_255_1_234
10
7.0675852
20
45.0110496
40
0.502348
50
78.2171172
51
90.4130393
0
ARC
8
DEFAULT_255_1_234
10
7.103093
20
45.1734637
40
0.3361092
50
55.9268222
51
78.4888551
0
ARC
8
DEFAULT_255_1_234
10
7.1227371
20
45.2073324
40
0.2970617
50
47.9292255
51
55.4054003
0
ARC
8
DEFAULT_255_1_234
10
7.1328931
20
45.2176502
40
0.2825983
50
4.3347696
51
48.0560701
0
ARC
8
DEFAULT_255_1_234
10
7.0233325
20
45.2006601
40
0.393225
50
359.925209
51
5.5967654
0
ARC
8
DEFAULT_255_1_234
10
7.0662217
20
45.2062816
40
0.3503892
50
337.8914096
51
358.9967724
0
ARC
8
DEFAULT_255_1_234
10
6.7948629
20
45.3109706
40
0.6412172
50
326.9135351
51
338.3505194
0
ARC
8
DEFAULT_255_1_234
10
6.3962932
20
45.5664284
40
1.1146189
50
319.6472867
51
327.095818
0
ARC
8
DEFAULT_255_1_234
10
6.0129936
20
45.8826
40
1.6114559
50
317.2586784
51
319.9046139
0
LINE
8
DEFAULT_255_1_234
10
5.0476293
20
52.2654
11
4.9359881
21
52.5706061
0
LINE
8
DEFAULT_255_1_234
10
4.9359881
20
52.5706061
11
4.4460521
21
52.5706061
0
LINE
8
DEFAULT_255_1_234
10
4.4460521
20
52.5706061
11
4.3360173
21
52.2654
0
LINE
8
DEFAULT_255_1_234
10
4.3360173
20
52.2654
11
4.1769889
21
52.2654
0
LINE
8
DEFAULT_255_1_234
10
4.1769889
20
52.2654
11
4.6235535
21
53.4348211
0
LINE
8
DEFAULT_255_1_234
10
4.6235535
20
53.4348211
11
4.7584867
21
53.4348211
0
LINE
8
DEFAULT_255_1_234
10
4.7584867
20
53.4348211
11
5.2058545
21
52.2654
0
LINE
8
DEFAULT_255_1_234
10
5.2058545
20
52.2654
11
5.0476293
21
52.2654
0
LINE
8
DEFAULT_255_1_234
10
4.6910201
20
53.2444689
11
4.4926362
21
52.6975075
0
LINE
8
DEFAULT_255_1_234
10
4.4926362
20
52.6975075
11
4.8902072
21
52.6975075
0
LINE
8
DEFAULT_255_1_234
10
4.8902072
20
52.6975075
11
4.6910201
21
53.2444689
0
LINE
8
DEFAULT_255_1_234
10
5.5287304
20
53.4348211
11
5.5287304
21
52.2654
0
LINE
8
DEFAULT_255_1_234
10
5.5287304
20
52.2654
11
5.374521
21
52.2654
0
LINE
8
DEFAULT_255_1_234
10
5.374521
20
52.2654
11
5.374521
21
53.4348211
0
LINE
8
DEFAULT_255_1_234
10
5.374521
20
53.4348211
11
5.5287304
21
53.4348211
0
LINE
8
DEFAULT_255_1_234
10
6.2604218
20
53.4404433
11
6.2604218
21
52.2654
0
LINE
8
DEFAULT_255_1_234
10
6.2604218
20
52.2654
11
6.1110314
21
52.2654
0
LINE
8
DEFAULT_255_1_234
10
6.1110314
20
52.2654
11
6.1110314
21
53.2557133
0
LINE
8
DEFAULT_255_1_234
10
6.1110314
20
53.2557133
11
5.8114476
21
53.1456785
0
LINE
8
DEFAULT_255_1_234
10
5.8114476
20
53.1456785
11
5.8114476
21
53.2806117
0
LINE
8
DEFAULT_255_1_234
10
5.8114476
20
53.2806117
11
6.2371297
21
53.4404433
0
LINE
8
DEFAULT_255_1_234
10
6.2371297
20
53.4404433
11
6.2604218
21
53.4404433
0
LINE
8
DEFAULT_255_1_234
10
7.1840717
20
53.4404433
11
7.1840717
21
52.2654
0
LINE
8
DEFAULT_255_1_234
10
7.1840717
20
52.2654
11
7.0346813
21
52.2654
0
LINE
8
DEFAULT_255_1_234
10
7.0346813
20
52.2654
11
7.0346813
21
53.2557133
0
LINE
8
DEFAULT_255_1_234
10
7.0346813
20
53.2557133
11
6.7350975
21
53.1456785
0
LINE
8
DEFAULT_255_1_234
10
6.7350975
20
53.1456785
11
6.7350975
21
53.2806117
0
LINE
8
DEFAULT_255_1_234
10
6.7350975
20
53.2806117
11
7.1607796
21
53.4404433
0
LINE
8
DEFAULT_255_1_234
10
7.1607796
20
53.4404433
11
7.1840717
21
53.4404433
0
LINE
8
DEFAULT_255_1_234
10
5.0560293
20
60.2029
11
4.9443881
21
60.5081061
0
LINE
8
DEFAULT_255_1_234
10
4.9443881
20
60.5081061
11
4.4544521
21
60.5081061
0
LINE
8
DEFAULT_255_1_234
10
4.4544521
20
60.5081061
11
4.3444173
21
60.2029
0
LINE
8
DEFAULT_255_1_234
10
4.3444173
20
60.2029
11
4.1853889
21
60.2029
0
LINE
8
DEFAULT_255_1_234
10
4.1853889
20
60.2029
11
4.6319535
21
61.3723211
0
LINE
8
DEFAULT_255_1_234
10
4.6319535
20
61.3723211
11
4.7668867
21
61.3723211
0
LINE
8
DEFAULT_255_1_234
10
4.7668867
20
61.3723211
11
5.2142545
21
60.2029
0
LINE
8
DEFAULT_255_1_234
10
5.2142545
20
60.2029
11
5.0560293
21
60.2029
0
LINE
8
DEFAULT_255_1_234
10
4.6994201
20
61.1819689
11
4.5010362
21
60.6350075
0
LINE
8
DEFAULT_255_1_234
10
4.5010362
20
60.6350075
11
4.8986072
21
60.6350075
0
LINE
8
DEFAULT_255_1_234
10
4.8986072
20
60.6350075
11
4.6994201
21
61.1819689
0
LINE
8
DEFAULT_255_1_234
10
5.5371304
20
61.3723211
11
5.5371304
21
60.2029
0
LINE
8
DEFAULT_255_1_234
10
5.5371304
20
60.2029
11
5.382921
21
60.2029
0
LINE
8
DEFAULT_255_1_234
10
5.382921
20
60.2029
11
5.382921
21
61.3723211
0
LINE
8
DEFAULT_255_1_234
10
5.382921
20
61.3723211
11
5.5371304
21
61.3723211
0
LINE
8
DEFAULT_255_1_234
10
6.2688218
20
61.3779433
11
6.2688218
21
60.2029
0
LINE
8
DEFAULT_255_1_234
10
6.2688218
20
60.2029
11
6.1194314
21
60.2029
0
LINE
8
DEFAULT_255_1_234
10
6.1194314
20
60.2029
11
6.1194314
21
61.1932133
0
LINE
8
DEFAULT_255_1_234
10
6.1194314
20
61.1932133
11
5.8198476
21
61.0831785
0
LINE
8
DEFAULT_255_1_234
10
5.8198476
20
61.0831785
11
5.8198476
21
61.2181117
0
LINE
8
DEFAULT_255_1_234
10
5.8198476
20
61.2181117
11
6.2455297
21
61.3779433
0
LINE
8
DEFAULT_255_1_234
10
6.2455297
20
61.3779433
11
6.2688218
21
61.3779433
0
LINE
8
DEFAULT_255_1_234
10
7.4374397
20
60.8944327
11
7.4374397
21
60.7016709
0
LINE
8
DEFAULT_255_1_234
10
6.6993229
20
60.6815916
11
6.6993229
21
60.8799755
0
LINE
8
DEFAULT_255_1_234
10
7.2888525
20
60.6615123
11
7.2888525
21
60.9048739
0
LINE
8
DEFAULT_255_1_234
10
6.8479101
20
60.9161184
11
6.8479101
21
60.6783789
0
ARC
8
DEFAULT_255_1_234
10
6.2127287
20
60.6967805
40
1.2247208
50
353.8441951
51
0.2287902
0
ARC
8
DEFAULT_255_1_234
10
6.676679
20
60.6449806
40
0.7578929
50
344.4934747
51
353.9765454
0
ARC
8
DEFAULT_255_1_234
10
6.975938
20
60.5598981
40
0.4467846
50
329.2803592
51
344.7472793
0
ARC
8
DEFAULT_255_1_234
10
7.0752205
20
60.5054018
40
0.3336173
50
324.9352394
51
328.6160465
0
ARC
8
DEFAULT_255_1_234
10
7.1129314
20
60.4790427
40
0.2876076
50
280.580143
51
324.9173126
0
ARC
8
DEFAULT_255_1_234
10
7.0728107
20
60.6461099
40
0.4592847
50
269.5977311
51
281.6734359
0
ARC
8
DEFAULT_255_1_234
10
7.0656012
20
60.6341173
40
0.4472986
50
256.6228859
51
270.51044
0
ARC
8
DEFAULT_255_1_234
10
7.025399
20
60.4792877
40
0.2873874
50
215.8618325
51
257.2788573
0
ARC
8
DEFAULT_255_1_234
10
7.1275022
20
60.5477977
40
0.4102928
50
197.9693508
51
215.2623606
0
ARC
8
DEFAULT_255_1_234
10
7.3760137
20
60.6316709
40
0.6725652
50
187.8816417
51
198.2346507
0
ARC
8
DEFAULT_255_1_234
10
7.7718345
20
60.6888079
40
1.0724845
50
180.8976217
51
188.0055519
0
ARC
8
DEFAULT_255_1_234
10
8.0518534
20
60.6991777
40
1.3526448
50
180.7449369
51
181.1510016
0
ARC
8
DEFAULT_255_1_234
10
7.8941263
20
60.8848042
40
1.1948131
50
173.7675579
51
180.231553
0
ARC
8
DEFAULT_255_1_234
10
7.4423409
20
60.9358666
40
0.7401564
50
164.3058563
51
173.9002247
0
ARC
8
DEFAULT_255_1_234
10
7.1511478
20
61.0197656
40
0.4371288
50
148.7922025
51
164.568378
0
ARC
8
DEFAULT_255_1_234
10
7.055993
20
61.0728929
40
0.3282386
50
144.5883898
51
148.1176286
0
ARC
8
DEFAULT_255_1_234
10
7.0216828
20
61.0968315
40
0.2864044
50
101.6440918
51
144.514236
0
ARC
8
DEFAULT_255_1_234
10
7.0641895
20
60.9279069
40
0.4604934
50
89.5284041
51
102.5819763
0
ARC
8
DEFAULT_255_1_234
10
7.0720983
20
60.9240018
40
0.464401
50
77.0437873
51
90.5081339
0
ARC
8
DEFAULT_255_1_234
10
7.1122984
20
61.0882615
40
0.2953195
50
48.2778575
51
77.4994676
0
ARC
8
DEFAULT_255_1_234
10
7.1195616
20
61.1011746
40
0.2808655
50
36.3142134
51
47.6305865
0
ARC
8
DEFAULT_255_1_234
10
7.0326923
20
61.0426515
40
0.3855453
50
18.2931786
51
35.6769206
0
ARC
8
DEFAULT_255_1_234
10
6.7783682
20
60.9553593
40
0.654423
50
8.024666
51
18.5605216
0
ARC
8
DEFAULT_255_1_234
10
6.3620602
20
60.8938792
40
1.0752407
50
1.1274072
51
8.1718305
0
ARC
8
DEFAULT_255_1_234
10
6.0384792
20
60.8811885
40
1.3990231
50
0.5424119
51
1.3863029
0
ARC
8
DEFAULT_255_1_234
10
6.220617
20
60.9084342
40
1.0682415
50
359.8090433
51
4.9407866
0
ARC
8
DEFAULT_255_1_234
10
6.6416184
20
60.9460113
40
0.6455691
50
4.8362157
51
12.2904523
0
ARC
8
DEFAULT_255_1_234
10
6.9171299
20
61.0073965
40
0.3633074
50
12.0805627
51
23.8173984
0
ARC
8
DEFAULT_255_1_234
10
7.0345004
20
61.0570919
40
0.2358723
50
24.2871213
51
31.3935614
0
ARC
8
DEFAULT_255_1_234
10
7.0869701
20
61.0914233
40
0.1732111
50
30.7407893
51
82.4657128
0
ARC
8
DEFAULT_255_1_234
10
7.0689836
20
61.0030691
40
0.263235
50
81.1060089
51
90.2184952
0
ARC
8
DEFAULT_255_1_234
10
7.0654135
20
61.0288924
40
0.2374236
50
89.3806855
51
105.6762551
0
ARC
8
DEFAULT_255_1_234
10
7.0470765
20
61.0955567
40
0.1682847
50
105.7981136
51
149.7388061
0
ARC
8
DEFAULT_255_1_234
10
7.1534844
20
61.031595
40
0.2924306
50
149.4208916
51
163.6286378
0
ARC
8
DEFAULT_255_1_234
10
7.3625732
20
60.967825
40
0.5110213
50
163.3763315
51
172.1410975
0
ARC
8
DEFAULT_255_1_234
10
7.692645
20
60.9205518
40
0.8444586
50
172.0259487
51
178.0703232
0
ARC
8
DEFAULT_255_1_234
10
7.995654
20
60.9061906
40
1.1477868
50
177.8631668
51
179.5044149
0
ARC
8
DEFAULT_255_1_234
10
7.8883944
20
60.6747389
40
1.0404907
50
179.7995573
51
185.2460446
0
ARC
8
DEFAULT_255_1_234
10
7.4840984
20
60.6364513
40
0.6343885
50
185.1411642
51
193.0079639
0
ARC
8
DEFAULT_255_1_234
10
7.2197456
20
60.5739641
40
0.3627568
50
192.7897626
51
205.2507664
0
ARC
8
DEFAULT_255_1_234
10
7.1151003
20
60.5272415
40
0.2481908
50
205.8005384
51
211.2537509
0
ARC
8
DEFAULT_255_1_234
10
7.0627444
20
60.492158
40
0.1852521
50
210.3789793
51
238.4008143
0
ARC
8
DEFAULT_255_1_234
10
7.0607966
20
60.4968376
40
0.1882621
50
239.6520629
51
265.9793761
0
ARC
8
DEFAULT_255_1_234
10
7.0693166
20
60.5640427
40
0.2559272
50
265.1315437
51
270.060332
0
ARC
8
DEFAULT_255_1_234
10
7.0721945
20
60.5316534
40
0.2235528
50
269.3314664
51
287.2178029
0
ARC
8
DEFAULT_255_1_234
10
7.0859797
20
60.4813279
40
0.1714108
50
287.7958004
51
329.080874
0
ARC
8
DEFAULT_255_1_234
10
6.9902253
20
60.541093
40
0.2842745
50
328.6634704
51
343.3325132
0
ARC
8
DEFAULT_255_1_234
10
6.7729273
20
60.6087863
40
0.5118644
50
343.0499468
51
351.9393422
0
ARC
8
DEFAULT_255_1_234
10
6.4262573
20
60.6598949
40
0.8622784
50
351.8069023
51
357.7959224
0
ARC
8
DEFAULT_255_1_234
10
6.1027129
20
60.6766721
40
1.1862365
50
357.5871873
51
359.2677531
0
LINE
8
DEFAULT_255_1_234
10
4.9963293
20
68.1404
11
4.8846881
21
68.4456061
0
LINE
8
DEFAULT_255_1_234
10
4.8846881
20
68.4456061
11
4.3947521
21
68.4456061
0
LINE
8
DEFAULT_255_1_234
10
4.3947521
20
68.4456061
11
4.2847173
21
68.1404
0
LINE
8
DEFAULT_255_1_234
10
4.2847173
20
68.1404
11
4.1256889
21
68.1404
0
LINE
8
DEFAULT_255_1_234
10
4.1256889
20
68.1404
11
4.5722535
21
69.3098211
0
LINE
8
DEFAULT_255_1_234
10
4.5722535
20
69.3098211
11
4.7071867
21
69.3098211
0
LINE
8
DEFAULT_255_1_234
10
4.7071867
20
69.3098211
11
5.1545545
21
68.1404
0
LINE
8
DEFAULT_255_1_234
10
5.1545545
20
68.1404
11
4.9963293
21
68.1404
0
LINE
8
DEFAULT_255_1_234
10
4.6397201
20
69.1194689
11
4.4413362
21
68.5725075
0
LINE
8
DEFAULT_255_1_234
10
4.4413362
20
68.5725075
11
4.8389072
21
68.5725075
0
LINE
8
DEFAULT_255_1_234
10
4.8389072
20
68.5725075
11
4.6397201
21
69.1194689
0
LINE
8
DEFAULT_255_1_234
10
5.4774304
20
69.3098211
11
5.4774304
21
68.1404
0
LINE
8
DEFAULT_255_1_234
10
5.4774304
20
68.1404
11
5.323221
21
68.1404
0
LINE
8
DEFAULT_255_1_234
10
5.323221
20
68.1404
11
5.323221
21
69.3098211
0
LINE
8
DEFAULT_255_1_234
10
5.323221
20
69.3098211
11
5.4774304
21
69.3098211
0
LINE
8
DEFAULT_255_1_234
10
6.4396327
20
68.8423739
11
6.4396327
21
68.7990025
0
LINE
8
DEFAULT_255_1_234
10
5.8974903
20
68.1395968
11
5.8685761
21
68.1395968
0
LINE
8
DEFAULT_255_1_234
10
5.8685761
20
68.1395968
11
5.8685761
21
68.2648919
0
LINE
8
DEFAULT_255_1_234
10
5.8685761
20
68.2648919
11
5.8998999
21
68.2648919
0
LINE
8
DEFAULT_255_1_234
10
6.2910455
20
68.8134597
11
6.2910455
21
68.8728945
0
ARC
8
DEFAULT_255_1_234
10
6.0116725
20
68.8880403
40
0.3635579
50
297.4037347
51
320.016758
0
ARC
8
DEFAULT_255_1_234
10
6.0406673
20
68.832324
40
0.3007486
50
270.2633101
51
297.3851877
0
ARC
8
DEFAULT_255_1_234
10
6.0372629
20
68.8786904
40
0.3471448
50
269.9966443
51
270.7900392
0
ARC
8
DEFAULT_255_1_234
10
6.034711
20
68.8785143
40
0.3469779
50
254.5999133
51
270.4180344
0
ARC
8
DEFAULT_255_1_234
10
6.020447
20
68.8220647
40
0.2887697
50
236.4717942
51
254.3541279
0
ARC
8
DEFAULT_255_1_234
10
6.0360687
20
68.8430711
40
0.3149125
50
208.4727207
51
236.2134933
0
ARC
8
DEFAULT_255_1_234
10
6.0999463
20
68.8821455
40
0.3897115
50
204.3447514
51
209.0453999
0
ARC
8
DEFAULT_255_1_234
10
6.1679038
20
68.9109656
40
0.4635101
50
183.9375985
51
204.1276318
0
ARC
8
DEFAULT_255_1_234
10
6.258729
20
68.9207482
40
0.5548037
50
179.9652252
51
184.3013875
0
ARC
8
DEFAULT_255_1_234
10
6.2347336
20
68.9240507
40
0.5308164
50
166.7585989
51
180.3201225
0
ARC
8
DEFAULT_255_1_234
10
6.1500949
20
68.9424488
40
0.4442163
50
154.6955053
51
166.5679793
0
ARC
8
DEFAULT_255_1_234
10
6.064782
20
68.985421
40
0.3487299
50
136.3324195
51
155.0871442
0
ARC
8
DEFAULT_255_1_234
10
6.0366892
20
69.0094954
40
0.3117924
50
121.236733
51
135.9680508
0
ARC
8
DEFAULT_255_1_234
10
6.050739
20
68.9834743
40
0.3413302
50
96.845628
51
120.9881519
0
ARC
8
DEFAULT_255_1_234
10
6.0652972
20
68.8899515
40
0.4359341
50
89.8870174
51
97.2802754
0
ARC
8
DEFAULT_255_1_234
10
6.070541
20
68.9537095
40
0.3722009
50
70.6505584
51
90.6749113
0
ARC
8
DEFAULT_255_1_234
10
6.083669
20
69.0050361
40
0.3194571
50
36.7492984
51
69.8219918
0
ARC
8
DEFAULT_255_1_234
10
5.9837854
20
68.9271993
40
0.4460685
50
15.39587
51
37.0840084
0
ARC
8
DEFAULT_255_1_234
10
5.7708288
20
68.8651242
40
0.6678714
50
3.9488873
51
15.6798563
0
ARC
8
DEFAULT_255_1_234
10
5.5306916
20
68.8434964
40
0.9089418
50
359.929245
51
4.2665314
0
ARC
8
DEFAULT_255_1_234
10
5.0701353
20
68.7923513
40
1.3695135
50
352.8366322
51
0.2782669
0
ARC
8
DEFAULT_255_1_234
10
5.5989031
20
68.7236629
40
0.8363105
50
341.8359505
51
352.9884176
0
ARC
8
DEFAULT_255_1_234
10
5.920775
20
68.61517
40
0.4966642
50
322.8578092
51
342.1527901
0
ARC
8
DEFAULT_255_1_234
10
6.0071706
20
68.5562384
40
0.3922466
50
319.334325
51
322.0998941
0
ARC
8
DEFAULT_255_1_234
10
5.9762043
20
68.5873209
40
0.4360033
50
285.9541367
51
318.8878087
0
ARC
8
DEFAULT_255_1_234
10
5.9035305
20
68.81836
40
0.678149
50
272.9281676
51
286.4922826
0
ARC
8
DEFAULT_255_1_234
10
5.8845422
20
69.0434587
40
0.9039547
50
270.8207226
51
273.4012994
0
ARC
8
DEFAULT_255_1_234
10
5.8934273
20
68.8615666
40
0.5967098
50
270.6214993
51
281.4062806
0
ARC
8
DEFAULT_255_1_234
10
5.9364254
20
68.6559833
40
0.3866861
50
281.1852553
51
299.0621114
0
ARC
8
DEFAULT_255_1_234
10
5.9737826
20
68.5838798
40
0.3055236
50
299.5067782
51
313.1200873
0
ARC
8
DEFAULT_255_1_234
10
5.9759792
20
68.5759554
40
0.2982623
50
313.8526205
51
338.5989322
0
ARC
8
DEFAULT_255_1_234
10
5.8135866
20
68.6426781
40
0.4738131
50
338.2523585
51
351.2430902
0
ARC
8
DEFAULT_255_1_234
10
5.5725162
20
68.6836447
40
0.7183203
50
350.9409515
51
357.6691871
0
ARC
8
DEFAULT_255_1_234
10
6.0615592
20
68.8838764
40
0.2294452
50
269.9447023
51
306.8248917
0
ARC
8
DEFAULT_255_1_234
10
6.0378507
20
68.9261898
40
0.2775994
50
305.5072438
51
327.0773448
0
ARC
8
DEFAULT_255_1_234
10
6.0496948
20
68.9167025
40
0.2625056
50
327.4104943
51
336.840169
0
ARC
8
DEFAULT_255_1_234
10
5.7403013
20
68.8761302
40
0.5507537
50
359.6633817
51
10.117533
0
ARC
8
DEFAULT_255_1_234
10
5.9156811
20
68.9085777
40
0.372403
50
9.9430141
51
26.7700076
0
ARC
8
DEFAULT_255_1_234
10
5.9754024
20
68.9361187
40
0.3066865
50
27.2015464
51
34.6829435
0
ARC
8
DEFAULT_255_1_234
10
6.0243504
20
68.9728977
40
0.245519
50
34.1250343
51
50.3070065
0
ARC
8
DEFAULT_255_1_234
10
6.0690184
20
69.0263385
40
0.1758693
50
50.3851167
51
90.6705993
0
ARC
8
DEFAULT_255_1_234
10
6.0643417
20
68.9958799
40
0.2063326
50
89.272901
51
111.9140407
0
ARC
8
DEFAULT_255_1_234
10
6.0623944
20
69.009944
40
0.1925887
50
112.9382311
51
142.5320782
0
ARC
8
DEFAULT_255_1_234
10
6.1170124
20
68.9655969
40
0.2629232
50
142.1021256
51
166.3835592
0
ARC
8
DEFAULT_255_1_234
10
6.235143
20
68.9350915
40
0.3849193
50
166.1100289
51
178.665427
0
ARC
8
DEFAULT_255_1_234
10
6.3399019
20
68.9292117
40
0.4897989
50
178.2632126
51
180.0111093
0
ARC
8
DEFAULT_255_1_234
10
6.2597139
20
68.9263728
40
0.40962
50
179.6161962
51
191.8787166
0
ARC
8
DEFAULT_255_1_234
10
6.1376978
20
68.8993896
40
0.2846655
50
191.6191692
51
215.2972286
0
ARC
8
DEFAULT_255_1_234
10
6.1180169
20
68.8878918
40
0.2619665
50
215.7320102
51
216.5355409
0
ARC
8
DEFAULT_255_1_234
10
6.0641256
20
68.8446647
40
0.1929497
50
215.7486685
51
239.9727502
0
ARC
8
DEFAULT_255_1_234
10
6.0571171
20
68.8395894
40
0.1850822
50
241.0650169
51
269.2810483
0
ARC
8
DEFAULT_255_1_234
10
6.0613086
20
68.8886371
40
0.2342059
50
268.4062526
51
270.0071348
0
LINE
8
DEFAULT_255_1_234
10
4.9963293
20
76.0779
11
4.8846881
21
76.3831061
0
LINE
8
DEFAULT_255_1_234
10
4.8846881
20
76.3831061
11
4.3947521
21
76.3831061
0
LINE
8
DEFAULT_255_1_234
10
4.3947521
20
76.3831061
11
4.2847173
21
76.0779
0
LINE
8
DEFAULT_255_1_234
10
4.2847173
20
76.0779
11
4.1256889
21
76.0779
0
LINE
8
DEFAULT_255_1_234
10
4.1256889
20
76.0779
11
4.5722535
21
77.2473211
0
LINE
8
DEFAULT_255_1_234
10
4.5722535
20
77.2473211
11
4.7071867
21
77.2473211
0
LINE
8
DEFAULT_255_1_234
10
4.7071867
20
77.2473211
11
5.1545545
21
76.0779
0
LINE
8
DEFAULT_255_1_234
10
5.1545545
20
76.0779
11
4.9963293
21
76.0779
0
LINE
8
DEFAULT_255_1_234
10
4.6397201
20
77.0569689
11
4.4413362
21
76.5100075
0
LINE
8
DEFAULT_255_1_234
10
4.4413362
20
76.5100075
11
4.8389072
21
76.5100075
0
LINE
8
DEFAULT_255_1_234
10
4.8389072
20
76.5100075
11
4.6397201
21
77.0569689
0
LINE
8
DEFAULT_255_1_234
10
5.4774304
20
77.2473211
11
5.4774304
21
76.0779
0
LINE
8
DEFAULT_255_1_234
10
5.4774304
20
76.0779
11
5.323221
21
76.0779
0
LINE
8
DEFAULT_255_1_234
10
5.323221
20
76.0779
11
5.323221
21
77.2473211
0
LINE
8
DEFAULT_255_1_234
10
5.323221
20
77.2473211
11
5.4774304
21
77.2473211
0
ARC
8
DEFAULT_255_1_234
10
6.1477704
20
76.9395703
40
0.2822356
50
338.8763615
51
0.5166041
0
ARC
8
DEFAULT_255_1_234
10
6.1646359
20
76.9350208
40
0.2648703
50
325.8412414
51
338.4795939
0
ARC
8
DEFAULT_255_1_234
10
6.1255726
20
76.9621042
40
0.3124019
50
296.7586019
51
325.753654
0
ARC
8
DEFAULT_255_1_234
10
6.0967835
20
77.0105789
40
0.368668
50
296.0902311
51
297.3618122
0
ARC
8
DEFAULT_255_1_234
10
6.1225293
20
76.3551041
40
0.3518806
50
47.9009248
51
67.1946869
0
ARC
8
DEFAULT_255_1_234
10
6.1421535
20
76.3797395
40
0.320451
50
35.236241
51
47.551371
0
ARC
8
DEFAULT_255_1_234
10
6.1683152
20
76.3971993
40
0.2890103
50
359.2759738
51
35.4014081
0
ARC
8
DEFAULT_255_1_234
10
6.0938184
20
76.3898826
40
0.3635026
50
343.1294516
51
0.5776525
0
ARC
8
DEFAULT_255_1_234
10
6.1662728
20
76.369933
40
0.2883832
50
310.8497458
51
342.744803
0
ARC
8
DEFAULT_255_1_234
10
6.1244842
20
76.4176294
40
0.3517954
50
281.5473923
51
310.9169905
0
ARC
8
DEFAULT_255_1_234
10
6.0888291
20
76.5729084
40
0.5110832
50
269.6192722
51
281.9789957
0
ARC
8
DEFAULT_255_1_234
10
6.081608
20
76.5729828
40
0.5111606
50
257.4584469
51
270.4287458
0
ARC
8
DEFAULT_255_1_234
10
6.0435223
20
76.4126344
40
0.3463762
50
228.7553743
51
257.8484423
0
ARC
8
DEFAULT_255_1_234
10
6.0125422
20
76.3753442
40
0.297916
50
184.0104442
51
228.5071787
0
ARC
8
DEFAULT_255_1_234
10
6.1288366
20
76.3930512
40
0.4152734
50
179.9315461
51
185.3254504
0
ARC
8
DEFAULT_255_1_234
10
6.0112011
20
76.3967992
40
0.2976554
50
145.6795913
51
180.6259649
0
ARC
8
DEFAULT_255_1_234
10
6.0275361
20
76.3853929
40
0.3175776
50
115.5537925
51
145.6416199
0
ARC
8
DEFAULT_255_1_234
10
6.0616291
20
76.3243028
40
0.3874232
50
113.2437915
51
116.2054627
0
ARC
8
DEFAULT_255_1_234
10
6.0463503
20
76.964158
40
0.3154751
50
222.9548379
51
244.1372485
0
ARC
8
DEFAULT_255_1_234
10
6.0341579
20
76.9504834
40
0.2972382
50
213.3439227
51
222.6271327
0
ARC
8
DEFAULT_255_1_234
10
6.0149513
20
76.9374308
40
0.274019
50
180.4316517
51
213.2713999
0
ARC
8
DEFAULT_255_1_234
10
6.0724515
20
76.942111
40
0.33158
50
179.9992944
51
181.1655061
0
ARC
8
DEFAULT_255_1_234
10
6.1133932
20
76.9455561
40
0.3725376
50
164.6186108
51
180.5292368
0
ARC
8
DEFAULT_255_1_234
10
6.0235794
20
76.9697101
40
0.2795349
50
132.2454369
51
164.5092287
0
ARC
8
DEFAULT_255_1_234
10
6.0522898
20
76.9372028
40
0.3229019
50
100.7052766
51
132.1387266
0
ARC
8
DEFAULT_255_1_234
10
6.0827871
20
76.7994086
40
0.4639835
50
89.6732617
51
101.2449487
0
ARC
8
DEFAULT_255_1_234
10
6.0890069
20
76.816899
40
0.4464999
50
76.2876631
51
90.4586123
0
ARC
8
DEFAULT_255_1_234
10
6.1196301
20
76.939122
40
0.3205023
50
47.8240157
51
76.4266918
0
ARC
8
DEFAULT_255_1_234
10
6.141885
20
76.965159
40
0.2862661
50
6.9168658
51
47.6261438
0
ARC
8
DEFAULT_255_1_234
10
6.0232253
20
76.943237
40
0.4067708
50
359.8419705
51
7.9694496
0
ARC
8
DEFAULT_255_1_234
10
6.057415
20
76.3991925
40
0.2513121
50
359.4454068
51
16.9256425
0
ARC
8
DEFAULT_255_1_234
10
6.1042961
20
76.4121033
40
0.2027071
50
17.292259
51
45.462717
0
ARC
8
DEFAULT_255_1_234
10
6.0988897
20
76.4074434
40
0.2098212
50
45.3028762
51
83.1921472
0
ARC
8
DEFAULT_255_1_234
10
6.0845582
20
76.3272895
40
0.2911472
50
82.2614531
51
90.143954
0
ARC
8
DEFAULT_255_1_234
10
6.0814702
20
76.350595
40
0.2678513
50
89.4959189
51
104.8579811
0
ARC
8
DEFAULT_255_1_234
10
6.063796
20
76.417589
40
0.1985654
50
104.8855873
51
135.2448349
0
ARC
8
DEFAULT_255_1_234
10
6.0687733
20
76.4131336
40
0.2052373
50
135.3398955
51
172.104394
0
ARC
8
DEFAULT_255_1_234
10
6.1494791
20
76.3976925
40
0.2873299
50
171.2651929
51
180.1859362
0
ARC
8
DEFAULT_255_1_234
10
6.1325493
20
76.3944733
40
0.2704083
50
179.515471
51
193.6466734
0
ARC
8
DEFAULT_255_1_234
10
6.0509262
20
76.3736777
40
0.1861855
50
193.3540587
51
225.8256931
0
ARC
8
DEFAULT_255_1_234
10
6.0550019
20
76.3807524
40
0.1941102
50
226.418029
51
255.8553723
0
ARC
8
DEFAULT_255_1_234
10
6.0806451
20
76.4743998
40
0.2911917
50
255.4655572
51
268.7985967
0
ARC
8
DEFAULT_255_1_234
10
6.0853643
20
76.5582491
40
0.3751331
50
268.3464808
51
270.0104874
0
ARC
8
DEFAULT_255_1_234
10
6.0877031
20
76.4898138
40
0.3067064
50
269.575914
51
282.0823146
0
ARC
8
DEFAULT_255_1_234
10
6.1101941
20
76.3903803
40
0.2047712
50
281.7522535
51
306.6056425
0
ARC
8
DEFAULT_255_1_234
10
6.1200367
20
76.3742487
40
0.1859604
50
307.1350025
51
314.0277951
0
ARC
8
DEFAULT_255_1_234
10
6.1164451
20
76.3768766
40
0.1903475
50
314.2553419
51
350.169324
0
ARC
8
DEFAULT_255_1_234
10
6.0312919
20
76.3953409
40
0.2774269
50
349.4145679
51
0.2930737
0
ARC
8
DEFAULT_255_1_234
10
6.0833353
20
76.9112353
40
0.2300764
50
89.477591
51
105.729794
0
ARC
8
DEFAULT_255_1_234
10
6.0697266
20
76.9617637
40
0.1777519
50
105.922966
51
135.1662921
0
ARC
8
DEFAULT_255_1_234
10
6.0717768
20
76.9603419
40
0.1802087
50
135.3053131
51
168.9882338
0
ARC
8
DEFAULT_255_1_234
10
6.1545341
20
76.9413721
40
0.2650806
50
168.3802067
51
180.3602358
0
ARC
8
DEFAULT_255_1_234
10
6.131692
20
76.9376041
40
0.2422425
50
179.5029707
51
194.9126783
0
ARC
8
DEFAULT_255_1_234
10
6.0731581
20
76.922211
40
0.1817188
50
194.9722181
51
224.1943972
0
ARC
8
DEFAULT_255_1_234
10
6.0703449
20
76.9199169
40
0.1781027
50
224.2961434
51
262.0157375
0
ARC
8
DEFAULT_255_1_234
10
6.0845691
20
76.9930661
40
0.2525492
50
261.1250369
51
270.1959853
0
ARC
8
DEFAULT_255_1_234
10
6.0875447
20
76.9743339
40
0.233825
50
269.4825617
51
285.0988277
0
ARC
8
DEFAULT_255_1_234
10
6.1029606
20
76.916499
40
0.1739712
50
285.1585659
51
315.9484648
0
ARC
8
DEFAULT_255_1_234
10
6.0940617
20
76.9246886
40
0.1860616
50
316.0412958
51
351.9162715
0
ARC
8
DEFAULT_255_1_234
10
6.0207572
20
76.9388245
40
0.2606517
50
351.1056823
51
0.1936567
0
ARC
8
DEFAULT_255_1_234
10
6.0470401
20
76.9418369
40
0.234377
50
359.4789506
51
16.0679113
0
ARC
8
DEFAULT_255_1_234
10
6.094636
20
76.954681
40
0.1850875
50
16.3251951
51
44.791304
0
ARC
8
DEFAULT_255_1_234
10
6.0928642
20
76.9547339
40
0.186312
50
44.3958661
51
88.2498933
0
ARC
8
DEFAULT_255_1_234
10
6.0855195
20
76.8936154
40
0.2476868
50
86.9833827
51
90.0200148
0
LINE
8
DEFAULT_255_1_234
10
4.9963293
20
84.0154
11
4.8846881
21
84.3206061
0
LINE
8
DEFAULT_255_1_234
10
4.8846881
20
84.3206061
11
4.3947521
21
84.3206061
0
LINE
8
DEFAULT_255_1_234
10
4.3947521
20
84.3206061
11
4.2847173
21
84.0154
0
LINE
8
DEFAULT_255_1_234
10
4.2847173
20
84.0154
11
4.1256889
21
84.0154
0
LINE
8
DEFAULT_255_1_234
10
4.1256889
20
84.0154
11
4.5722535
21
85.1848211
0
LINE
8
DEFAULT_255_1_234
10
4.5722535
20
85.1848211
11
4.7071867
21
85.1848211
0
LINE
8
DEFAULT_255_1_234
10
4.7071867
20
85.1848211
11
5.1545545
21
84.0154
0
LINE
8
DEFAULT_255_1_234
10
5.1545545
20
84.0154
11
4.9963293
21
84.0154
0
LINE
8
DEFAULT_255_1_234
10
4.6397201
20
84.9944689
11
4.4413362
21
84.4475075
0
LINE
8
DEFAULT_255_1_234
10
4.4413362
20
84.4475075
11
4.8389072
21
84.4475075
0
LINE
8
DEFAULT_255_1_234
10
4.8389072
20
84.4475075
11
4.6397201
21
84.9944689
0
LINE
8
DEFAULT_255_1_234
10
5.4774304
20
85.1848211
11
5.4774304
21
84.0154
0
LINE
8
DEFAULT_255_1_234
10
5.4774304
20
84.0154
11
5.323221
21
84.0154
0
LINE
8
DEFAULT_255_1_234
10
5.323221
20
84.0154
11
5.323221
21
85.1848211
0
LINE
8
DEFAULT_255_1_234
10
5.323221
20
85.1848211
11
5.4774304
21
85.1848211
0
LINE
8
DEFAULT_255_1_234
10
6.4757755
20
85.1848211
11
6.4757755
21
85.101291
0
LINE
8
DEFAULT_255_1_234
10
6.4757755
20
85.101291
11
5.9914617
21
84.0154
0
LINE
8
DEFAULT_255_1_234
10
5.9914617
20
84.0154
11
5.8356459
21
84.0154
0
LINE
8
DEFAULT_255_1_234
10
5.8356459
20
84.0154
11
6.3183534
21
85.0627387
0
LINE
8
DEFAULT_255_1_234
10
6.3183534
20
85.0627387
11
5.6854524
21
85.0627387
0
LINE
8
DEFAULT_255_1_234
10
5.6854524
20
85.0627387
11
5.6854524
21
85.1848211
0
LINE
8
DEFAULT_255_1_234
10
5.6854524
20
85.1848211
11
6.4757755
21
85.1848211
0
LINE
8
DEFAULT_255_1_234
10
4.9963293
20
91.9529
11
4.8846881
21
92.2581061
0
LINE
8
DEFAULT_255_1_234
10
4.8846881
20
92.2581061
11
4.3947521
21
92.2581061
0
LINE
8
DEFAULT_255_1_234
10
4.3947521
20
92.2581061
11
4.2847173
21
91.9529
0
LINE
8
DEFAULT_255_1_234
10
4.2847173
20
91.9529
11
4.1256889
21
91.9529
0
LINE
8
DEFAULT_255_1_234
10
4.1256889
20
91.9529
11
4.5722535
21
93.1223211
0
LINE
8
DEFAULT_255_1_234
10
4.5722535
20
93.1223211
11
4.7071867
21
93.1223211
0
LINE
8
DEFAULT_255_1_234
10
4.7071867
20
93.1223211
11
5.1545545
21
91.9529
0
LINE
8
DEFAULT_255_1_234
10
5.1545545
20
91.9529
11
4.9963293
21
91.9529
0
LINE
8
DEFAULT_255_1_234
10
4.6397201
20
92.9319689
11
4.4413362
21
92.3850075
0
LINE
8
DEFAULT_255_1_234
10
4.4413362
20
92.3850075
11
4.8389072
21
92.3850075
0
LINE
8
DEFAULT_255_1_234
10
4.8389072
20
92.3850075
11
4.6397201
21
92.9319689
0
LINE
8
DEFAULT_255_1_234
10
5.4774304
20
93.1223211
11
5.4774304
21
91.9529
0
LINE
8
DEFAULT_255_1_234
10
5.4774304
20
91.9529
11
5.323221
21
91.9529
0
LINE
8
DEFAULT_255_1_234
10
5.323221
20
91.9529
11
5.323221
21
93.1223211
0
LINE
8
DEFAULT_255_1_234
10
5.323221
20
93.1223211
11
5.4774304
21
93.1223211
0
LINE
8
DEFAULT_255_1_234
10
6.2773916
20
93.1231243
11
6.3038963
21
93.1231243
0
LINE
8
DEFAULT_255_1_234
10
6.3038963
20
93.1231243
11
6.3038963
21
92.997026
0
LINE
8
DEFAULT_255_1_234
10
6.3038963
20
92.997026
11
6.2765884
21
92.997026
0
LINE
8
DEFAULT_255_1_234
10
5.729627
20
92.3978583
11
5.729627
21
92.4548836
0
LINE
8
DEFAULT_255_1_234
10
5.8790173
20
92.4356075
11
5.8790173
21
92.3809917
0
ARC
8
DEFAULT_255_1_234
10
6.2818232
20
92.4972455
40
0.4998079
50
90.6001036
51
104.514704
0
ARC
8
DEFAULT_255_1_234
10
6.2429747
20
92.6417131
40
0.3502176
50
104.2855254
51
133.862935
0
ARC
8
DEFAULT_255_1_234
10
6.2593505
20
92.630883
40
0.3693984
50
134.5302688
51
161.6210873
0
ARC
8
DEFAULT_255_1_234
10
6.4246693
20
92.5725895
40
0.5446739
50
161.2849839
51
174.2076652
0
ARC
8
DEFAULT_255_1_234
10
6.565363
20
92.5531787
40
0.6866274
50
173.7810589
51
174.9254635
0
ARC
8
DEFAULT_255_1_234
10
6.1103462
20
92.4148839
40
0.3033419
50
95.8330959
51
138.9954921
0
ARC
8
DEFAULT_255_1_234
10
6.1326818
20
92.2870375
40
0.4328947
50
89.8753725
51
97.0544009
0
ARC
8
DEFAULT_255_1_234
10
6.1374284
20
92.3705748
40
0.3493769
50
71.6407809
51
90.6240094
0
ARC
8
DEFAULT_255_1_234
10
6.1524858
20
92.4260082
40
0.2920396
50
39.6367836
51
71.019018
0
ARC
8
DEFAULT_255_1_234
10
6.0888331
20
92.3709998
40
0.3761538
50
10.658731
51
39.9043955
0
ARC
8
DEFAULT_255_1_234
10
5.9340414
20
92.3373686
40
0.5345136
50
359.682601
51
11.132623
0
ARC
8
DEFAULT_255_1_234
10
5.9300545
20
92.330301
40
0.5385081
50
347.2486944
51
0.4369317
0
ARC
8
DEFAULT_255_1_234
10
6.0968021
20
92.2901807
40
0.3670249
50
318.1409698
51
347.6118597
0
ARC
8
DEFAULT_255_1_234
10
6.1293015
20
92.2634702
40
0.3250007
50
275.6342139
51
317.8248465
0
ARC
8
DEFAULT_255_1_234
10
6.1072126
20
92.3934219
40
0.4565864
50
269.8874292
51
276.7917694
0
ARC
8
DEFAULT_255_1_234
10
6.1017196
20
92.2908743
40
0.3540676
50
246.9140195
51
270.7437342
0
ARC
8
DEFAULT_255_1_234
10
6.1023587
20
92.2766384
40
0.3412781
50
218.1665114
51
245.878116
0
ARC
8
DEFAULT_255_1_234
10
6.1903048
20
92.3502279
40
0.455911
50
191.4115814
51
218.6077802
0
ARC
8
DEFAULT_255_1_234
10
6.3841137
20
92.3936833
40
0.6545001
50
179.6345085
51
191.7836486
0
ARC
8
DEFAULT_255_1_234
10
6.9423473
20
92.4615697
40
1.2127388
50
171.4525249
51
180.3158839
0
ARC
8
DEFAULT_255_1_234
10
6.5028349
20
92.5299608
40
0.7679464
50
157.9802646
51
171.6246686
0
ARC
8
DEFAULT_255_1_234
10
6.281437
20
92.6182421
40
0.5296008
50
141.4298019
51
157.854097
0
ARC
8
DEFAULT_255_1_234
10
6.2172691
20
92.6636381
40
0.4511509
50
102.8715806
51
140.8564722
0
ARC
8
DEFAULT_255_1_234
10
6.2820306
20
92.4196552
40
0.7034845
50
90.3778349
51
103.5869322
0
ARC
8
DEFAULT_255_1_234
10
6.1082083
20
92.359173
40
0.2370698
50
89.8751008
51
126.2071704
0
ARC
8
DEFAULT_255_1_234
10
6.1127872
20
92.3437303
40
0.2522934
50
124.9745049
51
144.895901
0
ARC
8
DEFAULT_255_1_234
10
6.0952063
20
92.358056
40
0.2296779
50
145.2974905
51
160.2660252
0
ARC
8
DEFAULT_255_1_234
10
6.4024602
20
92.3778071
40
0.5234525
50
179.6514266
51
190.2855912
0
ARC
8
DEFAULT_255_1_234
10
6.2330739
20
92.3458786
40
0.3510893
50
190.0945431
51
207.5098196
0
ARC
8
DEFAULT_255_1_234
10
6.1765009
20
92.3189623
40
0.288489
50
207.9583163
51
216.3251085
0
ARC
8
DEFAULT_255_1_234
10
6.1425117
20
92.2910105
40
0.2445587
50
215.7661442
51
232.5456785
0
ARC
8
DEFAULT_255_1_234
10
6.1042099
20
92.2423482
40
0.1826382
50
232.8005391
51
270.6605633
0
ARC
8
DEFAULT_255_1_234
10
6.10878
20
92.2787612
40
0.2190529
50
269.35537
51
288.4744281
0
ARC
8
DEFAULT_255_1_234
10
6.1180697
20
92.2438118
40
0.1829749
50
289.1833337
51
322.9683818
0
ARC
8
DEFAULT_255_1_234
10
6.056922
20
92.2920391
40
0.2608399
50
322.6007884
51
346.5182367
0
ARC
8
DEFAULT_255_1_234
10
5.9411816
20
92.3215616
40
0.3802777
50
346.2582162
51
358.7741648
0
ARC
8
DEFAULT_255_1_234
10
5.8393485
20
92.3270965
40
0.4822176
50
358.3755224
51
0.0098023
0
ARC
8
DEFAULT_255_1_234
10
5.9149672
20
92.3298657
40
0.4066078
50
359.6214041
51
11.2839074
0
ARC
8
DEFAULT_255_1_234
10
6.0426819
20
92.3565066
40
0.2761514
50
11.0482309
51
31.8146458
0
ARC
8
DEFAULT_255_1_234
10
6.0735862
20
92.3732584
40
0.2410679
50
32.3035391
51
38.082671
0
ARC
8
DEFAULT_255_1_234
10
6.1156521
20
92.4113662
40
0.1844966
50
36.825067
51
85.7415724
0
ARC
8
DEFAULT_255_1_234
10
6.1089355
20
92.3613301
40
0.2349122
50
85.0140713
51
90.0513278
0
LINE
8
DEFAULT_255_1_234
10
4.9963293
20
99.8904
11
4.8846881
21
100.1956061
0
LINE
8
DEFAULT_255_1_234
10
4.8846881
20
100.1956061
11
4.3947521
21
100.1956061
0
LINE
8
DEFAULT_255_1_234
10
4.3947521
20
100.1956061
11
4.2847173
21
99.8904
0
LINE
8
DEFAULT_255_1_234
10
4.2847173
20
99.8904
11
4.1256889
21
99.8904
0
LINE
8
DEFAULT_255_1_234
10
4.1256889
20
99.8904
11
4.5722535
21
101.0598211
0
LINE
8
DEFAULT_255_1_234
10
4.5722535
20
101.0598211
11
4.7071867
21
101.0598211
0
LINE
8
DEFAULT_255_1_234
10
4.7071867
20
101.0598211
11
5.1545545
21
99.8904
0
LINE
8
DEFAULT_255_1_234
10
5.1545545
20
99.8904
11
4.9963293
21
99.8904
0
LINE
8
DEFAULT_255_1_234
10
4.6397201
20
100.8694689
11
4.4413362
21
100.3225075
0
LINE
8
DEFAULT_255_1_234
10
4.4413362
20
100.3225075
11
4.8389072
21
100.3225075
0
LINE
8
DEFAULT_255_1_234
10
4.8389072
20
100.3225075
11
4.6397201
21
100.8694689
0
LINE
8
DEFAULT_255_1_234
10
5.4774304
20
101.0598211
11
5.4774304
21
99.8904
0
LINE
8
DEFAULT_255_1_234
10
5.4774304
20
99.8904
11
5.323221
21
99.8904
0
LINE
8
DEFAULT_255_1_234
10
5.323221
20
99.8904
11
5.323221
21
101.0598211
0
LINE
8
DEFAULT_255_1_234
10
5.323221
20
101.0598211
11
5.4774304
21
101.0598211
0
LINE
8
DEFAULT_255_1_234
10
5.9079316
20
100.4461963
11
5.7890619
21
100.4767169
0
LINE
8
DEFAULT_255_1_234
10
5.7890619
20
100.4767169
11
5.8484967
21
101.0598211
0
LINE
8
DEFAULT_255_1_234
10
5.8484967
20
101.0598211
11
6.4476644
21
101.0598211
0
LINE
8
DEFAULT_255_1_234
10
6.4476644
20
101.0598211
11
6.4476644
21
100.9224784
0
LINE
8
DEFAULT_255_1_234
10
6.4476644
20
100.9224784
11
5.974595
21
100.9224784
0
LINE
8
DEFAULT_255_1_234
10
5.974595
20
100.9224784
11
5.9392554
21
100.6036184
0
LINE
8
DEFAULT_255_1_234
10
5.7472968
20
100.1980156
11
5.8878522
21
100.1980156
0
LINE
8
DEFAULT_255_1_234
10
5.9472871
20
100.4783232
11
5.9079316
21
100.4461963
0
ARC
8
DEFAULT_255_1_234
10
6.1247338
20
100.285623
40
0.3681349
50
93.7182161
51
120.2538958
0
ARC
8
DEFAULT_255_1_234
10
6.1341601
20
100.2048394
40
0.449379
50
89.9660152
51
94.2496022
0
ARC
8
DEFAULT_255_1_234
10
6.1382334
20
100.2637549
40
0.390482
50
73.8043271
51
90.5585896
0
ARC
8
DEFAULT_255_1_234
10
6.1617231
20
100.3495602
40
0.3015334
50
41.3071453
51
73.5430202
0
ARC
8
DEFAULT_255_1_234
10
6.1201059
20
100.3137324
40
0.3564457
50
13.5075983
51
41.2174222
0
ARC
8
DEFAULT_255_1_234
10
5.9559263
20
100.2707486
40
0.5261351
50
1.1331335
51
13.8829381
0
ARC
8
DEFAULT_255_1_234
10
5.8147632
20
100.2631665
40
0.6674378
50
359.9919444
51
1.544251
0
ARC
8
DEFAULT_255_1_234
10
5.9424458
20
100.259028
40
0.5397702
50
347.8572367
51
0.4293338
0
ARC
8
DEFAULT_255_1_234
10
6.1174776
20
100.2193736
40
0.3603188
50
323.673004
51
348.1672506
0
ARC
8
DEFAULT_255_1_234
10
6.1469284
20
100.2014168
40
0.3259678
50
316.8171152
51
323.1492751
0
ARC
8
DEFAULT_255_1_234
10
6.1530473
20
100.197746
40
0.3189975
50
281.8396411
51
316.5457803
0
ARC
8
DEFAULT_255_1_234
10
6.1154736
20
100.3532762
40
0.4789527
50
269.5770101
51
282.4214771
0
ARC
8
DEFAULT_255_1_234
10
6.1083548
20
100.3319125
40
0.45759
50
256.2427136
51
270.4486331
0
ARC
8
DEFAULT_255_1_234
10
6.078445
20
100.2119229
40
0.3339303
50
228.9023911
51
256.3314342
0
ARC
8
DEFAULT_255_1_234
10
6.0710683
20
100.2002746
40
0.32031
50
193.753695
51
228.5271154
0
ARC
8
DEFAULT_255_1_234
10
6.1948637
20
100.23658
40
0.4492253
50
184.924711
51
194.497588
0
ARC
8
DEFAULT_255_1_234
10
6.2141204
20
100.2401591
40
0.3289787
50
187.3600538
51
198.6732863
0
ARC
8
DEFAULT_255_1_234
10
6.1091498
20
100.2037674
40
0.217884
50
198.4451669
51
217.794479
0
ARC
8
DEFAULT_255_1_234
10
6.0795673
20
100.1828085
40
0.1816698
50
218.2887171
51
228.5612368
0
ARC
8
DEFAULT_255_1_234
10
6.089346
20
100.1959963
40
0.1980329
50
228.9654866
51
258.1234728
0
ARC
8
DEFAULT_255_1_234
10
6.109917
20
100.2840833
40
0.2884748
50
257.7258293
51
270.401361
0
ARC
8
DEFAULT_255_1_234
10
6.1144056
20
100.2395821
40
0.2439788
50
269.4204404
51
286.4209037
0
ARC
8
DEFAULT_255_1_234
10
6.1292544
20
100.1856657
40
0.1880666
50
286.7251356
51
320.600362
0
ARC
8
DEFAULT_255_1_234
10
6.0909369
20
100.2167595
40
0.2374121
50
320.6712579
51
344.5441685
0
ARC
8
DEFAULT_255_1_234
10
5.9752695
20
100.2507045
40
0.3579479
50
344.2412205
51
356.7357071
0
ARC
8
DEFAULT_255_1_234
10
5.8503843
20
100.2610444
40
0.4832297
50
356.3548756
51
0.0500261
0
ARC
8
DEFAULT_255_1_234
10
5.9840353
20
100.264165
40
0.3495889
50
359.5576869
51
12.953486
0
ARC
8
DEFAULT_255_1_234
10
6.089525
20
100.2897434
40
0.2410532
50
12.6490276
51
41.6081334
0
ARC
8
DEFAULT_255_1_234
10
6.1125621
20
100.3093321
40
0.2108218
50
41.7850273
51
85.9892764
0
ARC
8
DEFAULT_255_1_234
10
6.1002357
20
100.2280462
40
0.2928454
50
84.6957577
51
90.0676183
0
ARC
8
DEFAULT_255_1_234
10
6.0978842
20
100.1611716
40
0.3597255
50
89.6804936
51
99.1614436
0
ARC
8
DEFAULT_255_1_234
10
6.0773473
20
100.2839131
40
0.235281
50
98.9830931
51
113.8908934
0
ARC
8
DEFAULT_255_1_234
10
6.0543883
20
100.3380587
40
0.176479
50
114.1950727
51
127.3641004
0
LINE
8
DEFAULT_255_1_234
10
5.1021293
20
107.8279
11
4.9904881
21
108.1331061
0
LINE
8
DEFAULT_255_1_234
10
4.9904881
20
108.1331061
11
4.5005521
21
108.1331061
0
LINE
8
DEFAULT_255_1_234
10
4.5005521
20
108.1331061
11
4.3905173
21
107.8279
0
LINE
8
DEFAULT_255_1_234
10
4.3905173
20
107.8279
11
4.2314889
21
107.8279
0
LINE
8
DEFAULT_255_1_234
10
4.2314889
20
107.8279
11
4.6780535
21
108.9973211
0
LINE
8
DEFAULT_255_1_234
10
4.6780535
20
108.9973211
11
4.8129867
21
108.9973211
0
LINE
8
DEFAULT_255_1_234
10
4.8129867
20
108.9973211
11
5.2603545
21
107.8279
0
LINE
8
DEFAULT_255_1_234
10
5.2603545
20
107.8279
11
5.1021293
21
107.8279
0
LINE
8
DEFAULT_255_1_234
10
4.7455201
20
108.8069689
11
4.5471362
21
108.2600075
0
LINE
8
DEFAULT_255_1_234
10
4.5471362
20
108.2600075
11
4.9447072
21
108.2600075
0
LINE
8
DEFAULT_255_1_234
10
4.9447072
20
108.2600075
11
4.7455201
21
108.8069689
0
LINE
8
DEFAULT_255_1_234
10
5.5832304
20
108.9973211
11
5.5832304
21
107.8279
0
LINE
8
DEFAULT_255_1_234
10
5.5832304
20
107.8279
11
5.429021
21
107.8279
0
LINE
8
DEFAULT_255_1_234
10
5.429021
20
107.8279
11
5.429021
21
108.9973211
0
LINE
8
DEFAULT_255_1_234
10
5.429021
20
108.9973211
11
5.5832304
21
108.9973211
0
LINE
8
DEFAULT_255_1_234
10
6.4538708
20
108.9973211
11
6.4538708
21
108.220652
0
LINE
8
DEFAULT_255_1_234
10
6.4538708
20
108.220652
11
6.616112
21
108.220652
0
LINE
8
DEFAULT_255_1_234
10
6.616112
20
108.220652
11
6.616112
21
108.0993728
0
LINE
8
DEFAULT_255_1_234
10
6.616112
20
108.0993728
11
6.4538708
21
108.0993728
0
LINE
8
DEFAULT_255_1_234
10
6.4538708
20
108.0993728
11
6.4538708
21
107.8279
0
LINE
8
DEFAULT_255_1_234
10
6.4538708
20
107.8279
11
6.3044805
21
107.8279
0
LINE
8
DEFAULT_255_1_234
10
6.3044805
20
107.8279
11
6.3044805
21
108.0993728
0
LINE
8
DEFAULT_255_1_234
10
6.3044805
20
108.0993728
11
5.7719763
21
108.0993728
0
LINE
8
DEFAULT_255_1_234
10
5.7719763
20
108.0993728
11
5.7719763
21
108.1869187
0
LINE
8
DEFAULT_255_1_234
10
5.7719763
20
108.1869187
11
6.2956456
21
108.9973211
0
LINE
8
DEFAULT_255_1_234
10
6.2956456
20
108.9973211
11
6.4538708
21
108.9973211
0
LINE
8
DEFAULT_255_1_234
10
6.2868107
20
108.7619912
11
5.9406428
21
108.220652
0
LINE
8
DEFAULT_255_1_234
10
5.9406428
20
108.220652
11
6.3044805
21
108.220652
0
LINE
8
DEFAULT_255_1_234
10
6.3044805
20
108.220652
11
6.3044805
21
108.7941181
0
LINE
8
DEFAULT_255_1_234
10
6.3044805
20
108.7941181
11
6.2868107
21
108.7619912
0
LINE
8
DEFAULT_255_1_234
10
4.9963293
20
115.7654
11
4.8846881
21
116.0706061
0
LINE
8
DEFAULT_255_1_234
10
4.8846881
20
116.0706061
11
4.3947521
21
116.0706061
0
LINE
8
DEFAULT_255_1_234
10
4.3947521
20
116.0706061
11
4.2847173
21
115.7654
0
LINE
8
DEFAULT_255_1_234
10
4.2847173
20
115.7654
11
4.1256889
21
115.7654
0
LINE
8
DEFAULT_255_1_234
10
4.1256889
20
115.7654
11
4.5722535
21
116.9348211
0
LINE
8
DEFAULT_255_1_234
10
4.5722535
20
116.9348211
11
4.7071867
21
116.9348211
0
LINE
8
DEFAULT_255_1_234
10
4.7071867
20
116.9348211
11
5.1545545
21
115.7654
0
LINE
8
DEFAULT_255_1_234
10
5.1545545
20
115.7654
11
4.9963293
21
115.7654
0
LINE
8
DEFAULT_255_1_234
10
4.6397201
20
116.7444689
11
4.4413362
21
116.1975075
0
LINE
8
DEFAULT_255_1_234
10
4.4413362
20
116.1975075
11
4.8389072
21
116.1975075
0
LINE
8
DEFAULT_255_1_234
10
4.8389072
20
116.1975075
11
4.6397201
21
116.7444689
0
LINE
8
DEFAULT_255_1_234
10
5.4774304
20
116.9348211
11
5.4774304
21
115.7654
0
LINE
8
DEFAULT_255_1_234
10
5.4774304
20
115.7654
11
5.323221
21
115.7654
0
LINE
8
DEFAULT_255_1_234
10
5.323221
20
115.7654
11
5.323221
21
116.9348211
0
LINE
8
DEFAULT_255_1_234
10
5.323221
20
116.9348211
11
5.4774304
21
116.9348211
0
LINE
8
DEFAULT_255_1_234
10
5.9368458
20
116.3011169
11
5.9368458
21
116.4223962
0
LINE
8
DEFAULT_255_1_234
10
5.9368458
20
116.4223962
11
6.048487
21
116.4223962
0
LINE
8
DEFAULT_255_1_234
10
5.8581348
20
116.6280087
11
5.7095477
21
116.6280087
0
LINE
8
DEFAULT_255_1_234
10
5.6991064
20
116.0738188
11
5.8484967
21
116.0738188
0
LINE
8
DEFAULT_255_1_234
10
6.048487
20
116.3011169
11
5.9368458
21
116.3011169
0
ARC
8
DEFAULT_255_1_234
10
6.0455737
20
116.7616713
40
0.3392876
50
270.4919872
51
281.8951556
0
ARC
8
DEFAULT_255_1_234
10
6.0696998
20
116.6514702
40
0.2264817
50
281.6691735
51
301.2943132
0
ARC
8
DEFAULT_255_1_234
10
6.0867209
20
116.6203304
40
0.1910381
50
301.7833094
51
311.7545298
0
ARC
8
DEFAULT_255_1_234
10
6.0958784
20
116.6101748
40
0.1773635
50
311.7323931
51
354.2802411
0
ARC
8
DEFAULT_255_1_234
10
6.023241
20
116.6226722
40
0.2509385
50
353.0937916
51
0.1181479
0
ARC
8
DEFAULT_255_1_234
10
5.9771194
20
116.6274386
40
0.2970898
50
359.1805295
51
15.0453146
0
ARC
8
DEFAULT_255_1_234
10
6.1117031
20
116.6666992
40
0.1569564
50
13.9577229
51
77.6713066
0
ARC
8
DEFAULT_255_1_234
10
6.073056
20
116.5281949
40
0.3006298
50
76.1116566
51
90.7026153
0
ARC
8
DEFAULT_255_1_234
10
6.0671399
20
116.5555545
40
0.2732568
50
89.5324876
51
103.531937
0
ARC
8
DEFAULT_255_1_234
10
6.0470843
20
116.6354884
40
0.1908508
50
103.2931773
51
133.5619022
0
ARC
8
DEFAULT_255_1_234
10
6.0426331
20
116.6414375
40
0.1834746
50
133.8349307
51
173.5344437
0
ARC
8
DEFAULT_255_1_234
10
6.1149374
20
116.6286213
40
0.2568033
50
172.5096846
51
180.1366907
0
ARC
8
DEFAULT_255_1_234
10
6.0198268
20
116.6320622
40
0.3103056
50
155.3484492
51
180.7484736
0
ARC
8
DEFAULT_255_1_234
10
6.0149357
20
116.6291846
40
0.3070957
50
131.5744599
51
154.4798489
0
ARC
8
DEFAULT_255_1_234
10
6.0462505
20
116.597531
40
0.3515643
50
96.9875458
51
131.9690667
0
ARC
8
DEFAULT_255_1_234
10
6.0681985
20
116.4729636
40
0.4779224
50
89.8596053
51
97.7825159
0
ARC
8
DEFAULT_255_1_234
10
6.0730048
20
116.4467616
40
0.5041361
50
78.3655447
51
90.4131539
0
ARC
8
DEFAULT_255_1_234
10
6.1087966
20
116.6126887
40
0.3344039
50
56.6229102
51
78.638727
0
ARC
8
DEFAULT_255_1_234
10
6.1302909
20
116.6502805
40
0.2912001
50
47.0253525
51
56.0854072
0
ARC
8
DEFAULT_255_1_234
10
6.1322689
20
116.6542223
40
0.2869704
50
10.9208013
51
46.7778124
0
ARC
8
DEFAULT_255_1_234
10
5.9958756
20
116.6226857
40
0.426899
50
359.6364486
51
11.6087304
0
ARC
8
DEFAULT_255_1_234
10
6.17936
20
116.6211752
40
0.243409
50
332.3549906
51
359.7179418
0
ARC
8
DEFAULT_255_1_234
10
6.1143201
20
116.6520142
40
0.3153459
50
325.2333722
51
332.8745602
0
ARC
8
DEFAULT_255_1_234
10
6.1295825
20
116.6413828
40
0.2967456
50
292.9802137
51
325.2392345
0
ARC
8
DEFAULT_255_1_234
10
6.1021199
20
116.6947863
40
0.3566604
50
292.5402179
51
293.6924929
0
ARC
8
DEFAULT_255_1_234
10
6.1413795
20
116.0493091
40
0.3307468
50
57.6435486
51
72.8625112
0
ARC
8
DEFAULT_255_1_234
10
6.1768295
20
116.1067549
40
0.2632492
50
36.7248896
51
57.4697979
0
ARC
8
DEFAULT_255_1_234
10
6.1756927
20
116.108022
40
0.2634081
50
8.0545065
51
36.356114
0
ARC
8
DEFAULT_255_1_234
10
6.0894112
20
116.0925174
40
0.3510261
50
359.8320645
51
8.5869982
0
ARC
8
DEFAULT_255_1_234
10
6.0518889
20
116.0877101
40
0.3885653
50
343.9829931
51
0.5571613
0
ARC
8
DEFAULT_255_1_234
10
6.1405086
20
116.0634438
40
0.2966924
50
311.6359546
51
343.7651759
0
ARC
8
DEFAULT_255_1_234
10
6.1026655
20
116.1061102
40
0.3537231
50
279.7829875
51
311.6255694
0
ARC
8
DEFAULT_255_1_234
10
6.0725431
20
116.249828
40
0.5004971
50
269.7286406
51
280.3856417
0
ARC
8
DEFAULT_255_1_234
10
6.0663504
20
116.2456996
40
0.4963778
50
256.6828919
51
270.4412052
0
ARC
8
DEFAULT_255_1_234
10
6.03248
20
116.1072394
40
0.3538406
50
229.4223008
51
256.8556159
0
ARC
8
DEFAULT_255_1_234
10
5.9910192
20
116.0605736
40
0.2914296
50
181.818294
51
229.6455059
0
ARC
8
DEFAULT_255_1_234
10
6.0950149
20
116.0736496
40
0.3959084
50
179.9755256
51
183.2323064
0
ARC
8
DEFAULT_255_1_234
10
6.0777894
20
116.0716037
40
0.2293034
50
179.4465117
51
196.2869258
0
ARC
8
DEFAULT_255_1_234
10
6.0290302
20
116.0582651
40
0.1787621
50
196.5661473
51
227.705904
0
ARC
8
DEFAULT_255_1_234
10
6.0454397
20
116.0766155
40
0.2033784
50
227.7652068
51
257.8762805
0
ARC
8
DEFAULT_255_1_234
10
6.0679367
20
116.1709156
40
0.3003081
50
257.4584385
51
270.426602
0
ARC
8
DEFAULT_255_1_234
10
6.0724934
20
116.1998996
40
0.329292
50
269.5962073
51
280.8789248
0
ARC
8
DEFAULT_255_1_234
10
6.0954462
20
116.0852685
40
0.2123908
50
280.6346389
51
299.8595945
0
ARC
8
DEFAULT_255_1_234
10
6.1145369
20
116.0490212
40
0.171457
50
300.3576302
51
314.5517981
0
ARC
8
DEFAULT_255_1_234
10
6.1062429
20
116.0550919
40
0.1816095
50
315.0728369
51
345.0431014
0
ARC
8
DEFAULT_255_1_234
10
6.0139244
20
116.0819841
40
0.2777492
50
344.5986631
51
357.9269593
0
ARC
8
DEFAULT_255_1_234
10
5.924357
20
116.0881276
40
0.3674917
50
357.4748886
51
0.0231117
0
ARC
8
DEFAULT_255_1_234
10
6.0266679
20
116.0905679
40
0.2651907
50
359.5047933
51
13.4239635
0
ARC
8
DEFAULT_255_1_234
10
6.1133323
20
116.1127478
40
0.1757509
50
12.9498199
51
48.7551375
0
ARC
8
DEFAULT_255_1_234
10
6.0951057
20
116.08784
40
0.2065134
50
49.5088623
51
72.1836453
0
ARC
8
DEFAULT_255_1_234
10
6.0593209
20
115.9816291
40
0.3185836
50
71.9010081
51
84.3554254
0
ARC
8
DEFAULT_255_1_234
10
6.0431841
20
115.8455326
40
0.4556151
50
84.0193428
51
89.333121
0
LINE
8
DEFAULT_255_1_234
10
4.9963293
20
123.7029
11
4.8846881
21
124.0081061
0
LINE
8
DEFAULT_255_1_234
10
4.8846881
20
124.0081061
11
4.3947521
21
124.0081061
0
LINE
8
DEFAULT_255_1_234
10
4.3947521
20
124.0081061
11
4.2847173
21
123.7029
0
LINE
8
DEFAULT_255_1_234
10
4.2847173
20
123.7029
11
4.1256889
21
123.7029
0
LINE
8
DEFAULT_255_1_234
10
4.1256889
20
123.7029
11
4.5722535
21
124.8723211
0
LINE
8
DEFAULT_255_1_234
10
4.5722535
20
124.8723211
11
4.7071867
21
124.8723211
0
LINE
8
DEFAULT_255_1_234
10
4.7071867
20
124.8723211
11
5.1545545
21
123.7029
0
LINE
8
DEFAULT_255_1_234
10
5.1545545
20
123.7029
11
4.9963293
21
123.7029
0
LINE
8
DEFAULT_255_1_234
10
4.6397201
20
124.6819689
11
4.4413362
21
124.1350075
0
LINE
8
DEFAULT_255_1_234
10
4.4413362
20
124.1350075
11
4.8389072
21
124.1350075
0
LINE
8
DEFAULT_255_1_234
10
4.8389072
20
124.1350075
11
4.6397201
21
124.6819689
0
LINE
8
DEFAULT_255_1_234
10
5.4774304
20
124.8723211
11
5.4774304
21
123.7029
0
LINE
8
DEFAULT_255_1_234
10
5.4774304
20
123.7029
11
5.323221
21
123.7029
0
LINE
8
DEFAULT_255_1_234
10
5.323221
20
123.7029
11
5.323221
21
124.8723211
0
LINE
8
DEFAULT_255_1_234
10
5.323221
20
124.8723211
11
5.4774304
21
124.8723211
0
LINE
8
DEFAULT_255_1_234
10
6.4870199
20
123.8241792
11
6.4870199
21
123.7029
0
LINE
8
DEFAULT_255_1_234
10
6.4870199
20
123.7029
11
5.7207921
21
123.7029
0
LINE
8
DEFAULT_255_1_234
10
5.7207921
20
123.7029
11
5.7207921
21
123.8097221
0
LINE
8
DEFAULT_255_1_234
10
5.7207921
20
123.8097221
11
6.1255917
21
124.2594995
0
LINE
8
DEFAULT_255_1_234
10
5.8468904
20
124.5277595
11
5.6983032
21
124.5277595
0
LINE
8
DEFAULT_255_1_234
10
6.2131376
20
124.1639218
11
5.8998999
21
123.8241792
0
LINE
8
DEFAULT_255_1_234
10
5.8998999
20
123.8241792
11
6.4870199
21
123.8241792
0
ARC
8
DEFAULT_255_1_234
10
4.776575
20
125.4524527
40
1.8008286
50
318.5132453
51
320.7828378
0
ARC
8
DEFAULT_255_1_234
10
5.3052725
20
125.0221426
40
1.1191493
50
320.7372736
51
323.9737074
0
ARC
8
DEFAULT_255_1_234
10
5.6972581
20
124.7381361
40
0.6350923
50
323.8961724
51
328.6421089
0
ARC
8
DEFAULT_255_1_234
10
5.9019177
20
124.6119031
40
0.3946393
50
328.8299013
51
331.789948
0
ARC
8
DEFAULT_255_1_234
10
6.0016355
20
124.5604509
40
0.2824501
50
331.4255242
51
352.9364833
0
ARC
8
DEFAULT_255_1_234
10
6.0152856
20
124.5573976
40
0.2685315
50
353.2248685
51
0.0169286
0
ARC
8
DEFAULT_255_1_234
10
6.0362732
20
124.559695
40
0.2475536
50
359.4866256
51
15.9339782
0
ARC
8
DEFAULT_255_1_234
10
6.0869718
20
124.5733286
40
0.1950618
50
16.1714718
51
43.5284424
0
ARC
8
DEFAULT_255_1_234
10
6.0947026
20
124.5810573
40
0.184134
50
43.4415429
51
83.1661404
0
ARC
8
DEFAULT_255_1_234
10
6.0812945
20
124.5073771
40
0.258926
50
82.160215
51
90.1505798
0
ARC
8
DEFAULT_255_1_234
10
6.0781372
20
124.4536865
40
0.3126255
50
89.5460705
51
102.5418777
0
ARC
8
DEFAULT_255_1_234
10
6.0538458
20
124.5567665
40
0.2067346
50
102.1739365
51
129.2061916
0
ARC
8
DEFAULT_255_1_234
10
6.045953
20
124.5692094
40
0.1921118
50
129.7279328
51
135.7542026
0
ARC
8
DEFAULT_255_1_234
10
6.0581057
20
124.5595045
40
0.2075944
50
136.175737
51
166.3674722
0
ARC
8
DEFAULT_255_1_234
10
6.1587977
20
124.5325182
40
0.3118201
50
165.9092917
51
178.8683903
0
ARC
8
DEFAULT_255_1_234
10
6.2452838
20
124.5278179
40
0.3983935
50
178.438168
51
180.0083905
0
ARC
8
DEFAULT_255_1_234
10
6.105144
20
124.5317231
40
0.4068601
50
163.2878735
51
180.5581814
0
ARC
8
DEFAULT_255_1_234
10
6.0249701
20
124.553784
40
0.3237344
50
133.454115
51
162.9470031
0
ARC
8
DEFAULT_255_1_234
10
6.0428243
20
124.5348
40
0.349795
50
100.7869394
51
133.4384016
0
ARC
8
DEFAULT_255_1_234
10
6.0776014
20
124.3799319
40
0.5084616
50
89.6605301
51
101.3704185
0
ARC
8
DEFAULT_255_1_234
10
6.0842353
20
124.3860496
40
0.502348
50
78.2171172
51
90.4130393
0
ARC
8
DEFAULT_255_1_234
10
6.1197431
20
124.5484637
40
0.3361092
50
55.9268222
51
78.4888551
0
ARC
8
DEFAULT_255_1_234
10
6.1393872
20
124.5823324
40
0.2970617
50
47.9292255
51
55.4054003
0
ARC
8
DEFAULT_255_1_234
10
6.1495432
20
124.5926502
40
0.2825983
50
4.3347696
51
48.0560701
0
ARC
8
DEFAULT_255_1_234
10
6.0399826
20
124.5756601
40
0.393225
50
359.925209
51
5.5967654
0
ARC
8
DEFAULT_255_1_234
10
6.0828718
20
124.5812816
40
0.3503892
50
337.8914096
51
358.9967724
0
ARC
8
DEFAULT_255_1_234
10
5.811513
20
124.6859706
40
0.6412172
50
326.9135351
51
338.3505194
0
ARC
8
DEFAULT_255_1_234
10
5.4129433
20
124.9414284
40
1.1146189
50
319.6472867
51
327.095818
0
ARC
8
DEFAULT_255_1_234
10
5.0296437
20
125.2576
40
1.6114559
50
317.2586784
51
319.9046139
0
LINE
8
DEFAULT_255_1_234
10
4.9886293
20
131.6404
11
4.8769881
21
131.9456061
0
LINE
8
DEFAULT_255_1_234
10
4.8769881
20
131.9456061
11
4.3870521
21
131.9456061
0
LINE
8
DEFAULT_255_1_234
10
4.3870521
20
131.9456061
11
4.2770173
21
131.6404
0
LINE
8
DEFAULT_255_1_234
10
4.2770173
20
131.6404
11
4.1179889
21
131.6404
0
LINE
8
DEFAULT_255_1_234
10
4.1179889
20
131.6404
11
4.5645535
21
132.8098211
0
LINE
8
DEFAULT_255_1_234
10
4.5645535
20
132.8098211
11
4.6994867
21
132.8098211
0
LINE
8
DEFAULT_255_1_234
10
4.6994867
20
132.8098211
11
5.1468545
21
131.6404
0
LINE
8
DEFAULT_255_1_234
10
5.1468545
20
131.6404
11
4.9886293
21
131.6404
0
LINE
8
DEFAULT_255_1_234
10
4.6320201
20
132.6194689
11
4.4336362
21
132.0725075
0
LINE
8
DEFAULT_255_1_234
10
4.4336362
20
132.0725075
11
4.8312072
21
132.0725075
0
LINE
8
DEFAULT_255_1_234
10
4.8312072
20
132.0725075
11
4.6320201
21
132.6194689
0
LINE
8
DEFAULT_255_1_234
10
5.4697304
20
132.8098211
11
5.4697304
21
131.6404
0
LINE
8
DEFAULT_255_1_234
10
5.4697304
20
131.6404
11
5.315521
21
131.6404
0
LINE
8
DEFAULT_255_1_234
10
5.315521
20
131.6404
11
5.315521
21
132.8098211
0
LINE
8
DEFAULT_255_1_234
10
5.315521
20
132.8098211
11
5.4697304
21
132.8098211
0
LINE
8
DEFAULT_255_1_234
10
6.2014218
20
132.8154433
11
6.2014218
21
131.6404
0
LINE
8
DEFAULT_255_1_234
10
6.2014218
20
131.6404
11
6.0520314
21
131.6404
0
LINE
8
DEFAULT_255_1_234
10
6.0520314
20
131.6404
11
6.0520314
21
132.6307133
0
LINE
8
DEFAULT_255_1_234
10
6.0520314
20
132.6307133
11
5.7524476
21
132.5206785
0
LINE
8
DEFAULT_255_1_234
10
5.7524476
20
132.5206785
11
5.7524476
21
132.6556117
0
LINE
8
DEFAULT_255_1_234
10
5.7524476
20
132.6556117
11
6.1781297
21
132.8154433
0
LINE
8
DEFAULT_255_1_234
10
6.1781297
20
132.8154433
11
6.2014218
21
132.8154433
0
LINE
8
DEFAULT_255_1_234
10
4.9963293
20
139.5779
11
4.8846881
21
139.8831061
0
LINE
8
DEFAULT_255_1_234
10
4.8846881
20
139.8831061
11
4.3947521
21
139.8831061
0
LINE
8
DEFAULT_255_1_234
10
4.3947521
20
139.8831061
11
4.2847173
21
139.5779
0
LINE
8
DEFAULT_255_1_234
10
4.2847173
20
139.5779
11
4.1256889
21
139.5779
0
LINE
8
DEFAULT_255_1_234
10
4.1256889
20
139.5779
11
4.5722535
21
140.7473211
0
LINE
8
DEFAULT_255_1_234
10
4.5722535
20
140.7473211
11
4.7071867
21
140.7473211
0
LINE
8
DEFAULT_255_1_234
10
4.7071867
20
140.7473211
11
5.1545545
21
139.5779
0
LINE
8
DEFAULT_255_1_234
10
5.1545545
20
139.5779
11
4.9963293
21
139.5779
0
LINE
8
DEFAULT_255_1_234
10
4.6397201
20
140.5569689
11
4.4413362
21
140.0100075
0
LINE
8
DEFAULT_255_1_234
10
4.4413362
20
140.0100075
11
4.8389072
21
140.0100075
0
LINE
8
DEFAULT_255_1_234
10
4.8389072
20
140.0100075
11
4.6397201
21
140.5569689
0
LINE
8
DEFAULT_255_1_234
10
5.4774304
20
140.7473211
11
5.4774304
21
139.5779
0
LINE
8
DEFAULT_255_1_234
10
5.4774304
20
139.5779
11
5.323221
21
139.5779
0
LINE
8
DEFAULT_255_1_234
10
5.323221
20
139.5779
11
5.323221
21
140.7473211
0
LINE
8
DEFAULT_255_1_234
10
5.323221
20
140.7473211
11
5.4774304
21
140.7473211
0
LINE
8
DEFAULT_255_1_234
10
6.4540898
20
140.2694327
11
6.4540898
21
140.0766709
0
LINE
8
DEFAULT_255_1_234
10
5.715973
20
140.0565916
11
5.715973
21
140.2549755
0
LINE
8
DEFAULT_255_1_234
10
6.3055026
20
140.0365123
11
6.3055026
21
140.2798739
0
LINE
8
DEFAULT_255_1_234
10
5.8645602
20
140.2911184
11
5.8645602
21
140.0533789
0
ARC
8
DEFAULT_255_1_234
10
5.2293788
20
140.0717805
40
1.2247208
50
353.8441951
51
0.2287902
0
ARC
8
DEFAULT_255_1_234
10
5.6933291
20
140.0199806
40
0.7578929
50
344.4934747
51
353.9765454
0
ARC
8
DEFAULT_255_1_234
10
5.9925881
20
139.9348981
40
0.4467846
50
329.2803592
51
344.7472793
0
ARC
8
DEFAULT_255_1_234
10
6.0918706
20
139.8804018
40
0.3336173
50
324.9352394
51
328.6160465
0
ARC
8
DEFAULT_255_1_234
10
6.1295815
20
139.8540427
40
0.2876076
50
280.580143
51
324.9173126
0
ARC
8
DEFAULT_255_1_234
10
6.0894608
20
140.0211099
40
0.4592847
50
269.5977311
51
281.6734359
0
ARC
8
DEFAULT_255_1_234
10
6.0822513
20
140.0091173
40
0.4472986
50
256.6228859
51
270.51044
0
ARC
8
DEFAULT_255_1_234
10
6.0420491
20
139.8542877
40
0.2873874
50
215.8618325
51
257.2788573
0
ARC
8
DEFAULT_255_1_234
10
6.1441523
20
139.9227977
40
0.4102928
50
197.9693508
51
215.2623606
0
ARC
8
DEFAULT_255_1_234
10
6.3926638
20
140.0066709
40
0.6725652
50
187.8816417
51
198.2346507
0
ARC
8
DEFAULT_255_1_234
10
6.7884846
20
140.0638079
40
1.0724845
50
180.8976217
51
188.0055519
0
ARC
8
DEFAULT_255_1_234
10
7.0685035
20
140.0741777
40
1.3526448
50
180.7449369
51
181.1510016
0
ARC
8
DEFAULT_255_1_234
10
6.9107764
20
140.2598042
40
1.1948131
50
173.7675579
51
180.231553
0
ARC
8
DEFAULT_255_1_234
10
6.458991
20
140.3108666
40
0.7401564
50
164.3058563
51
173.9002247
0
ARC
8
DEFAULT_255_1_234
10
6.1677979
20
140.3947656
40
0.4371288
50
148.7922025
51
164.568378
0
ARC
8
DEFAULT_255_1_234
10
6.0726431
20
140.4478929
40
0.3282386
50
144.5883898
51
148.1176286
0
ARC
8
DEFAULT_255_1_234
10
6.0383329
20
140.4718315
40
0.2864044
50
101.6440918
51
144.514236
0
ARC
8
DEFAULT_255_1_234
10
6.0808396
20
140.3029069
40
0.4604934
50
89.5284041
51
102.5819763
0
ARC
8
DEFAULT_255_1_234
10
6.0887484
20
140.2990018
40
0.464401
50
77.0437873
51
90.5081339
0
ARC
8
DEFAULT_255_1_234
10
6.1289485
20
140.4632615
40
0.2953195
50
48.2778575
51
77.4994676
0
ARC
8
DEFAULT_255_1_234
10
6.1362117
20
140.4761746
40
0.2808655
50
36.3142134
51
47.6305865
0
ARC
8
DEFAULT_255_1_234
10
6.0493424
20
140.4176515
40
0.3855453
50
18.2931786
51
35.6769206
0
ARC
8
DEFAULT_255_1_234
10
5.7950183
20
140.3303593
40
0.654423
50
8.024666
51
18.5605216
0
ARC
8
DEFAULT_255_1_234
10
5.3787103
20
140.2688792
40
1.0752407
50
1.1274072
51
8.1718305
0
ARC
8
DEFAULT_255_1_234
10
5.0551293
20
140.2561885
40
1.3990231
50
0.5424119
51
1.3863029
0
ARC
8
DEFAULT_255_1_234
10
5.2372671
20
140.2834342
40
1.0682415
50
359.8090433
51
4.9407866
0
ARC
8
DEFAULT_255_1_234
10
5.6582685
20
140.3210113
40
0.6455691
50
4.8362157
51
12.2904523
0
ARC
8
DEFAULT_255_1_234
10
5.93378
20
140.3823965
40
0.3633074
50
12.0805627
51
23.8173984
0
ARC
8
DEFAULT_255_1_234
10
6.0511505
20
140.4320919
40
0.2358723
50
24.2871213
51
31.3935614
0
ARC
8
DEFAULT_255_1_234
10
6.1036202
20
140.4664233
40
0.1732111
50
30.7407893
51
82.4657128
0
ARC
8
DEFAULT_255_1_234
10
6.0856337
20
140.3780691
40
0.263235
50
81.1060089
51
90.2184952
0
ARC
8
DEFAULT_255_1_234
10
6.0820636
20
140.4038924
40
0.2374236
50
89.3806855
51
105.6762551
0
ARC
8
DEFAULT_255_1_234
10
6.0637266
20
140.4705567
40
0.1682847
50
105.7981136
51
149.7388061
0
ARC
8
DEFAULT_255_1_234
10
6.1701344
20
140.406595
40
0.2924306
50
149.4208916
51
163.6286378
0
ARC
8
DEFAULT_255_1_234
10
6.3792233
20
140.342825
40
0.5110213
50
163.3763315
51
172.1410975
0
ARC
8
DEFAULT_255_1_234
10
6.7092951
20
140.2955518
40
0.8444586
50
172.0259487
51
178.0703232
0
ARC
8
DEFAULT_255_1_234
10
7.0123041
20
140.2811906
40
1.1477868
50
177.8631668
51
179.5044149
0
ARC
8
DEFAULT_255_1_234
10
6.9050445
20
140.0497389
40
1.0404907
50
179.7995573
51
185.2460446
0
ARC
8
DEFAULT_255_1_234
10
6.5007485
20
140.0114513
40
0.6343885
50
185.1411642
51
193.0079639
0
ARC
8
DEFAULT_255_1_234
10
6.2363957
20
139.9489641
40
0.3627568
50
192.7897626
51
205.2507664
0
ARC
8
DEFAULT_255_1_234
10
6.1317504
20
139.9022415
40
0.2481908
50
205.8005384
51
211.2537509
0
ARC
8
DEFAULT_255_1_234
10
6.0793945
20
139.867158
40
0.1852521
50
210.3789793
51
238.4008143
0
ARC
8
DEFAULT_255_1_234
10
6.0774467
20
139.8718376
40
0.1882621
50
239.6520629
51
265.9793761
0
ARC
8
DEFAULT_255_1_234
10
6.0859667
20
139.9390427
40
0.2559272
50
265.1315437
51
270.060332
0
ARC
8
DEFAULT_255_1_234
10
6.0888446
20
139.9066534
40
0.2235528
50
269.3314664
51
287.2178029
0
ARC
8
DEFAULT_255_1_234
10
6.1026298
20
139.8563279
40
0.1714108
50
287.7958004
51
329.080874
0
ARC
8
DEFAULT_255_1_234
10
6.0068754
20
139.916093
40
0.2842745
50
328.6634704
51
343.3325132
0
ARC
8
DEFAULT_255_1_234
10
5.7895774
20
139.9837863
40
0.5118644
50
343.0499468
51
351.9393422
0
ARC
8
DEFAULT_255_1_234
10
5.4429074
20
140.0348949
40
0.8622784
50
351.8069023
51
357.7959224
0
ARC
8
DEFAULT_255_1_234
10
5.119363
20
140.0516721
40
1.1862365
50
357.5871873
51
359.2677531
0
LINE
8
DEFAULT_255_1_234
10
23.1643817
20
148.2069327
11
23.1643817
21
148.0141709
0
LINE
8
DEFAULT_255_1_234
10
22.426265
20
147.9940916
11
22.426265
21
148.1924755
0
LINE
8
DEFAULT_255_1_234
10
23.0157946
20
147.9740123
11
23.0157946
21
148.2173739
0
LINE
8
DEFAULT_255_1_234
10
22.5748521
20
148.2286184
11
22.5748521
21
147.9908789
0
ARC
8
DEFAULT_255_1_234
10
21.9396707
20
148.0092805
40
1.2247208
50
353.8441951
51
0.2287902
0
ARC
8
DEFAULT_255_1_234
10
22.4036211
20
147.9574806
40
0.7578929
50
344.4934747
51
353.9765454
0
ARC
8
DEFAULT_255_1_234
10
22.7028801
20
147.8723981
40
0.4467846
50
329.2803592
51
344.7472793
0
ARC
8
DEFAULT_255_1_234
10
22.8021626
20
147.8179018
40
0.3336173
50
324.9352394
51
328.6160465
0
ARC
8
DEFAULT_255_1_234
10
22.8398734
20
147.7915427
40
0.2876076
50
280.580143
51
324.9173126
0
ARC
8
DEFAULT_255_1_234
10
22.7997527
20
147.9586099
40
0.4592847
50
269.5977311
51
281.6734359
0
ARC
8
DEFAULT_255_1_234
10
22.7925433
20
147.9466173
40
0.4472986
50
256.6228859
51
270.51044
0
ARC
8
DEFAULT_255_1_234
10
22.752341
20
147.7917877
40
0.2873874
50
215.8618325
51
257.2788573
0
ARC
8
DEFAULT_255_1_234
10
22.8544442
20
147.8602977
40
0.4102928
50
197.9693508
51
215.2623606
0
ARC
8
DEFAULT_255_1_234
10
23.1029558
20
147.9441709
40
0.6725652
50
187.8816417
51
198.2346507
0
ARC
8
DEFAULT_255_1_234
10
23.4987766
20
148.0013079
40
1.0724845
50
180.8976217
51
188.0055519
0
ARC
8
DEFAULT_255_1_234
10
23.7787954
20
148.0116777
40
1.3526448
50
180.7449369
51
181.1510016
0
ARC
8
DEFAULT_255_1_234
10
23.6210683
20
148.1973042
40
1.1948131
50
173.7675579
51
180.231553
0
ARC
8
DEFAULT_255_1_234
10
23.169283
20
148.2483666
40
0.7401564
50
164.3058563
51
173.9002247
0
ARC
8
DEFAULT_255_1_234
10
22.8780899
20
148.3322656
40
0.4371288
50
148.7922025
51
164.568378
0
ARC
8
DEFAULT_255_1_234
10
22.7829351
20
148.3853929
40
0.3282386
50
144.5883898
51
148.1176286
0
ARC
8
DEFAULT_255_1_234
10
22.7486249
20
148.4093315
40
0.2864044
50
101.6440918
51
144.514236
0
ARC
8
DEFAULT_255_1_234
10
22.7911315
20
148.2404069
40
0.4604934
50
89.5284041
51
102.5819763
0
ARC
8
DEFAULT_255_1_234
10
22.7990403
20
148.2365018
40
0.464401
50
77.0437873
51
90.5081339
0
ARC
8
DEFAULT_255_1_234
10
22.8392405
20
148.4007615
40
0.2953195
50
48.2778575
51
77.4994676
0
ARC
8
DEFAULT_255_1_234
10
22.8465036
20
148.4136746
40
0.2808655
50
36.3142134
51
47.6305865
0
ARC
8
DEFAULT_255_1_234
10
22.7596343
20
148.3551515
40
0.3855453
50
18.2931786
51
35.6769206
0
ARC
8
DEFAULT_255_1_234
10
22.5053102
20
148.2678593
40
0.654423
50
8.024666
51
18.5605216
0
ARC
8
DEFAULT_255_1_234
10
22.0890022
20
148.2063792
40
1.0752407
50
1.1274072
51
8.1718305
0
ARC
8
DEFAULT_255_1_234
10
21.7654213
20
148.1936885
40
1.3990231
50
0.5424119
51
1.3863029
0
ARC
8
DEFAULT_255_1_234
10
21.947559
20
148.2209342
40
1.0682415
50
359.8090433
51
4.9407866
0
ARC
8
DEFAULT_255_1_234
10
22.3685604
20
148.2585113
40
0.6455691
50
4.8362157
51
12.2904523
0
ARC
8
DEFAULT_255_1_234
10
22.6440719
20
148.3198965
40
0.3633074
50
12.0805627
51
23.8173984
0
ARC
8
DEFAULT_255_1_234
10
22.7614425
20
148.3695919
40
0.2358723
50
24.2871213
51
31.3935614
0
ARC
8
DEFAULT_255_1_234
10
22.8139122
20
148.4039233
40
0.1732111
50
30.7407893
51
82.4657128
0
ARC
8
DEFAULT_255_1_234
10
22.7959256
20
148.3155691
40
0.263235
50
81.1060089
51
90.2184952
0
ARC
8
DEFAULT_255_1_234
10
22.7923555
20
148.3413924
40
0.2374236
50
89.3806855
51
105.6762551
0
ARC
8
DEFAULT_255_1_234
10
22.7740186
20
148.4080567
40
0.1682847
50
105.7981136
51
149.7388061
0
ARC
8
DEFAULT_255_1_234
10
22.8804264
20
148.344095
40
0.2924306
50
149.4208916
51
163.6286378
0
ARC
8
DEFAULT_255_1_234
10
23.0895152
20
148.280325
40
0.5110213
50
163.3763315
51
172.1410975
0
ARC
8
DEFAULT_255_1_234
10
23.4195871
20
148.2330518
40
0.8444586
50
172.0259487
51
178.0703232
0
ARC
8
DEFAULT_255_1_234
10
23.722596
20
148.2186906
40
1.1477868
50
177.8631668
51
179.5044149
0
ARC
8
DEFAULT_255_1_234
10
23.6153365
20
147.9872389
40
1.0404907
50
179.7995573
51
185.2460446
0
ARC
8
DEFAULT_255_1_234
10
23.2110404
20
147.9489513
40
0.6343885
50
185.1411642
51
193.0079639
0
ARC
8
DEFAULT_255_1_234
10
22.9466877
20
147.8864641
40
0.3627568
50
192.7897626
51
205.2507664
0
ARC
8
DEFAULT_255_1_234
10
22.8420424
20
147.8397415
40
0.2481908
50
205.8005384
51
211.2537509
0
ARC
8
DEFAULT_255_1_234
10
22.7896864
20
147.804658
40
0.1852521
50
210.3789793
51
238.4008143
0
ARC
8
DEFAULT_255_1_234
10
22.7877386
20
147.8093376
40
0.1882621
50
239.6520629
51
265.9793761
0
ARC
8
DEFAULT_255_1_234
10
22.7962586
20
147.8765427
40
0.2559272
50
265.1315437
51
270.060332
0
ARC
8
DEFAULT_255_1_234
10
22.7991365
20
147.8441534
40
0.2235528
50
269.3314664
51
287.2178029
0
ARC
8
DEFAULT_255_1_234
10
22.8129217
20
147.7938279
40
0.1714108
50
287.7958004
51
329.080874
0
ARC
8
DEFAULT_255_1_234
10
22.7171674
20
147.853593
40
0.2842745
50
328.6634704
51
343.3325132
0
ARC
8
DEFAULT_255_1_234
10
22.4998694
20
147.9212863
40
0.5118644
50
343.0499468
51
351.9393422
0
ARC
8
DEFAULT_255_1_234
10
22.1531994
20
147.9723949
40
0.8622784
50
351.8069023
51
357.7959224
0
ARC
8
DEFAULT_255_1_234
10
21.829655
20
147.9891721
40
1.1862365
50
357.5871873
51
359.2677531
0
LINE
8
DEFAULT_255_1_234
10
23.4479021
20
148.6848211
11
23.7804161
21
147.7202093
0
LINE
8
DEFAULT_255_1_234
10
23.7804161
20
147.7202093
11
24.1145364
21
148.6848211
0
LINE
8
DEFAULT_255_1_234
10
24.1145364
20
148.6848211
11
24.2832029
21
148.6848211
0
LINE
8
DEFAULT_255_1_234
10
24.2832029
20
148.6848211
11
23.849489
21
147.5154
0
LINE
8
DEFAULT_255_1_234
10
23.849489
20
147.5154
11
23.7129495
21
147.5154
0
LINE
8
DEFAULT_255_1_234
10
23.7129495
20
147.5154
11
23.2800388
21
148.6848211
0
LINE
8
DEFAULT_255_1_234
10
23.2800388
20
148.6848211
11
23.4479021
21
148.6848211
0
ENDSEC
0
EOF