0
SECTION
2
HEADER
9
$MEASUREMENT
70
1
0
ENDSEC
0
SECTION
2
TABLES
0
TABLE
2
LTYPE
0
LTYPE
72
65
70
64
2
CONTINUOUS
3
______
73
0
40
0
0
ENDTAB
0
TABLE
2
LAYER
0
LAYER
2
DEFAULT_255_2_778
70
0
62
255
6
CONTINUOUS
0
ENDTAB
0
ENDSEC
0
SECTION
2
ENTITIES
0
LINE
8
DEFAULT_255_2_778
10
0.2490155
20
72.6955864
11
67.7490155
21
72.6955864
0
LINE
8
DEFAULT_255_2_778
10
67.7490155
20
66.6929864
11
0.3429155
21
66.6929864
0
LINE
8
DEFAULT_255_2_778
10
0.3429155
20
75.7676864
11
67.7490155
21
75.7676864
0
LINE
8
DEFAULT_255_2_778
10
67.7490155
20
75.7676864
11
67.7490155
21
-0.2323136
0
LINE
8
DEFAULT_255_2_778
10
67.7490155
20
-0.2323136
11
0.3429155
21
-0.2323136
0
LINE
8
DEFAULT_255_2_778
10
0.3429155
20
-0.2323136
11
0.3429155
21
75.7676864
0
LINE
8
DEFAULT_255_2_778
10
0.3429155
20
11.8199864
11
67.7490155
21
11.8199864
0
LINE
8
DEFAULT_255_2_778
10
14.1432943
20
64.5189217
11
52.7750943
21
64.5663217
0
LINE
8
DEFAULT_255_2_778
10
52.7750943
20
64.5663217
11
52.7750943
21
52.6558217
0
LINE
8
DEFAULT_255_2_778
10
52.7750943
20
52.6558217
11
14.1432943
21
52.6085217
0
LINE
8
DEFAULT_255_2_778
10
14.1432943
20
52.6085217
11
14.1432943
21
64.5189217
0
LINE
8
DEFAULT_255_2_778
10
41.9785313
20
55.2082572
11
41.6031313
21
54.8301572
0
LINE
8
DEFAULT_255_2_778
10
41.6031313
20
54.8301572
11
41.8846313
21
54.4520572
0
LINE
8
DEFAULT_255_2_778
10
41.8846313
20
54.4520572
11
42.2601313
21
54.8301572
0
LINE
8
DEFAULT_255_2_778
10
42.2601313
20
54.8301572
11
41.9785313
21
55.2082572
0
LINE
8
DEFAULT_255_2_778
10
43.3867313
20
57.6878572
11
43.0485313
21
55.7574572
0
LINE
8
DEFAULT_255_2_778
10
43.0485313
20
55.7574572
11
42.6215313
21
55.3024572
0
LINE
8
DEFAULT_255_2_778
10
42.6215313
20
55.3024572
11
42.3296313
21
55.6196572
0
LINE
8
DEFAULT_255_2_778
10
42.3296313
20
55.6196572
11
42.7128313
21
57.8072572
0
LINE
8
DEFAULT_255_2_778
10
42.7128313
20
57.8072572
11
43.1173313
21
58.1334572
0
LINE
8
DEFAULT_255_2_778
10
43.1173313
20
58.1334572
11
43.3867313
21
57.6878572
0
LINE
8
DEFAULT_255_2_778
10
43.3867313
20
55.1134572
11
44.7948313
21
55.1134572
0
LINE
8
DEFAULT_255_2_778
10
44.7948313
20
55.1134572
11
45.1702313
21
54.8298572
0
LINE
8
DEFAULT_255_2_778
10
45.1702313
20
54.8298572
11
44.9824313
21
54.5462572
0
LINE
8
DEFAULT_255_2_778
10
44.9824313
20
54.5462572
11
43.3864313
21
54.5462572
0
LINE
8
DEFAULT_255_2_778
10
43.3864313
20
54.5462572
11
43.1049313
21
54.8298572
0
LINE
8
DEFAULT_255_2_778
10
43.1049313
20
54.8298572
11
43.3867313
21
55.1134572
0
LINE
8
DEFAULT_255_2_778
10
43.8560313
20
58.9891572
11
45.2641313
21
58.9891572
0
LINE
8
DEFAULT_255_2_778
10
45.2641313
20
58.9891572
11
45.6396313
21
58.7054572
0
LINE
8
DEFAULT_255_2_778
10
45.6396313
20
58.7054572
11
45.4517313
21
58.4218572
0
LINE
8
DEFAULT_255_2_778
10
45.4517313
20
58.4218572
11
43.8558313
21
58.4218572
0
LINE
8
DEFAULT_255_2_778
10
43.8558313
20
58.4218572
11
43.5742313
21
58.7054572
0
LINE
8
DEFAULT_255_2_778
10
43.5742313
20
58.7054572
11
43.8560313
21
58.9891572
0
LINE
8
DEFAULT_255_2_778
10
43.9500313
20
61.4687572
11
43.6118313
21
59.5383572
0
LINE
8
DEFAULT_255_2_778
10
43.6118313
20
59.5383572
11
43.1848313
21
59.0833572
0
LINE
8
DEFAULT_255_2_778
10
43.1848313
20
59.0833572
11
42.8929313
21
59.4005572
0
LINE
8
DEFAULT_255_2_778
10
42.8929313
20
59.4005572
11
43.2761313
21
61.5881572
0
LINE
8
DEFAULT_255_2_778
10
43.2761313
20
61.5881572
11
43.6806313
21
61.9143572
0
LINE
8
DEFAULT_255_2_778
10
43.6806313
20
61.9143572
11
43.9500313
21
61.4687572
0
LINE
8
DEFAULT_255_2_778
10
46.3907313
20
57.6876572
11
46.0526313
21
55.7572572
0
LINE
8
DEFAULT_255_2_778
10
46.0526313
20
55.7572572
11
45.6256313
21
55.3024572
0
LINE
8
DEFAULT_255_2_778
10
45.6256313
20
55.3024572
11
45.3337313
21
55.6196572
0
LINE
8
DEFAULT_255_2_778
10
45.3337313
20
55.6196572
11
45.7168313
21
57.8072572
0
LINE
8
DEFAULT_255_2_778
10
45.7168313
20
57.8072572
11
46.1214313
21
58.1334572
0
LINE
8
DEFAULT_255_2_778
10
46.1214313
20
58.1334572
11
46.3907313
21
57.6876572
0
LINE
8
DEFAULT_255_2_778
10
46.9450313
20
61.4283572
11
46.6069313
21
59.4979572
0
LINE
8
DEFAULT_255_2_778
10
46.6069313
20
59.4979572
11
46.1799313
21
59.0430572
0
LINE
8
DEFAULT_255_2_778
10
46.1799313
20
59.0430572
11
45.8880313
21
59.3603572
0
LINE
8
DEFAULT_255_2_778
10
45.8880313
20
59.3603572
11
46.2711313
21
61.5478572
0
LINE
8
DEFAULT_255_2_778
10
46.2711313
20
61.5478572
11
46.6757313
21
61.8741572
0
LINE
8
DEFAULT_255_2_778
10
46.6757313
20
61.8741572
11
46.9450313
21
61.4283572
0
LINE
8
DEFAULT_255_2_778
10
44.3254313
20
62.6755572
11
45.7335313
21
62.6755572
0
LINE
8
DEFAULT_255_2_778
10
45.7335313
20
62.6755572
11
46.1090313
21
62.3919572
0
LINE
8
DEFAULT_255_2_778
10
46.1090313
20
62.3919572
11
45.9211313
21
62.1082572
0
LINE
8
DEFAULT_255_2_778
10
45.9211313
20
62.1082572
11
44.3251313
21
62.1082572
0
LINE
8
DEFAULT_255_2_778
10
44.3251313
20
62.1082572
11
44.0436313
21
62.3919572
0
LINE
8
DEFAULT_255_2_778
10
44.0436313
20
62.3919572
11
44.3254313
21
62.6755572
0
LINE
8
DEFAULT_255_2_778
10
36.4955313
20
55.1609572
11
36.1201313
21
54.7828572
0
LINE
8
DEFAULT_255_2_778
10
36.1201313
20
54.7828572
11
36.4016313
21
54.4047572
0
LINE
8
DEFAULT_255_2_778
10
36.4016313
20
54.4047572
11
36.7771313
21
54.7828572
0
LINE
8
DEFAULT_255_2_778
10
36.7771313
20
54.7828572
11
36.4955313
21
55.1609572
0
LINE
8
DEFAULT_255_2_778
10
37.9037313
20
57.6405572
11
37.5655313
21
55.7101572
0
LINE
8
DEFAULT_255_2_778
10
37.5655313
20
55.7101572
11
37.1385313
21
55.2551572
0
LINE
8
DEFAULT_255_2_778
10
37.1385313
20
55.2551572
11
36.8466313
21
55.5723572
0
LINE
8
DEFAULT_255_2_778
10
36.8466313
20
55.5723572
11
37.2298313
21
57.7599572
0
LINE
8
DEFAULT_255_2_778
10
37.2298313
20
57.7599572
11
37.6343313
21
58.0861572
0
LINE
8
DEFAULT_255_2_778
10
37.6343313
20
58.0861572
11
37.9037313
21
57.6405572
0
LINE
8
DEFAULT_255_2_778
10
37.9037313
20
55.0661572
11
39.3118313
21
55.0661572
0
LINE
8
DEFAULT_255_2_778
10
39.3118313
20
55.0661572
11
39.6872313
21
54.7825572
0
LINE
8
DEFAULT_255_2_778
10
39.6872313
20
54.7825572
11
39.4994313
21
54.4989572
0
LINE
8
DEFAULT_255_2_778
10
39.4994313
20
54.4989572
11
37.9034313
21
54.4989572
0
LINE
8
DEFAULT_255_2_778
10
37.9034313
20
54.4989572
11
37.6219313
21
54.7825572
0
LINE
8
DEFAULT_255_2_778
10
37.6219313
20
54.7825572
11
37.9037313
21
55.0661572
0
LINE
8
DEFAULT_255_2_778
10
38.3730313
20
58.9418572
11
39.7811313
21
58.9418572
0
LINE
8
DEFAULT_255_2_778
10
39.7811313
20
58.9418572
11
40.1566313
21
58.6581572
0
LINE
8
DEFAULT_255_2_778
10
40.1566313
20
58.6581572
11
39.9687313
21
58.3745572
0
LINE
8
DEFAULT_255_2_778
10
39.9687313
20
58.3745572
11
38.3728313
21
58.3745572
0
LINE
8
DEFAULT_255_2_778
10
38.3728313
20
58.3745572
11
38.0912313
21
58.6581572
0
LINE
8
DEFAULT_255_2_778
10
38.0912313
20
58.6581572
11
38.3730313
21
58.9418572
0
LINE
8
DEFAULT_255_2_778
10
38.4670313
20
61.4214572
11
38.1288313
21
59.4910572
0
LINE
8
DEFAULT_255_2_778
10
38.1288313
20
59.4910572
11
37.7018313
21
59.0360572
0
LINE
8
DEFAULT_255_2_778
10
37.7018313
20
59.0360572
11
37.4099313
21
59.3532572
0
LINE
8
DEFAULT_255_2_778
10
37.4099313
20
59.3532572
11
37.7931313
21
61.5408572
0
LINE
8
DEFAULT_255_2_778
10
37.7931313
20
61.5408572
11
38.1976313
21
61.8670572
0
LINE
8
DEFAULT_255_2_778
10
38.1976313
20
61.8670572
11
38.4670313
21
61.4214572
0
LINE
8
DEFAULT_255_2_778
10
40.9077313
20
57.6403572
11
40.5696313
21
55.7099572
0
LINE
8
DEFAULT_255_2_778
10
40.5696313
20
55.7099572
11
40.1426313
21
55.2551572
0
LINE
8
DEFAULT_255_2_778
10
40.1426313
20
55.2551572
11
39.8507313
21
55.5723572
0
LINE
8
DEFAULT_255_2_778
10
39.8507313
20
55.5723572
11
40.2338313
21
57.7599572
0
LINE
8
DEFAULT_255_2_778
10
40.2338313
20
57.7599572
11
40.6384313
21
58.0861572
0
LINE
8
DEFAULT_255_2_778
10
40.6384313
20
58.0861572
11
40.9077313
21
57.6403572
0
LINE
8
DEFAULT_255_2_778
10
41.4620313
20
61.3810572
11
41.1239313
21
59.4506572
0
LINE
8
DEFAULT_255_2_778
10
41.1239313
20
59.4506572
11
40.6969313
21
58.9957572
0
LINE
8
DEFAULT_255_2_778
10
40.6969313
20
58.9957572
11
40.4050313
21
59.3130572
0
LINE
8
DEFAULT_255_2_778
10
40.4050313
20
59.3130572
11
40.7881313
21
61.5005572
0
LINE
8
DEFAULT_255_2_778
10
40.7881313
20
61.5005572
11
41.1927313
21
61.8268572
0
LINE
8
DEFAULT_255_2_778
10
41.1927313
20
61.8268572
11
41.4620313
21
61.3810572
0
LINE
8
DEFAULT_255_2_778
10
38.8424313
20
62.6282572
11
40.2505313
21
62.6282572
0
LINE
8
DEFAULT_255_2_778
10
40.2505313
20
62.6282572
11
40.6260313
21
62.3446572
0
LINE
8
DEFAULT_255_2_778
10
40.6260313
20
62.3446572
11
40.4381313
21
62.0609572
0
LINE
8
DEFAULT_255_2_778
10
40.4381313
20
62.0609572
11
38.8421313
21
62.0609572
0
LINE
8
DEFAULT_255_2_778
10
38.8421313
20
62.0609572
11
38.5606313
21
62.3446572
0
LINE
8
DEFAULT_255_2_778
10
38.5606313
20
62.3446572
11
38.8424313
21
62.6282572
0
LINE
8
DEFAULT_255_2_778
10
30.6278313
20
55.1609572
11
30.2524313
21
54.7828572
0
LINE
8
DEFAULT_255_2_778
10
30.2524313
20
54.7828572
11
30.5339313
21
54.4047572
0
LINE
8
DEFAULT_255_2_778
10
30.5339313
20
54.4047572
11
30.9094313
21
54.7828572
0
LINE
8
DEFAULT_255_2_778
10
30.9094313
20
54.7828572
11
30.6278313
21
55.1609572
0
LINE
8
DEFAULT_255_2_778
10
32.0360313
20
57.6405572
11
31.6978313
21
55.7101572
0
LINE
8
DEFAULT_255_2_778
10
31.6978313
20
55.7101572
11
31.2708313
21
55.2551572
0
LINE
8
DEFAULT_255_2_778
10
31.2708313
20
55.2551572
11
30.9789313
21
55.5723572
0
LINE
8
DEFAULT_255_2_778
10
30.9789313
20
55.5723572
11
31.3621313
21
57.7599572
0
LINE
8
DEFAULT_255_2_778
10
31.3621313
20
57.7599572
11
31.7666313
21
58.0861572
0
LINE
8
DEFAULT_255_2_778
10
31.7666313
20
58.0861572
11
32.0360313
21
57.6405572
0
LINE
8
DEFAULT_255_2_778
10
32.0360313
20
55.0661572
11
33.4441313
21
55.0661572
0
LINE
8
DEFAULT_255_2_778
10
33.4441313
20
55.0661572
11
33.8195313
21
54.7825572
0
LINE
8
DEFAULT_255_2_778
10
33.8195313
20
54.7825572
11
33.6317313
21
54.4989572
0
LINE
8
DEFAULT_255_2_778
10
33.6317313
20
54.4989572
11
32.0357313
21
54.4989572
0
LINE
8
DEFAULT_255_2_778
10
32.0357313
20
54.4989572
11
31.7542313
21
54.7825572
0
LINE
8
DEFAULT_255_2_778
10
31.7542313
20
54.7825572
11
32.0360313
21
55.0661572
0
LINE
8
DEFAULT_255_2_778
10
32.5053313
20
58.9418572
11
33.9134313
21
58.9418572
0
LINE
8
DEFAULT_255_2_778
10
33.9134313
20
58.9418572
11
34.2889313
21
58.6581572
0
LINE
8
DEFAULT_255_2_778
10
34.2889313
20
58.6581572
11
34.1010313
21
58.3745572
0
LINE
8
DEFAULT_255_2_778
10
34.1010313
20
58.3745572
11
32.5051313
21
58.3745572
0
LINE
8
DEFAULT_255_2_778
10
32.5051313
20
58.3745572
11
32.2235313
21
58.6581572
0
LINE
8
DEFAULT_255_2_778
10
32.2235313
20
58.6581572
11
32.5053313
21
58.9418572
0
LINE
8
DEFAULT_255_2_778
10
32.5993313
20
61.4214572
11
32.2611313
21
59.4910572
0
LINE
8
DEFAULT_255_2_778
10
32.2611313
20
59.4910572
11
31.8341313
21
59.0360572
0
LINE
8
DEFAULT_255_2_778
10
31.8341313
20
59.0360572
11
31.5422313
21
59.3532572
0
LINE
8
DEFAULT_255_2_778
10
31.5422313
20
59.3532572
11
31.9254313
21
61.5408572
0
LINE
8
DEFAULT_255_2_778
10
31.9254313
20
61.5408572
11
32.3299313
21
61.8670572
0
LINE
8
DEFAULT_255_2_778
10
32.3299313
20
61.8670572
11
32.5993313
21
61.4214572
0
LINE
8
DEFAULT_255_2_778
10
35.0400313
20
57.6403572
11
34.7019313
21
55.7099572
0
LINE
8
DEFAULT_255_2_778
10
34.7019313
20
55.7099572
11
34.2749313
21
55.2551572
0
LINE
8
DEFAULT_255_2_778
10
34.2749313
20
55.2551572
11
33.9830313
21
55.5723572
0
LINE
8
DEFAULT_255_2_778
10
33.9830313
20
55.5723572
11
34.3661313
21
57.7599572
0
LINE
8
DEFAULT_255_2_778
10
34.3661313
20
57.7599572
11
34.7707313
21
58.0861572
0
LINE
8
DEFAULT_255_2_778
10
34.7707313
20
58.0861572
11
35.0400313
21
57.6403572
0
LINE
8
DEFAULT_255_2_778
10
35.5943313
20
61.3810572
11
35.2562313
21
59.4506572
0
LINE
8
DEFAULT_255_2_778
10
35.2562313
20
59.4506572
11
34.8292313
21
58.9957572
0
LINE
8
DEFAULT_255_2_778
10
34.8292313
20
58.9957572
11
34.5373313
21
59.3130572
0
LINE
8
DEFAULT_255_2_778
10
34.5373313
20
59.3130572
11
34.9204313
21
61.5005572
0
LINE
8
DEFAULT_255_2_778
10
34.9204313
20
61.5005572
11
35.3250313
21
61.8268572
0
LINE
8
DEFAULT_255_2_778
10
35.3250313
20
61.8268572
11
35.5943313
21
61.3810572
0
LINE
8
DEFAULT_255_2_778
10
32.9747313
20
62.6282572
11
34.3828313
21
62.6282572
0
LINE
8
DEFAULT_255_2_778
10
34.3828313
20
62.6282572
11
34.7583313
21
62.3446572
0
LINE
8
DEFAULT_255_2_778
10
34.7583313
20
62.3446572
11
34.5704313
21
62.0609572
0
LINE
8
DEFAULT_255_2_778
10
34.5704313
20
62.0609572
11
32.9744313
21
62.0609572
0
LINE
8
DEFAULT_255_2_778
10
32.9744313
20
62.0609572
11
32.6929313
21
62.3446572
0
LINE
8
DEFAULT_255_2_778
10
32.6929313
20
62.3446572
11
32.9747313
21
62.6282572
0
LINE
8
DEFAULT_255_2_778
10
25.0423198
20
54.7827896
11
24.6668198
21
54.4046896
0
LINE
8
DEFAULT_255_2_778
10
24.6668198
20
54.4046896
11
24.3853198
21
54.7827896
0
LINE
8
DEFAULT_255_2_778
10
24.3853198
20
54.7827896
11
24.7607198
21
55.1608896
0
LINE
8
DEFAULT_255_2_778
10
24.7607198
20
55.1608896
11
25.0423198
21
54.7827896
0
LINE
8
DEFAULT_255_2_778
10
26.8259042
20
62.3448613
11
27.1074042
21
62.0611613
0
LINE
8
DEFAULT_255_2_778
10
27.1074042
20
62.0611613
11
28.7034042
21
62.0611613
0
LINE
8
DEFAULT_255_2_778
10
28.7034042
20
62.0611613
11
28.8912042
21
62.3448613
0
LINE
8
DEFAULT_255_2_778
10
28.8912042
20
62.3448613
11
28.5158042
21
62.6284613
0
LINE
8
DEFAULT_255_2_778
10
28.5158042
20
62.6284613
11
27.1077042
21
62.6284613
0
LINE
8
DEFAULT_255_2_778
10
27.1077042
20
62.6284613
11
26.8259042
21
62.3448613
0
LINE
8
DEFAULT_255_2_778
10
29.4579042
20
61.8270613
11
29.0534042
21
61.5007613
0
LINE
8
DEFAULT_255_2_778
10
29.0534042
20
61.5007613
11
28.6703042
21
59.3132613
0
LINE
8
DEFAULT_255_2_778
10
28.6703042
20
59.3132613
11
28.9621042
21
58.9959613
0
LINE
8
DEFAULT_255_2_778
10
28.9621042
20
58.9959613
11
29.3892042
21
59.4508613
0
LINE
8
DEFAULT_255_2_778
10
29.3892042
20
59.4508613
11
29.7273042
21
61.3812613
0
LINE
8
DEFAULT_255_2_778
10
29.7273042
20
61.3812613
11
29.4579042
21
61.8270613
0
LINE
8
DEFAULT_255_2_778
10
28.9036042
20
58.0863613
11
28.4991042
21
57.7601613
0
LINE
8
DEFAULT_255_2_778
10
28.4991042
20
57.7601613
11
28.1160042
21
55.5725613
0
LINE
8
DEFAULT_255_2_778
10
28.1160042
20
55.5725613
11
28.4078042
21
55.2553613
0
LINE
8
DEFAULT_255_2_778
10
28.4078042
20
55.2553613
11
28.8349042
21
55.7101613
0
LINE
8
DEFAULT_255_2_778
10
28.8349042
20
55.7101613
11
29.1730042
21
57.6405613
0
LINE
8
DEFAULT_255_2_778
10
29.1730042
20
57.6405613
11
28.9036042
21
58.0863613
0
LINE
8
DEFAULT_255_2_778
10
26.4629042
20
61.8675613
11
26.0583042
21
61.5412613
0
LINE
8
DEFAULT_255_2_778
10
26.0583042
20
61.5412613
11
25.6752042
21
59.3537613
0
LINE
8
DEFAULT_255_2_778
10
25.6752042
20
59.3537613
11
25.9670042
21
59.0364613
0
LINE
8
DEFAULT_255_2_778
10
25.9670042
20
59.0364613
11
26.3941042
21
59.4915613
0
LINE
8
DEFAULT_255_2_778
10
26.3941042
20
59.4915613
11
26.7322042
21
61.4219613
0
LINE
8
DEFAULT_255_2_778
10
26.7322042
20
61.4219613
11
26.4629042
21
61.8675613
0
LINE
8
DEFAULT_255_2_778
10
26.3565042
20
58.6583613
11
26.6380042
21
58.3747613
0
LINE
8
DEFAULT_255_2_778
10
26.6380042
20
58.3747613
11
28.2340042
21
58.3747613
0
LINE
8
DEFAULT_255_2_778
10
28.2340042
20
58.3747613
11
28.4218042
21
58.6583613
0
LINE
8
DEFAULT_255_2_778
10
28.4218042
20
58.6583613
11
28.0464042
21
58.9420613
0
LINE
8
DEFAULT_255_2_778
10
28.0464042
20
58.9420613
11
26.6383042
21
58.9420613
0
LINE
8
DEFAULT_255_2_778
10
26.6383042
20
58.9420613
11
26.3565042
21
58.6583613
0
LINE
8
DEFAULT_255_2_778
10
25.8871042
20
54.7827613
11
26.1686042
21
54.4991613
0
LINE
8
DEFAULT_255_2_778
10
26.1686042
20
54.4991613
11
27.7646042
21
54.4991613
0
LINE
8
DEFAULT_255_2_778
10
27.7646042
20
54.4991613
11
27.9525042
21
54.7827613
0
LINE
8
DEFAULT_255_2_778
10
27.9525042
20
54.7827613
11
27.5770042
21
55.0663613
0
LINE
8
DEFAULT_255_2_778
10
27.5770042
20
55.0663613
11
26.1689042
21
55.0663613
0
LINE
8
DEFAULT_255_2_778
10
26.1689042
20
55.0663613
11
25.8871042
21
54.7827613
0
LINE
8
DEFAULT_255_2_778
10
25.8996042
20
58.0866613
11
25.4950042
21
57.7603613
0
LINE
8
DEFAULT_255_2_778
10
25.4950042
20
57.7603613
11
25.1119042
21
55.5728613
0
LINE
8
DEFAULT_255_2_778
10
25.1119042
20
55.5728613
11
25.4037042
21
55.2555613
0
LINE
8
DEFAULT_255_2_778
10
25.4037042
20
55.2555613
11
25.8308042
21
55.7106613
0
LINE
8
DEFAULT_255_2_778
10
25.8308042
20
55.7106613
11
26.1689042
21
57.6410613
0
LINE
8
DEFAULT_255_2_778
10
26.1689042
20
57.6410613
11
25.8996042
21
58.0866613
0
LINE
8
DEFAULT_255_2_778
10
21.1931042
20
62.3448613
11
21.4746042
21
62.0611613
0
LINE
8
DEFAULT_255_2_778
10
21.4746042
20
62.0611613
11
23.0706042
21
62.0611613
0
LINE
8
DEFAULT_255_2_778
10
23.0706042
20
62.0611613
11
23.2584042
21
62.3448613
0
LINE
8
DEFAULT_255_2_778
10
23.2584042
20
62.3448613
11
22.8830042
21
62.6284613
0
LINE
8
DEFAULT_255_2_778
10
22.8830042
20
62.6284613
11
21.4749042
21
62.6284613
0
LINE
8
DEFAULT_255_2_778
10
21.4749042
20
62.6284613
11
21.1931042
21
62.3448613
0
LINE
8
DEFAULT_255_2_778
10
23.8251042
20
61.8270613
11
23.4206042
21
61.5007613
0
LINE
8
DEFAULT_255_2_778
10
23.4206042
20
61.5007613
11
23.0375042
21
59.3132613
0
LINE
8
DEFAULT_255_2_778
10
23.0375042
20
59.3132613
11
23.3293042
21
58.9959613
0
LINE
8
DEFAULT_255_2_778
10
23.3293042
20
58.9959613
11
23.7564042
21
59.4508613
0
LINE
8
DEFAULT_255_2_778
10
23.7564042
20
59.4508613
11
24.0945042
21
61.3812613
0
LINE
8
DEFAULT_255_2_778
10
24.0945042
20
61.3812613
11
23.8251042
21
61.8270613
0
LINE
8
DEFAULT_255_2_778
10
23.2708042
20
58.0863613
11
22.8663042
21
57.7601613
0
LINE
8
DEFAULT_255_2_778
10
22.8663042
20
57.7601613
11
22.4832042
21
55.5725613
0
LINE
8
DEFAULT_255_2_778
10
22.4832042
20
55.5725613
11
22.7750042
21
55.2553613
0
LINE
8
DEFAULT_255_2_778
10
22.7750042
20
55.2553613
11
23.2021042
21
55.7101613
0
LINE
8
DEFAULT_255_2_778
10
23.2021042
20
55.7101613
11
23.5402042
21
57.6405613
0
LINE
8
DEFAULT_255_2_778
10
23.5402042
20
57.6405613
11
23.2708042
21
58.0863613
0
LINE
8
DEFAULT_255_2_778
10
20.8301042
20
61.8675613
11
20.4255042
21
61.5412613
0
LINE
8
DEFAULT_255_2_778
10
20.4255042
20
61.5412613
11
20.0424042
21
59.3537613
0
LINE
8
DEFAULT_255_2_778
10
20.0424042
20
59.3537613
11
20.3342042
21
59.0364613
0
LINE
8
DEFAULT_255_2_778
10
20.3342042
20
59.0364613
11
20.7613042
21
59.4915613
0
LINE
8
DEFAULT_255_2_778
10
20.7613042
20
59.4915613
11
21.0994042
21
61.4219613
0
LINE
8
DEFAULT_255_2_778
10
21.0994042
20
61.4219613
11
20.8301042
21
61.8675613
0
LINE
8
DEFAULT_255_2_778
10
20.7237042
20
58.6583613
11
21.0052042
21
58.3747613
0
LINE
8
DEFAULT_255_2_778
10
21.0052042
20
58.3747613
11
22.6012042
21
58.3747613
0
LINE
8
DEFAULT_255_2_778
10
22.6012042
20
58.3747613
11
22.7890042
21
58.6583613
0
LINE
8
DEFAULT_255_2_778
10
22.7890042
20
58.6583613
11
22.4136042
21
58.9420613
0
LINE
8
DEFAULT_255_2_778
10
22.4136042
20
58.9420613
11
21.0055042
21
58.9420613
0
LINE
8
DEFAULT_255_2_778
10
21.0055042
20
58.9420613
11
20.7237042
21
58.6583613
0
LINE
8
DEFAULT_255_2_778
10
20.2543042
20
54.7827613
11
20.5358042
21
54.4991613
0
LINE
8
DEFAULT_255_2_778
10
20.5358042
20
54.4991613
11
22.1318042
21
54.4991613
0
LINE
8
DEFAULT_255_2_778
10
22.1318042
20
54.4991613
11
22.3197042
21
54.7827613
0
LINE
8
DEFAULT_255_2_778
10
22.3197042
20
54.7827613
11
21.9442042
21
55.0663613
0
LINE
8
DEFAULT_255_2_778
10
21.9442042
20
55.0663613
11
20.5361042
21
55.0663613
0
LINE
8
DEFAULT_255_2_778
10
20.5361042
20
55.0663613
11
20.2543042
21
54.7827613
0
LINE
8
DEFAULT_255_2_778
10
20.2668042
20
58.0866613
11
19.8622042
21
57.7603613
0
LINE
8
DEFAULT_255_2_778
10
19.8622042
20
57.7603613
11
19.4791042
21
55.5728613
0
LINE
8
DEFAULT_255_2_778
10
19.4791042
20
55.5728613
11
19.7709042
21
55.2555613
0
LINE
8
DEFAULT_255_2_778
10
19.7709042
20
55.2555613
11
20.1980042
21
55.7106613
0
LINE
8
DEFAULT_255_2_778
10
20.1980042
20
55.7106613
11
20.5361042
21
57.6410613
0
LINE
8
DEFAULT_255_2_778
10
20.5361042
20
57.6410613
11
20.2668042
21
58.0866613
0
LINE
8
DEFAULT_255_2_778
10
16.5372386
20
60.737751
11
16.5372386
21
59.319851
0
LINE
8
DEFAULT_255_2_778
10
16.5372386
20
59.319851
11
15.3167386
21
59.981551
0
LINE
8
DEFAULT_255_2_778
10
15.3167386
20
59.981551
11
16.5372386
21
60.737751
0
LINE
8
DEFAULT_255_2_778
10
17.241324
20
60.7377708
11
17.992524
21
60.7377708
0
LINE
8
DEFAULT_255_2_778
10
17.992524
20
60.7377708
11
17.992524
21
59.3672708
0
LINE
8
DEFAULT_255_2_778
10
17.992524
20
59.3672708
11
17.241324
21
59.3672708
0
LINE
8
DEFAULT_255_2_778
10
17.241324
20
59.3672708
11
17.241324
21
60.7377708
0
LINE
8
DEFAULT_255_2_778
10
16.5372386
20
57.901951
11
16.5372386
21
56.484051
0
LINE
8
DEFAULT_255_2_778
10
16.5372386
20
56.484051
11
15.3167386
21
57.145751
0
LINE
8
DEFAULT_255_2_778
10
15.3167386
20
57.145751
11
16.5372386
21
57.901951
0
LINE
8
DEFAULT_255_2_778
10
17.241324
20
57.9019708
11
17.992524
21
57.9019708
0
LINE
8
DEFAULT_255_2_778
10
17.992524
20
57.9019708
11
17.992524
21
56.5314708
0
LINE
8
DEFAULT_255_2_778
10
17.992524
20
56.5314708
11
17.241324
21
56.5314708
0
LINE
8
DEFAULT_255_2_778
10
17.241324
20
56.5314708
11
17.241324
21
57.9019708
0
LINE
8
DEFAULT_255_2_778
10
16.5372386
20
54.829851
11
16.5372386
21
53.411951
0
LINE
8
DEFAULT_255_2_778
10
16.5372386
20
53.411951
11
15.3167386
21
54.073651
0
LINE
8
DEFAULT_255_2_778
10
15.3167386
20
54.073651
11
16.5372386
21
54.829851
0
LINE
8
DEFAULT_255_2_778
10
17.241324
20
54.8298708
11
17.992524
21
54.8298708
0
LINE
8
DEFAULT_255_2_778
10
17.992524
20
54.8298708
11
17.992524
21
53.4593708
0
LINE
8
DEFAULT_255_2_778
10
17.992524
20
53.4593708
11
17.241324
21
53.4593708
0
LINE
8
DEFAULT_255_2_778
10
17.241324
20
53.4593708
11
17.241324
21
54.8298708
0
LINE
8
DEFAULT_255_2_778
10
16.5372386
20
63.857251
11
16.5372386
21
62.439351
0
LINE
8
DEFAULT_255_2_778
10
16.5372386
20
62.439351
11
15.3167386
21
63.101051
0
LINE
8
DEFAULT_255_2_778
10
15.3167386
20
63.101051
11
16.5372386
21
63.857251
0
LINE
8
DEFAULT_255_2_778
10
17.241324
20
63.8571708
11
17.992524
21
63.8571708
0
LINE
8
DEFAULT_255_2_778
10
17.992524
20
63.8571708
11
17.992524
21
62.4866708
0
LINE
8
DEFAULT_255_2_778
10
17.992524
20
62.4866708
11
17.241324
21
62.4866708
0
LINE
8
DEFAULT_255_2_778
10
17.241324
20
62.4866708
11
17.241324
21
63.8571708
0
LINE
8
DEFAULT_255_2_778
10
50.3343386
20
63.857251
11
50.3343386
21
62.439351
0
LINE
8
DEFAULT_255_2_778
10
50.3343386
20
62.439351
11
51.5548386
21
63.101051
0
LINE
8
DEFAULT_255_2_778
10
51.5548386
20
63.101051
11
50.3343386
21
63.857251
0
LINE
8
DEFAULT_255_2_778
10
49.630324
20
63.8571708
11
48.879124
21
63.8571708
0
LINE
8
DEFAULT_255_2_778
10
48.879124
20
63.8571708
11
48.879124
21
62.4866708
0
LINE
8
DEFAULT_255_2_778
10
48.879124
20
62.4866708
11
49.630324
21
62.4866708
0
LINE
8
DEFAULT_255_2_778
10
49.630324
20
62.4866708
11
49.630324
21
63.8571708
0
LINE
8
DEFAULT_255_2_778
10
50.3343386
20
60.974051
11
50.3343386
21
59.556151
0
LINE
8
DEFAULT_255_2_778
10
50.3343386
20
59.556151
11
51.5548386
21
60.217851
0
LINE
8
DEFAULT_255_2_778
10
51.5548386
20
60.217851
11
50.3343386
21
60.974051
0
LINE
8
DEFAULT_255_2_778
10
49.630324
20
60.9740708
11
48.879124
21
60.9740708
0
LINE
8
DEFAULT_255_2_778
10
48.879124
20
60.9740708
11
48.879124
21
59.6035708
0
LINE
8
DEFAULT_255_2_778
10
48.879124
20
59.6035708
11
49.630324
21
59.6035708
0
LINE
8
DEFAULT_255_2_778
10
49.630324
20
59.6035708
11
49.630324
21
60.9740708
0
LINE
8
DEFAULT_255_2_778
10
50.3343386
20
58.138251
11
50.3343386
21
56.720351
0
LINE
8
DEFAULT_255_2_778
10
50.3343386
20
56.720351
11
51.5548386
21
57.382051
0
LINE
8
DEFAULT_255_2_778
10
51.5548386
20
57.382051
11
50.3343386
21
58.138251
0
LINE
8
DEFAULT_255_2_778
10
49.630324
20
58.1382708
11
48.879124
21
58.1382708
0
LINE
8
DEFAULT_255_2_778
10
48.879124
20
58.1382708
11
48.879124
21
56.7677708
0
LINE
8
DEFAULT_255_2_778
10
48.879124
20
56.7677708
11
49.630324
21
56.7677708
0
LINE
8
DEFAULT_255_2_778
10
49.630324
20
56.7677708
11
49.630324
21
58.1382708
0
LINE
8
DEFAULT_255_2_778
10
50.3343386
20
55.538751
11
50.3343386
21
54.120851
0
LINE
8
DEFAULT_255_2_778
10
50.3343386
20
54.120851
11
51.5548386
21
54.782551
0
LINE
8
DEFAULT_255_2_778
10
51.5548386
20
54.782551
11
50.3343386
21
55.538751
0
LINE
8
DEFAULT_255_2_778
10
49.630324
20
55.5386708
11
48.879124
21
55.5386708
0
LINE
8
DEFAULT_255_2_778
10
48.879124
20
55.5386708
11
48.879124
21
54.1681708
0
LINE
8
DEFAULT_255_2_778
10
48.879124
20
54.1681708
11
49.630324
21
54.1681708
0
LINE
8
DEFAULT_255_2_778
10
49.630324
20
54.1681708
11
49.630324
21
55.5386708
0
ARC
8
DEFAULT_255_2_778
10
12.9605333
20
34.247424
40
0.1784898
50
179.9899494
51
180.3537998
0
ARC
8
DEFAULT_255_2_778
10
12.969934
20
34.247593
40
0.1878905
50
135.1850584
51
180.0419842
0
ARC
8
DEFAULT_255_2_778
10
12.9699054
20
34.2477909
40
0.1877307
50
89.9873309
51
135.2217671
0
ARC
8
DEFAULT_255_2_778
10
13.5331881
20
34.2477907
40
0.1877312
50
44.7782225
51
90.0125738
0
ARC
8
DEFAULT_255_2_778
10
13.5335648
20
34.2477564
40
0.1874882
50
0.0189585
51
44.8667391
0
ARC
8
DEFAULT_255_2_778
10
13.5343495
20
34.2477937
40
0.1867034
50
359.5483053
51
0.0075866
0
ARC
8
DEFAULT_255_2_778
10
13.5350438
20
34.0556527
40
0.1860089
50
359.9924413
51
0.4525257
0
ARC
8
DEFAULT_255_2_778
10
13.5336213
20
34.0557641
40
0.1874317
50
315.1261035
51
359.9584603
0
ARC
8
DEFAULT_255_2_778
10
13.5333608
20
34.0553381
40
0.1873165
50
269.9345801
51
315.2746483
0
ARC
8
DEFAULT_255_2_778
10
12.9697329
20
34.055338
40
0.1873163
50
224.7253426
51
270.0654459
0
ARC
8
DEFAULT_255_2_778
10
12.9698769
20
34.0559271
40
0.1878334
50
179.9806267
51
224.8221072
0
ARC
8
DEFAULT_255_2_778
10
12.9597746
20
34.056022
40
0.1777311
50
179.6454359
51
180.0101155
0
LINE
8
DEFAULT_255_2_778
10
12.9699469
20
34.4355218
11
13.5331469
21
34.4355218
0
LINE
8
DEFAULT_255_2_778
10
13.7210469
20
34.2463218
11
13.7210469
21
34.0571218
0
LINE
8
DEFAULT_255_2_778
10
13.5331469
20
33.8680218
11
12.9699469
21
33.8680218
0
LINE
8
DEFAULT_255_2_778
10
12.7820469
20
34.0571218
11
12.7820469
21
34.2463218
0
LINE
8
DEFAULT_255_2_778
10
12.2187469
20
33.8682218
11
14.2372469
21
33.8682218
0
LINE
8
DEFAULT_255_2_778
10
14.2372469
20
33.8682218
11
14.2372469
21
29.9453218
0
LINE
8
DEFAULT_255_2_778
10
14.2372469
20
29.9453218
11
12.2187469
21
29.9453218
0
LINE
8
DEFAULT_255_2_778
10
12.2187469
20
29.9453218
11
12.2187469
21
33.8682218
0
LINE
8
DEFAULT_255_2_778
10
2.3143356
20
41.8560079
11
16.2086356
21
41.8560079
0
LINE
8
DEFAULT_255_2_778
10
16.2086356
20
41.8560079
11
16.2086356
21
13.8758079
0
LINE
8
DEFAULT_255_2_778
10
16.2086356
20
13.8758079
11
2.3143356
21
13.8758079
0
LINE
8
DEFAULT_255_2_778
10
2.3143356
20
13.8758079
11
2.3143356
21
41.8560079
0
ARC
8
DEFAULT_255_2_778
10
9.0944973
20
41.9396445
40
3.9648182
50
179.9988208
51
181.208149
0
ARC
8
DEFAULT_255_2_778
10
9.1690549
20
41.9393413
40
4.0393759
50
177.4705733
51
179.9945413
0
ARC
8
DEFAULT_255_2_778
10
9.7861865
20
41.8661068
40
4.6593647
50
149.5929921
51
176.9057966
0
ARC
8
DEFAULT_255_2_778
10
9.8645209
20
41.8776743
40
4.7213304
50
126.7215662
51
150.1952233
0
ARC
8
DEFAULT_255_2_778
10
9.2118314
20
42.8085173
40
3.5851076
50
90.7123329
51
127.2555573
0
ARC
8
DEFAULT_255_2_778
10
9.1730755
20
41.9132745
40
4.4800771
50
80.5678698
51
90.0743681
0
ARC
8
DEFAULT_255_2_778
10
9.2207775
20
42.2059519
40
4.1835393
50
68.622776
51
80.5554523
0
ARC
8
DEFAULT_255_2_778
10
9.2328127
20
42.248715
40
4.1393337
50
52.1530536
51
68.5621454
0
ARC
8
DEFAULT_255_2_778
10
9.043578
20
42.0234176
40
4.4333603
50
27.7374759
51
52.0083403
0
ARC
8
DEFAULT_255_2_778
10
9.004265
20
41.9804564
40
4.4881944
50
5.6977524
51
27.9893146
0
ARC
8
DEFAULT_255_2_778
10
9.2791692
20
42.0223352
40
4.2105151
50
4.3513834
51
5.5020819
0
ARC
8
DEFAULT_255_2_778
10
9.3680527
20
42.0282825
40
4.1214366
50
0.012711
51
4.3626966
0
ARC
8
DEFAULT_255_2_778
10
9.4814112
20
42.028897
40
4.0080781
50
357.5283418
51
0.0042857
0
LINE
8
DEFAULT_255_2_778
10
13.4857605
20
41.8560478
11
13.4857605
21
40.9106478
0
LINE
8
DEFAULT_255_2_778
10
13.4857605
20
40.9106478
11
13.2042605
21
40.9106478
0
LINE
8
DEFAULT_255_2_778
10
5.318347
20
40.9106968
11
13.204247
21
40.9106968
0
LINE
8
DEFAULT_255_2_778
10
13.204247
20
40.9106968
11
13.204247
21
36.8458968
0
LINE
8
DEFAULT_255_2_778
10
13.204247
20
36.8458968
11
5.318347
21
36.8458968
0
LINE
8
DEFAULT_255_2_778
10
5.318347
20
36.8458968
11
5.318347
21
40.9106968
0
LINE
8
DEFAULT_255_2_778
10
6.257047
20
40.9106968
11
6.257047
21
39.3982968
0
LINE
8
DEFAULT_255_2_778
10
6.257047
20
39.3982968
11
12.265547
21
39.3982968
0
LINE
8
DEFAULT_255_2_778
10
12.265547
20
39.3982968
11
12.265547
21
40.9106968
0
LINE
8
DEFAULT_255_2_778
10
5.3186729
20
40.9106781
11
5.1307729
21
40.9106781
0
LINE
8
DEFAULT_255_2_778
10
5.1307729
20
40.9106781
11
5.1307729
21
41.8560781
0
ARC
8
DEFAULT_255_2_778
10
44.3978803
20
36.1092135
40
13.8402655
50
22.7699529
51
28.3584174
0
ARC
8
DEFAULT_255_2_778
10
42.9117167
20
35.4845182
40
15.4523839
50
17.9537367
51
22.772984
0
ARC
8
DEFAULT_255_2_778
10
41.0880283
20
34.8911753
40
17.3701666
50
13.9344165
51
17.9613247
0
ARC
8
DEFAULT_255_2_778
10
38.9687838
20
34.3638761
40
19.5540257
50
10.411332
51
13.9386482
0
ARC
8
DEFAULT_255_2_778
10
36.617142
20
33.92876
40
21.945581
50
7.5029864
51
10.4191081
0
ARC
8
DEFAULT_255_2_778
10
33.9125566
20
33.573938
40
24.6733417
50
4.5920425
51
7.4997936
0
ARC
8
DEFAULT_255_2_778
10
30.8493607
20
33.3244336
40
27.7466802
50
2.2026587
51
4.5991925
0
ARC
8
DEFAULT_255_2_778
10
27.5686802
20
33.1976532
40
31.0298096
50
359.9794117
51
2.2037601
0
ARC
8
DEFAULT_255_2_778
10
25.4551837
20
33.1868814
40
33.1433041
50
359.6300183
51
359.9993461
0
ARC
8
DEFAULT_255_2_778
10
24.8034843
20
33.1910862
40
33.7950172
50
359.2654604
51
359.6300242
0
ARC
8
DEFAULT_255_2_778
10
33.3909569
20
33.0099579
40
25.2060284
50
353.3229062
51
359.4269048
0
ARC
8
DEFAULT_255_2_778
10
34.4935599
20
32.8827383
40
24.0961118
50
336.5793309
51
353.3185143
0
ARC
8
DEFAULT_255_2_778
10
66.0899588
20
36.1125037
40
14.343828
50
153.1604874
51
158.4438403
0
ARC
8
DEFAULT_255_2_778
10
67.6779286
20
35.4839919
40
16.0516553
50
158.4398727
51
162.9889895
0
ARC
8
DEFAULT_255_2_778
10
69.5794148
20
34.8997377
40
18.0408757
50
162.9813608
51
166.7829873
0
ARC
8
DEFAULT_255_2_778
10
71.7540512
20
34.3874858
40
20.2750298
50
166.7788216
51
170.1125426
0
ARC
8
DEFAULT_255_2_778
10
74.2930423
20
33.9446511
40
22.8523497
50
170.1118447
51
173.2036546
0
ARC
8
DEFAULT_255_2_778
10
77.2139606
20
33.594839
40
25.79414
50
173.1998993
51
175.9330515
0
ARC
8
DEFAULT_255_2_778
10
80.4941483
20
33.360656
40
29.0826763
50
175.9311688
51
178.4278932
0
ARC
8
DEFAULT_255_2_778
10
83.5921155
20
33.267937
40
32.1820219
50
178.4141995
51
180.0109029
0
ARC
8
DEFAULT_255_2_778
10
85.3338131
20
33.2623152
40
33.923719
50
180.0008482
51
180.42485
0
ARC
8
DEFAULT_255_2_778
10
86.0963069
20
33.2679359
40
34.6862335
50
180.4247949
51
180.84262
0
ARC
8
DEFAULT_255_2_778
10
78.3042319
20
33.0107345
40
26.8915968
50
180.5388272
51
186.096595
0
ARC
8
DEFAULT_255_2_778
10
76.8044375
20
32.837359
40
25.3818748
50
186.0670026
51
202.0586865
0
LINE
8
DEFAULT_255_2_778
10
53.2912698
20
45.0463997
11
56.5771698
21
45.0463997
0
LINE
8
DEFAULT_255_2_778
10
56.5771698
20
45.0463997
11
56.5771698
21
20.9417997
0
LINE
8
DEFAULT_255_2_778
10
56.5771698
20
20.9417997
11
53.2912698
21
20.9417997
0
LINE
8
DEFAULT_255_2_778
10
53.2912698
20
20.9417997
11
53.2912698
21
45.0463997
0
LINE
8
DEFAULT_255_2_778
10
2.1267659
20
10.0711332
11
22.3110659
21
10.0711332
0
LINE
8
DEFAULT_255_2_778
10
22.3110659
20
10.0711332
11
22.3110659
21
2.0362332
0
LINE
8
DEFAULT_255_2_778
10
22.3110659
20
2.0362332
11
2.1267659
21
2.0362332
0
LINE
8
DEFAULT_255_2_778
10
2.1267659
20
2.0362332
11
2.1267659
21
10.0711332
0
LINE
8
DEFAULT_255_2_778
10
42.0258584
20
47.9766302
11
43.9033584
21
47.9766302
0
LINE
8
DEFAULT_255_2_778
10
43.9033584
20
47.9766302
11
43.9033584
21
45.0463302
0
LINE
8
DEFAULT_255_2_778
10
43.9033584
20
45.0463302
11
42.0258584
21
45.0463302
0
LINE
8
DEFAULT_255_2_778
10
42.0258584
20
45.0463302
11
42.0258584
21
47.9766302
0
LINE
8
DEFAULT_255_2_778
10
27.9437261
20
47.7404302
11
29.8214261
21
47.7404302
0
LINE
8
DEFAULT_255_2_778
10
29.8214261
20
47.7404302
11
29.8214261
21
44.8101302
0
LINE
8
DEFAULT_255_2_778
10
29.8214261
20
44.8101302
11
27.9437261
21
44.8101302
0
LINE
8
DEFAULT_255_2_778
10
27.9437261
20
44.8101302
11
27.9437261
21
47.7404302
0
LINE
8
DEFAULT_255_2_778
10
14.3311584
20
47.6456302
11
16.2086584
21
47.6456302
0
LINE
8
DEFAULT_255_2_778
10
16.2086584
20
47.6456302
11
16.2086584
21
44.7153302
0
LINE
8
DEFAULT_255_2_778
10
16.2086584
20
44.7153302
11
14.3311584
21
44.7153302
0
LINE
8
DEFAULT_255_2_778
10
14.3311584
20
44.7153302
11
14.3311584
21
47.6456302
0
LINE
8
DEFAULT_255_2_778
10
50.0525022
20
19.3820499
11
57.0465022
21
19.2963499
0
LINE
8
DEFAULT_255_2_778
10
57.0465022
20
19.2963499
11
57.0465022
21
14.7973499
0
LINE
8
DEFAULT_255_2_778
10
57.0465022
20
14.7973499
11
51.6485022
21
14.7973499
0
LINE
8
DEFAULT_255_2_778
10
51.6485022
20
14.7973499
11
50.0525022
21
16.2970499
0
LINE
8
DEFAULT_255_2_778
10
50.0525022
20
16.2970499
11
50.0525022
21
19.3820499
0
LINE
8
DEFAULT_255_2_778
10
50.0525022
20
19.3820499
11
50.0525022
21
19.3820499
0
ARC
8
DEFAULT_255_2_778
10
51.3933222
20
69.5407841
40
1.1485519
50
77.9288891
51
90.6154844
0
ARC
8
DEFAULT_255_2_778
10
51.4611637
20
69.8982699
40
0.7848283
50
72.7433928
51
77.3143355
0
ARC
8
DEFAULT_255_2_778
10
51.5247943
20
70.070251
40
0.6017916
50
49.6928335
51
73.6715088
0
ARC
8
DEFAULT_255_2_778
10
51.5990002
20
70.1685697
40
0.4788637
50
21.4866165
51
48.8537733
0
ARC
8
DEFAULT_255_2_778
10
51.4327059
20
70.1109647
40
0.6547417
50
359.204086
51
20.8469738
0
ARC
8
DEFAULT_255_2_778
10
51.4704589
20
70.0943753
40
0.616971
50
337.6505956
51
0.6959953
0
ARC
8
DEFAULT_255_2_778
10
51.5617963
20
70.0604717
40
0.5196137
50
311.3943279
51
337.2784925
0
ARC
8
DEFAULT_255_2_778
10
51.4943681
20
70.1472749
40
0.6293543
50
287.5062831
51
310.7739375
0
ARC
8
DEFAULT_255_2_778
10
51.4008196
20
70.4290437
40
0.9262238
50
270.3898606
51
287.7819737
0
ARC
8
DEFAULT_255_2_778
10
51.3807902
20
70.7781812
40
1.2756116
50
269.9952469
51
271.1828061
0
ARC
8
DEFAULT_255_2_778
10
51.3913428
20
70.2966385
40
0.5903596
50
268.9946381
51
288.0929281
0
ARC
8
DEFAULT_255_2_778
10
51.4504553
20
70.1121373
40
0.3966249
50
288.2531252
51
311.9097206
0
ARC
8
DEFAULT_255_2_778
10
51.4887041
20
70.0649115
40
0.335945
50
312.4350602
51
338.5517814
0
ARC
8
DEFAULT_255_2_778
10
51.4029187
20
70.0971901
40
0.4275947
50
338.7293355
51
0.6672702
0
ARC
8
DEFAULT_255_2_778
10
51.4402141
20
70.1164995
40
0.3905332
50
357.897196
51
33.3613783
0
ARC
8
DEFAULT_255_2_778
10
51.500182
20
70.1449819
40
0.3249138
50
34.9818702
51
47.6925254
0
ARC
8
DEFAULT_255_2_778
10
51.4639716
20
70.0878238
40
0.3917329
50
49.4032502
51
81.3773593
0
ARC
8
DEFAULT_255_2_778
10
51.3866429
20
69.713895
40
0.7732976
50
79.8662053
51
90.4414847
0
LINE
8
DEFAULT_255_2_778
10
51.3809844
20
69.5025698
11
51.0766844
21
69.5025698
0
LINE
8
DEFAULT_255_2_778
10
51.0766844
20
69.5025698
11
51.0766844
21
68.7935698
0
LINE
8
DEFAULT_255_2_778
10
51.0766844
20
68.7935698
11
50.8213844
21
68.7935698
0
LINE
8
DEFAULT_255_2_778
10
50.8213844
20
68.7935698
11
50.8213844
21
70.6892698
0
LINE
8
DEFAULT_255_2_778
10
50.8213844
20
70.6892698
11
51.3809844
21
70.6892698
0
LINE
8
DEFAULT_255_2_778
10
51.3806844
20
69.5025698
11
51.3809844
21
69.5025698
0
LINE
8
DEFAULT_255_2_778
10
51.0766844
20
70.4868698
11
51.0766844
21
69.7063698
0
LINE
8
DEFAULT_255_2_778
10
51.0766844
20
69.7063698
11
51.3809844
21
69.7063698
0
LINE
8
DEFAULT_255_2_778
10
51.3806844
20
70.4871698
11
51.0764844
21
70.4871698
0
LINE
8
DEFAULT_255_2_778
10
51.0764844
20
70.4871698
11
51.0766844
21
70.4868698
0
ARC
8
DEFAULT_255_2_778
10
52.9150746
20
69.2289247
40
0.4966161
50
21.615952
51
30.2049832
0
ARC
8
DEFAULT_255_2_778
10
49.3826886
20
67.8460448
40
4.2900419
50
20.3962424
51
21.4070044
0
ARC
8
DEFAULT_255_2_778
10
54.4564416
20
68.9680619
40
1.116842
50
156.585666
51
160.4837628
0
ARC
8
DEFAULT_255_2_778
10
54.2129921
20
69.076436
40
0.8503782
50
151.6556455
51
156.7681698
0
ARC
8
DEFAULT_255_2_778
10
54.1757179
20
70.6144648
40
0.0760995
50
116.3291896
51
155.8742226
0
ARC
8
DEFAULT_255_2_778
10
54.188531
20
70.5247419
40
0.1646498
50
87.7951015
51
106.4282696
0
ARC
8
DEFAULT_255_2_778
10
55.6159172
20
70.1845058
40
1.456753
50
177.5778961
51
179.9188211
0
ARC
8
DEFAULT_255_2_778
10
55.7516155
20
70.1803741
40
1.5925055
50
175.299706
51
177.6357048
0
ARC
8
DEFAULT_255_2_778
10
53.4221131
20
69.168114
40
0.1020443
50
270.0856551
51
335.3597761
0
ARC
8
DEFAULT_255_2_778
10
53.3853291
20
69.1679754
40
0.1019056
50
204.5902691
51
269.9642997
0
ARC
8
DEFAULT_255_2_778
10
51.3434126
20
70.1647134
40
1.293796
50
3.6629323
51
6.6646957
0
ARC
8
DEFAULT_255_2_778
10
51.5729005
20
70.183763
40
1.0635688
50
0.1512018
51
3.4286194
0
ARC
8
DEFAULT_255_2_778
10
52.6071003
20
70.5247419
40
0.1646498
50
73.5717304
51
92.2048985
0
ARC
8
DEFAULT_255_2_778
10
52.6199134
20
70.6144648
40
0.0760995
50
24.1257774
51
63.6708104
0
LINE
8
DEFAULT_255_2_778
10
53.4645657
20
69.4801698
11
54.1062657
21
70.6455698
0
LINE
8
DEFAULT_255_2_778
10
54.1948657
20
70.6892698
11
54.3840657
21
70.6892698
0
LINE
8
DEFAULT_255_2_778
10
54.3840657
20
70.6892698
11
54.3840657
21
68.7935698
0
LINE
8
DEFAULT_255_2_778
10
54.3840657
20
68.7935698
11
54.1591657
21
68.7935698
0
LINE
8
DEFAULT_255_2_778
10
54.1591657
20
68.7935698
11
54.1591657
21
70.1865698
0
LINE
8
DEFAULT_255_2_778
10
54.1644657
20
70.3108698
11
53.5148657
21
69.1255698
0
LINE
8
DEFAULT_255_2_778
10
53.4222657
20
69.0660698
11
53.3852657
21
69.0660698
0
LINE
8
DEFAULT_255_2_778
10
53.2926657
20
69.1255698
11
52.6284657
21
70.3148698
0
LINE
8
DEFAULT_255_2_778
10
52.6364657
20
70.1865698
11
52.6364657
21
68.7935698
0
LINE
8
DEFAULT_255_2_778
10
52.6364657
20
68.7935698
11
52.4115657
21
68.7935698
0
LINE
8
DEFAULT_255_2_778
10
52.4115657
20
68.7935698
11
52.4115657
21
70.6892698
0
LINE
8
DEFAULT_255_2_778
10
52.4115657
20
70.6892698
11
52.6007657
21
70.6892698
0
LINE
8
DEFAULT_255_2_778
10
52.6893657
20
70.6455698
11
53.3442657
21
69.4787698
0
LINE
8
DEFAULT_255_2_778
10
53.3442657
20
69.4787698
11
53.3442657
21
69.4787698
0
ARC
8
DEFAULT_255_2_778
10
55.7960142
20
70.5821037
40
0.1134816
50
315.9862132
51
1.9944187
0
ARC
8
DEFAULT_255_2_778
10
55.7893118
20
70.6078566
40
0.1368995
50
266.9558082
51
310.1739411
0
ARC
8
DEFAULT_255_2_778
10
55.7706626
20
70.7996437
40
0.3286905
50
269.9763861
51
271.9839405
0
ARC
8
DEFAULT_255_2_778
10
55.3752407
20
68.6934792
40
1.3119435
50
90.5901806
51
102.6546888
0
ARC
8
DEFAULT_255_2_778
10
55.3749021
20
69.2793253
40
0.7261474
50
70.3085343
51
91.0396111
0
ARC
8
DEFAULT_255_2_778
10
55.4269544
20
69.4535917
40
0.5446191
50
68.8874245
51
69.2867874
0
ARC
8
DEFAULT_255_2_778
10
55.4342832
20
69.4535266
40
0.5420835
50
45.6638779
51
69.6125427
0
ARC
8
DEFAULT_255_2_778
10
55.4575443
20
69.4861473
40
0.5025328
50
20.2464276
51
44.9615458
0
ARC
8
DEFAULT_255_2_778
10
55.3188904
20
69.4389331
40
0.648969
50
359.427885
51
19.9210498
0
ARC
8
DEFAULT_255_2_778
10
55.2911254
20
69.4224355
40
0.6767759
50
337.1796885
51
0.848124
0
ARC
8
DEFAULT_255_2_778
10
55.3427141
20
69.4038761
40
0.6220339
50
313.3773497
51
336.9124155
0
ARC
8
DEFAULT_255_2_778
10
55.337515
20
69.4118346
40
0.6313916
50
290.0351081
51
313.2242647
0
ARC
8
DEFAULT_255_2_778
10
55.2918299
20
69.5363121
40
0.7639875
50
269.5048086
51
290.0557194
0
ARC
8
DEFAULT_255_2_778
10
55.2826776
20
69.5371281
40
0.7647793
50
258.1114985
51
270.1910037
0
ARC
8
DEFAULT_255_2_778
10
55.2864797
20
69.5595357
40
0.78749
50
247.2798533
51
258.1766616
0
ARC
8
DEFAULT_255_2_778
10
55.3097429
20
69.6189455
40
0.851276
50
238.046951
51
247.3799907
0
ARC
8
DEFAULT_255_2_778
10
55.2396113
20
69.5076313
40
0.7197128
50
228.0746983
51
238.0943437
0
ARC
8
DEFAULT_255_2_778
10
54.89246
20
69.0333992
40
0.0736632
50
89.0921974
51
147.7994731
0
ARC
8
DEFAULT_255_2_778
10
54.8857447
20
68.9903353
40
0.1169837
50
55.2487435
51
86.1364446
0
ARC
8
DEFAULT_255_2_778
10
55.6711316
20
70.2753481
40
1.3892471
50
238.8464214
51
242.6987494
0
ARC
8
DEFAULT_255_2_778
10
55.3467274
20
69.6497855
40
0.6845748
50
242.8110499
51
252.9343491
0
ARC
8
DEFAULT_255_2_778
10
55.2885513
20
69.4771081
40
0.5024521
50
253.4976099
51
271.1262321
0
ARC
8
DEFAULT_255_2_778
10
55.3057624
20
69.4509959
40
0.4762993
50
269.1175785
51
291.0740227
0
ARC
8
DEFAULT_255_2_778
10
55.3392386
20
69.3598335
40
0.3792001
50
291.3070729
51
316.1120853
0
ARC
8
DEFAULT_255_2_778
10
55.3184388
20
69.3751146
40
0.4047985
50
316.5942393
51
340.2088827
0
ARC
8
DEFAULT_255_2_778
10
55.2040937
20
69.4143773
40
0.5256865
50
340.4020987
51
0.8148278
0
ARC
8
DEFAULT_255_2_778
10
55.2577778
20
69.4284851
40
0.4719959
50
359.1949126
51
18.9744749
0
ARC
8
DEFAULT_255_2_778
10
55.409698
20
69.4789156
40
0.3119379
50
19.2878481
51
46.0921387
0
ARC
8
DEFAULT_255_2_778
10
55.382008
20
69.444137
40
0.3562218
50
46.7628005
51
71.4001909
0
ARC
8
DEFAULT_255_2_778
10
55.3235899
20
69.2653433
40
0.5443123
50
71.5749778
51
91.1119385
0
ARC
8
DEFAULT_255_2_778
10
55.3161756
20
68.8415678
40
0.9679904
50
90.1863585
51
98.9952886
0
ARC
8
DEFAULT_255_2_778
10
55.3308208
20
68.7644937
40
1.0464092
50
99.1274841
51
108.0769016
0
LINE
8
DEFAULT_255_2_778
10
55.9094271
20
70.6892531
11
55.9094271
21
70.5860531
0
LINE
8
DEFAULT_255_2_778
10
55.7705271
20
70.4709531
11
55.1752271
21
70.4709531
0
LINE
8
DEFAULT_255_2_778
10
55.1752271
20
70.4709531
11
55.0878271
21
69.9735531
0
LINE
8
DEFAULT_255_2_778
10
54.7587271
20
68.9721531
11
54.8301271
21
69.0726531
0
LINE
8
DEFAULT_255_2_778
10
55.0061271
20
69.7592531
11
54.8579271
21
69.8028531
0
LINE
8
DEFAULT_255_2_778
10
54.8579271
20
69.8028531
11
55.0114271
21
70.6892531
0
LINE
8
DEFAULT_255_2_778
10
55.0114271
20
70.6892531
11
55.9096271
21
70.6892531
0
LINE
8
DEFAULT_255_2_778
10
55.9096271
20
70.6892531
11
55.9094271
21
70.6892531
0
ARC
8
DEFAULT_255_2_778
10
56.8732486
20
70.1477316
40
0.5762874
50
249.7243627
51
270.3176759
0
ARC
8
DEFAULT_255_2_778
10
56.8416711
20
70.0656208
40
0.4883231
50
226.3724235
51
249.8612195
0
ARC
8
DEFAULT_255_2_778
10
56.8530172
20
70.0725007
40
0.5011434
50
202.2364501
51
225.9761665
0
ARC
8
DEFAULT_255_2_778
10
56.9373254
20
70.1041998
40
0.5911831
50
178.9383774
51
201.9880458
0
ARC
8
DEFAULT_255_2_778
10
56.9330926
20
70.1194429
40
0.5868645
50
157.0844023
51
180.4188171
0
ARC
8
DEFAULT_255_2_778
10
56.9217873
20
70.1244142
40
0.5745157
50
134.076487
51
157.1020507
0
ARC
8
DEFAULT_255_2_778
10
56.9430631
20
70.0978864
40
0.6083818
50
111.4440072
51
133.7780958
0
ARC
8
DEFAULT_255_2_778
10
56.9657047
20
70.0393927
40
0.6711039
50
89.3477969
51
111.417488
0
ARC
8
DEFAULT_255_2_778
10
56.9822387
20
70.0573105
40
0.6532032
50
68.5937491
51
90.7802477
0
ARC
8
DEFAULT_255_2_778
10
57.0163855
20
70.1486943
40
0.5556627
50
44.7302598
51
68.432689
0
ARC
8
DEFAULT_255_2_778
10
57.0140249
20
70.1524202
40
0.5547343
50
20.4956853
51
44.2852811
0
ARC
8
DEFAULT_255_2_778
10
56.8842558
20
70.1065856
40
0.6923418
50
359.2855882
51
20.2884836
0
ARC
8
DEFAULT_255_2_778
10
56.8176849
20
70.0943114
40
0.7588676
50
348.4719159
51
0.2749526
0
ARC
8
DEFAULT_255_2_778
10
56.750019
20
70.1135262
40
0.8290255
50
337.7004249
51
348.1053247
0
ARC
8
DEFAULT_255_2_778
10
56.4549112
20
70.2421824
40
1.1509031
50
329.5865208
51
337.3491584
0
ARC
8
DEFAULT_255_2_778
10
55.4762314
20
70.8176521
40
2.2862353
50
325.2910949
51
329.5655101
0
ARC
8
DEFAULT_255_2_778
10
56.796039
20
68.9182545
40
0.1198347
50
294.0856508
51
324.7854552
0
ARC
8
DEFAULT_255_2_778
10
56.7754277
20
68.9587961
40
0.1652737
50
268.8961509
51
294.8732212
0
ARC
8
DEFAULT_255_2_778
10
52.992228
20
72.697631
40
5.2011775
50
322.7439594
51
323.7435591
0
ARC
8
DEFAULT_255_2_778
10
55.8644688
20
70.5870724
40
1.6368836
50
323.8578173
51
326.7865269
0
ARC
8
DEFAULT_255_2_778
10
56.9054287
20
70.1026421
40
0.5270882
50
288.1756368
51
308.5548864
0
ARC
8
DEFAULT_255_2_778
10
56.8801826
20
70.1780927
40
0.6066494
50
269.6752123
51
288.2182323
0
ARC
8
DEFAULT_255_2_778
10
56.9127905
20
70.131689
40
0.4372936
50
359.2222296
51
20.740876
0
ARC
8
DEFAULT_255_2_778
10
56.9931671
20
70.1613816
40
0.3516113
50
20.8543744
51
44.7343893
0
ARC
8
DEFAULT_255_2_778
10
56.9982974
20
70.1623434
40
0.3473023
50
45.2173652
51
68.8966997
0
ARC
8
DEFAULT_255_2_778
10
56.9756079
20
70.0961262
40
0.4172565
50
69.2638502
51
90.6816634
0
ARC
8
DEFAULT_255_2_778
10
56.9653036
20
70.0798261
40
0.4335599
50
89.2942692
51
110.8282338
0
ARC
8
DEFAULT_255_2_778
10
56.9435437
20
70.1419968
40
0.3677191
50
111.1037191
51
134.0131733
0
ARC
8
DEFAULT_255_2_778
10
56.9324275
20
70.1613258
40
0.3461369
50
134.9129653
51
158.8788681
0
ARC
8
DEFAULT_255_2_778
10
56.9942177
20
70.1371213
40
0.4124981
50
158.8354057
51
180.6206452
0
ARC
8
DEFAULT_255_2_778
10
57.0485532
20
70.1252606
40
0.4668679
50
179.0927319
51
199.1961341
0
ARC
8
DEFAULT_255_2_778
10
56.9173236
20
70.0802924
40
0.3281499
50
199.3149946
51
224.1183807
0
ARC
8
DEFAULT_255_2_778
10
56.901961
20
70.0711179
40
0.3107615
50
224.8758275
51
250.7378692
0
ARC
8
DEFAULT_255_2_778
10
56.9486281
20
70.2077289
40
0.455121
50
250.8652832
51
270.8077073
0
ARC
8
DEFAULT_255_2_778
10
56.9632421
20
70.1815307
40
0.428956
50
268.9048803
51
291.9441056
0
ARC
8
DEFAULT_255_2_778
10
56.9840269
20
70.1274697
40
0.3710456
50
292.0867554
51
315.2293262
0
ARC
8
DEFAULT_255_2_778
10
56.9931547
20
70.1141617
40
0.3552058
50
315.7163621
51
338.7208395
0
ARC
8
DEFAULT_255_2_778
10
56.9708433
20
70.1246369
40
0.3798013
50
338.4698165
51
0.1231324
0
LINE
8
DEFAULT_255_2_778
10
57.3556438
20
69.5158531
11
56.8939438
21
68.8491531
0
LINE
8
DEFAULT_255_2_778
10
56.7722438
20
68.7935531
11
56.5552438
21
68.7935531
0
LINE
8
DEFAULT_255_2_778
10
56.5552438
20
68.7935531
11
57.1320438
21
69.5489531
0
LINE
8
DEFAULT_255_2_778
10
56.8767438
20
69.5714531
11
56.8764438
21
69.5714531
0
LINE
8
DEFAULT_255_2_778
10
57.3506438
20
70.1254531
11
57.3500438
21
70.1257531
0
ARC
8
DEFAULT_255_2_778
10
57.3645469
20
69.7281118
40
1.7753816
50
350.8137916
51
0.4086738
0
ARC
8
DEFAULT_255_2_778
10
57.9539925
20
69.6389532
40
1.1792781
50
343.8065668
51
350.5180938
0
ARC
8
DEFAULT_255_2_778
10
58.1528631
20
69.5722863
40
0.969743
50
328.4016926
51
344.3123719
0
ARC
8
DEFAULT_255_2_778
10
58.3935031
20
69.434406
40
0.6925899
50
322.1227101
51
327.6862977
0
ARC
8
DEFAULT_255_2_778
10
58.4716028
20
69.3640778
40
0.5878127
50
295.1463731
51
322.8597167
0
ARC
8
DEFAULT_255_2_778
10
58.4547216
20
69.4136324
40
0.6398702
50
269.6383982
51
294.6291598
0
ARC
8
DEFAULT_255_2_778
10
58.4454294
20
69.407978
40
0.6342248
50
245.2577949
51
270.4746471
0
ARC
8
DEFAULT_255_2_778
10
58.433727
20
69.3655093
40
0.5908001
50
217.0950177
51
244.5647031
0
ARC
8
DEFAULT_255_2_778
10
58.6361279
20
69.5163945
40
0.8432489
50
198.0731046
51
216.9778547
0
ARC
8
DEFAULT_255_2_778
10
58.9818443
20
69.6484249
40
1.2130053
50
196.1966689
51
198.9358577
0
ARC
8
DEFAULT_255_2_778
10
59.1244627
20
69.6763703
40
1.3578198
50
183.7246403
51
195.6504182
0
ARC
8
DEFAULT_255_2_778
10
59.8203364
20
69.7375012
40
2.0562555
50
179.9087782
51
184.1648082
0
ARC
8
DEFAULT_255_2_778
10
59.5576617
20
69.7534801
40
1.7936234
50
170.8491802
51
180.4058563
0
ARC
8
DEFAULT_255_2_778
10
58.9662383
20
69.8424309
40
1.1955971
50
163.9953698
51
170.5502617
0
ARC
8
DEFAULT_255_2_778
10
58.747185
20
69.9158092
40
0.9648561
50
148.2742473
51
164.5973944
0
ARC
8
DEFAULT_255_2_778
10
58.5131018
20
70.0499595
40
0.6952655
50
142.3685182
51
147.5334777
0
ARC
8
DEFAULT_255_2_778
10
58.4330061
20
70.120824
40
0.5886091
50
115.4590224
51
143.0710009
0
ARC
8
DEFAULT_255_2_778
10
58.4451511
20
70.0775663
40
0.6329329
50
89.4991917
51
114.7683663
0
ARC
8
DEFAULT_255_2_778
10
58.4547216
20
70.0706176
40
0.6398702
50
65.3708402
51
90.3616018
0
ARC
8
DEFAULT_255_2_778
10
58.472307
20
70.1222354
40
0.5856458
50
36.9741763
51
64.8302196
0
ARC
8
DEFAULT_255_2_778
10
58.2503083
20
69.958325
40
0.8615906
50
18.233976
51
36.8030602
0
ARC
8
DEFAULT_255_2_778
10
57.8978666
20
69.8229426
40
1.2388312
50
16.3690961
51
19.080661
0
ARC
8
DEFAULT_255_2_778
10
57.7756818
20
69.8030801
40
1.3617481
50
3.6494283
51
15.7220822
0
ARC
8
DEFAULT_255_2_778
10
57.096592
20
69.7438338
40
2.0432938
50
359.914228
51
4.0953141
0
ARC
8
DEFAULT_255_2_778
10
57.010482
20
69.7530839
40
1.8847415
50
359.6258096
51
7.0619447
0
ARC
8
DEFAULT_255_2_778
10
57.7949461
20
69.8461695
40
1.0947919
50
7.2746529
51
13.67937
0
ARC
8
DEFAULT_255_2_778
10
58.0537632
20
69.9196262
40
0.8260071
50
12.9742001
51
26.9600606
0
ARC
8
DEFAULT_255_2_778
10
58.3481693
20
70.0613467
40
0.4993958
50
27.7810956
51
34.2869215
0
ARC
8
DEFAULT_255_2_778
10
58.4486677
20
70.14149
40
0.3713376
50
32.8052124
51
62.8038129
0
ARC
8
DEFAULT_255_2_778
10
58.4502895
20
70.1309725
40
0.3800024
50
63.7461134
51
89.985842
0
ARC
8
DEFAULT_255_2_778
10
58.4504773
20
70.1309725
40
0.3800024
50
90.014158
51
116.2538866
0
ARC
8
DEFAULT_255_2_778
10
58.4490681
20
70.1469848
40
0.365065
50
117.1672259
51
147.5853905
0
ARC
8
DEFAULT_255_2_778
10
58.6968395
20
69.9825686
40
0.6623925
50
147.0678809
51
163.8398376
0
ARC
8
DEFAULT_255_2_778
10
59.1165224
20
69.8410927
40
1.1050336
50
162.8505879
51
166.1789243
0
ARC
8
DEFAULT_255_2_778
10
59.2688211
20
69.8152162
40
1.2591548
50
166.6910922
51
176.4253408
0
ARC
8
DEFAULT_255_2_778
10
60.1507166
20
69.7453937
40
2.1437383
50
176.0324157
51
180.1234451
0
ARC
8
DEFAULT_255_2_778
10
59.887096
20
69.7283832
40
1.8801534
50
179.6223714
51
187.0707238
0
ARC
8
DEFAULT_255_2_778
10
59.0992172
20
69.6347486
40
1.0867482
50
187.2848278
51
193.7211803
0
ARC
8
DEFAULT_255_2_778
10
58.8469566
20
69.5624726
40
0.8246081
50
193.0000823
51
207.2049482
0
ARC
8
DEFAULT_255_2_778
10
58.5568253
20
69.4218174
40
0.5023248
50
208.0655986
51
214.1027
0
ARC
8
DEFAULT_255_2_778
10
58.4490681
20
69.3358652
40
0.365065
50
212.4146095
51
242.8327741
0
ARC
8
DEFAULT_255_2_778
10
58.4504773
20
69.3518774
40
0.3800024
50
243.7461134
51
269.985842
0
ARC
8
DEFAULT_255_2_778
10
58.4502895
20
69.3518774
40
0.3800024
50
270.014158
51
296.2538866
0
ARC
8
DEFAULT_255_2_778
10
58.4501416
20
69.3397342
40
0.3692184
50
297.1080557
51
327.282919
0
ARC
8
DEFAULT_255_2_778
10
58.2047558
20
69.5028142
40
0.6638327
50
326.8877455
51
343.9859783
0
ARC
8
DEFAULT_255_2_778
10
57.7968091
20
69.6399993
40
1.0939648
50
342.9740452
51
346.0879518
0
ARC
8
DEFAULT_255_2_778
10
57.6408931
20
69.6658718
40
1.2515888
50
346.6544071
51
356.4281158
0
ARC
8
DEFAULT_255_2_778
10
56.7544362
20
69.7361242
40
2.1407522
50
356.0296176
51
0.1244737
0
LINE
8
DEFAULT_255_2_778
10
59.1398834
20
69.740775
11
59.1398834
21
69.740775
0
LINE
8
DEFAULT_255_2_778
10
58.8951834
20
69.740775
11
58.8951834
21
69.740775
0
LINE
8
DEFAULT_255_2_778
10
59.3516396
20
69.4866802
11
59.3516396
21
69.6864802
0
LINE
8
DEFAULT_255_2_778
10
59.3516396
20
69.6864802
11
60.0051396
21
69.6864802
0
LINE
8
DEFAULT_255_2_778
10
60.0051396
20
69.6864802
11
60.0051396
21
69.4866802
0
LINE
8
DEFAULT_255_2_778
10
60.0051396
20
69.4866802
11
59.3516396
21
69.4866802
0
LINE
8
DEFAULT_255_2_778
10
59.3516396
20
69.4866802
11
59.3516396
21
69.4866802
0
ARC
8
DEFAULT_255_2_778
10
60.2089562
20
70.6040175
40
0.0853458
50
52.8797793
51
92.682767
0
ARC
8
DEFAULT_255_2_778
10
60.1937009
20
70.5900686
40
0.1057411
50
21.2364035
51
50.8495204
0
ARC
8
DEFAULT_255_2_778
10
59.9975142
20
68.9512383
40
0.8972514
50
15.63599
51
22.249205
0
ARC
8
DEFAULT_255_2_778
10
57.6225648
20
68.2520768
40
3.3729167
50
14.2664471
51
16.1996317
0
ARC
8
DEFAULT_255_2_778
10
63.3152775
20
68.5738544
40
2.4767697
50
165.5219398
51
168.1308482
0
ARC
8
DEFAULT_255_2_778
10
61.66827
20
68.9973338
40
0.7761937
50
157.7714263
51
165.3937945
0
ARC
8
DEFAULT_255_2_778
10
61.583299
20
70.5847125
40
0.1095155
50
128.8770095
51
156.506795
0
ARC
8
DEFAULT_255_2_778
10
61.567608
20
70.6068889
40
0.0824204
50
88.2246175
51
130.0614391
0
LINE
8
DEFAULT_255_2_778
10
60.7724615
20
68.7935698
11
59.9998615
21
70.6892698
0
LINE
8
DEFAULT_255_2_778
10
59.9998615
20
70.6892698
11
60.2049615
21
70.6892698
0
LINE
8
DEFAULT_255_2_778
10
60.2922615
20
70.6283698
11
60.8279615
21
69.2909698
0
LINE
8
DEFAULT_255_2_778
10
60.9497615
20
69.2909698
11
61.4828615
21
70.6283698
0
LINE
8
DEFAULT_255_2_778
10
61.5701615
20
70.6892698
11
61.7765615
21
70.6892698
0
LINE
8
DEFAULT_255_2_778
10
61.7765615
20
70.6892698
11
61.0039615
21
68.7935698
0
LINE
8
DEFAULT_255_2_778
10
61.0039615
20
68.7935698
11
60.7724615
21
68.7935698
0
LINE
8
DEFAULT_255_2_778
10
60.7724615
20
68.7935698
11
60.7724615
21
68.7935698
0
ARC
8
DEFAULT_255_2_778
10
64.3300405
20
70.2652471
40
1.7544646
50
176.130226
51
179.9769117
0
ARC
8
DEFAULT_255_2_778
10
62.1826779
20
70.1641554
40
0.091188
50
290.3413798
51
309.6593268
0
ARC
8
DEFAULT_255_2_778
10
62.1882804
20
70.151959
40
0.0778112
50
270.733192
51
289.5951472
0
ARC
8
DEFAULT_255_2_778
10
62.1881383
20
70.1493811
40
0.0752355
50
242.6524451
51
270.866515
0
ARC
8
DEFAULT_255_2_778
10
62.1838979
20
70.141449
40
0.0662421
50
215.2114152
51
242.7584917
0
LINE
8
DEFAULT_255_2_778
10
62.1680761
20
68.7935541
11
62.1680761
21
68.9734541
0
LINE
8
DEFAULT_255_2_778
10
62.1680761
20
68.9734541
11
62.5755761
21
68.9734541
0
LINE
8
DEFAULT_255_2_778
10
62.5755761
20
68.9734541
11
62.5755761
21
70.2659541
0
LINE
8
DEFAULT_255_2_778
10
62.5795761
20
70.3836541
11
62.2408761
21
70.0939541
0
LINE
8
DEFAULT_255_2_778
10
62.1297761
20
70.1032541
11
62.0556761
21
70.2050541
0
LINE
8
DEFAULT_255_2_778
10
62.0556761
20
70.2050541
11
62.6192761
21
70.6932541
0
LINE
8
DEFAULT_255_2_778
10
62.6192761
20
70.6932541
11
62.8110761
21
70.6932541
0
LINE
8
DEFAULT_255_2_778
10
62.8110761
20
70.6932541
11
62.8110761
21
68.9734541
0
LINE
8
DEFAULT_255_2_778
10
62.8110761
20
68.9734541
11
63.1840761
21
68.9734541
0
LINE
8
DEFAULT_255_2_778
10
63.1840761
20
68.9734541
11
63.1840761
21
68.7935541
0
LINE
8
DEFAULT_255_2_778
10
63.1840761
20
68.7935541
11
62.1680761
21
68.7935541
0
LINE
8
DEFAULT_255_2_778
10
62.1680761
20
68.7935541
11
62.1680761
21
68.7935541
0
ARC
8
DEFAULT_255_2_778
10
64.7521384
20
69.3410209
40
0.0525094
50
319.4296541
51
1.6902762
0
ARC
8
DEFAULT_255_2_778
10
64.7571889
20
69.3405644
40
0.0484653
50
265.1900596
51
315.9543102
0
ARC
8
DEFAULT_255_2_778
10
63.4682161
20
69.3627902
40
0.0705388
50
231.5211523
51
271.3069967
0
ARC
8
DEFAULT_255_2_778
10
63.4669994
20
69.3623371
40
0.0694303
50
194.3154126
51
232.0744497
0
ARC
8
DEFAULT_255_2_778
10
65.9502175
20
70.2564927
40
1.640295
50
177.3136854
51
179.8995019
0
ARC
8
DEFAULT_255_2_778
10
65.0857264
20
70.2947256
40
0.7749655
50
171.0364674
51
177.1417265
0
LINE
8
DEFAULT_255_2_778
10
64.517625
20
70.6892698
11
64.517625
21
69.4774698
0
LINE
8
DEFAULT_255_2_778
10
64.517625
20
69.4774698
11
64.804625
21
69.4774698
0
LINE
8
DEFAULT_255_2_778
10
64.804625
20
69.4774698
11
64.804625
21
69.3425698
0
LINE
8
DEFAULT_255_2_778
10
64.753125
20
69.2922698
11
64.517625
21
69.2922698
0
LINE
8
DEFAULT_255_2_778
10
64.517625
20
69.2922698
11
64.517625
21
68.7935698
0
LINE
8
DEFAULT_255_2_778
10
64.517625
20
68.7935698
11
64.309925
21
68.7935698
0
LINE
8
DEFAULT_255_2_778
10
64.309925
20
68.7935698
11
64.309925
21
69.2922698
0
LINE
8
DEFAULT_255_2_778
10
64.309925
20
69.2922698
11
63.469825
21
69.2922698
0
LINE
8
DEFAULT_255_2_778
10
63.399725
20
69.3451698
11
63.375925
21
69.4655698
0
LINE
8
DEFAULT_255_2_778
10
63.375925
20
69.4655698
11
64.298025
21
70.6892698
0
LINE
8
DEFAULT_255_2_778
10
64.298025
20
70.6892698
11
64.517625
21
70.6892698
0
LINE
8
DEFAULT_255_2_778
10
64.517625
20
70.6892698
11
64.517625
21
70.6892698
0
LINE
8
DEFAULT_255_2_778
10
64.309925
20
69.4774698
11
64.309925
21
70.2593698
0
LINE
8
DEFAULT_255_2_778
10
64.320225
20
70.4154698
11
63.631025
21
69.4774698
0
LINE
8
DEFAULT_255_2_778
10
63.631025
20
69.4774698
11
64.309625
21
69.4774698
0
LINE
8
DEFAULT_255_2_778
10
64.309625
20
69.4774698
11
64.309925
21
69.4774698
0
ARC
8
DEFAULT_255_2_778
10
65.1450607
20
70.0577674
40
0.0760396
50
61.1814979
51
94.3338397
0
ARC
8
DEFAULT_255_2_778
10
65.1290769
20
70.0531774
40
0.0885545
50
30.3254534
51
53.5294061
0
ARC
8
DEFAULT_255_2_778
10
65.8629418
20
69.4873384
40
0.3465376
50
148.3280779
51
161.8669281
0
ARC
8
DEFAULT_255_2_778
10
65.9974305
20
69.9942136
40
0.1720218
50
131.7811149
51
145.1185369
0
ARC
8
DEFAULT_255_2_778
10
65.9142121
20
70.0850798
40
0.0488394
50
88.0022616
51
130.0062681
0
ARC
8
DEFAULT_255_2_778
10
65.9214372
20
68.8586823
40
0.0650026
50
229.723621
51
273.3314378
0
ARC
8
DEFAULT_255_2_778
10
65.9788298
20
68.915972
40
0.14597
50
209.9988475
51
227.0730039
0
ARC
8
DEFAULT_255_2_778
10
65.2830056
20
69.4216239
40
0.2380828
50
329.1086835
51
347.0302797
0
ARC
8
DEFAULT_255_2_778
10
64.948071
20
69.0055223
40
0.2792234
50
315.2917598
51
324.4024118
0
ARC
8
DEFAULT_255_2_778
10
65.1080388
20
68.8494993
40
0.0557973
50
266.7902443
51
313.5956352
0
LINE
8
DEFAULT_255_2_778
10
64.8946146
20
68.7934896
11
65.3642146
21
69.4800896
0
LINE
8
DEFAULT_255_2_778
10
65.3642146
20
69.4800896
11
64.9131146
21
70.1335896
0
LINE
8
DEFAULT_255_2_778
10
64.9131146
20
70.1335896
11
65.1393146
21
70.1335896
0
LINE
8
DEFAULT_255_2_778
10
65.2055146
20
70.0978896
11
65.5336146
21
69.5951896
0
LINE
8
DEFAULT_255_2_778
10
65.5680146
20
69.6692896
11
65.8563146
21
70.0925896
0
LINE
8
DEFAULT_255_2_778
10
65.9159146
20
70.1338896
11
66.1328146
21
70.1338896
0
LINE
8
DEFAULT_255_2_778
10
66.1328146
20
70.1338896
11
65.6817146
21
69.4935896
0
LINE
8
DEFAULT_255_2_778
10
65.6817146
20
69.4935896
11
66.1514146
21
68.7937896
0
LINE
8
DEFAULT_255_2_778
10
66.1514146
20
68.7937896
11
65.9252146
21
68.7937896
0
LINE
8
DEFAULT_255_2_778
10
65.8524146
20
68.8429896
11
65.5150146
21
69.3681896
0
LINE
8
DEFAULT_255_2_778
10
65.4873146
20
69.2993896
11
65.1751146
21
68.8429896
0
LINE
8
DEFAULT_255_2_778
10
65.1049146
20
68.7937896
11
64.8946146
21
68.7937896
0
LINE
8
DEFAULT_255_2_778
10
64.8946146
20
68.7937896
11
64.8946146
21
68.7934896
0
ARC
8
DEFAULT_255_2_778
10
11.834765
20
68.7308061
40
1.6023793
50
36.4839976
51
62.6509299
0
ARC
8
DEFAULT_255_2_778
10
11.9810744
20
70.9795142
40
1.0145228
50
305.5488466
51
359.2694016
0
ARC
8
DEFAULT_255_2_778
10
11.9922983
20
70.9708169
40
1.0032254
50
359.7579144
51
35.0082511
0
ARC
8
DEFAULT_255_2_778
10
12.0098343
20
70.9816456
40
0.9826505
50
35.0776848
51
85.7606026
0
ARC
8
DEFAULT_255_2_778
10
12.0045554
20
70.9411515
40
1.0234266
50
85.6334659
51
90.0078761
0
ARC
8
DEFAULT_255_2_778
10
11.8749174
20
68.834051
40
1.5757601
50
272.6515481
51
293.3229138
0
ARC
8
DEFAULT_255_2_778
10
11.9018141
20
68.7514035
40
1.4892387
50
293.631557
51
357.33315
0
ARC
8
DEFAULT_255_2_778
10
11.7953113
20
68.7709769
40
1.5966036
50
356.8093218
51
0.0036306
0
ARC
8
DEFAULT_255_2_778
10
11.8264763
20
68.7973175
40
1.5656584
50
359.0397132
51
24.1770289
0
ARC
8
DEFAULT_255_2_778
10
12.2705611
20
68.9693399
40
1.0903591
50
25.4879341
51
30.7405289
0
ARC
8
DEFAULT_255_2_778
10
8.012065
20
68.7308061
40
1.6023793
50
36.4839976
51
62.6509299
0
ARC
8
DEFAULT_255_2_778
10
8.1583744
20
70.9795142
40
1.0145228
50
305.5488466
51
359.2694016
0
ARC
8
DEFAULT_255_2_778
10
8.1695983
20
70.9708169
40
1.0032254
50
359.7579144
51
35.0082511
0
ARC
8
DEFAULT_255_2_778
10
8.1871343
20
70.9816456
40
0.9826505
50
35.0776848
51
85.7606026
0
ARC
8
DEFAULT_255_2_778
10
8.1818554
20
70.9411515
40
1.0234266
50
85.6334659
51
90.0078761
0
ARC
8
DEFAULT_255_2_778
10
8.0522174
20
68.834051
40
1.5757601
50
272.6515481
51
293.3229138
0
ARC
8
DEFAULT_255_2_778
10
8.0791141
20
68.7514035
40
1.4892387
50
293.631557
51
357.33315
0
ARC
8
DEFAULT_255_2_778
10
7.9726113
20
68.7709769
40
1.5966036
50
356.8093218
51
0.0036306
0
ARC
8
DEFAULT_255_2_778
10
8.0037763
20
68.7973175
40
1.5656584
50
359.0397132
51
24.1770289
0
ARC
8
DEFAULT_255_2_778
10
8.4478611
20
68.9693399
40
1.0903591
50
25.4879341
51
30.7405289
0
LINE
8
DEFAULT_255_2_778
10
5.0104148
20
69.6835781
11
4.2034148
21
71.9645781
0
LINE
8
DEFAULT_255_2_778
10
4.2034148
20
71.9645781
11
3.5946148
21
71.9645781
0
LINE
8
DEFAULT_255_2_778
10
3.5946148
20
71.9645781
11
3.5946148
21
69.6835781
0
LINE
8
DEFAULT_255_2_778
10
3.5946148
20
69.6835781
11
5.0104148
21
69.6835781
0
LINE
8
DEFAULT_255_2_778
10
3.5946148
20
68.2580781
11
4.3450148
21
68.2580781
0
LINE
8
DEFAULT_255_2_778
10
4.3450148
20
68.2580781
11
4.6847148
21
67.2599781
0
LINE
8
DEFAULT_255_2_778
10
4.6847148
20
67.2599781
11
5.8597148
21
67.2599781
0
LINE
8
DEFAULT_255_2_778
10
5.8597148
20
67.2599781
11
5.0527148
21
69.5409781
0
LINE
8
DEFAULT_255_2_778
10
5.0527148
20
69.5409781
11
3.5943148
21
69.5409781
0
LINE
8
DEFAULT_255_2_778
10
3.5943148
20
69.5409781
11
3.5946148
21
68.2580781
0
LINE
8
DEFAULT_255_2_778
10
3.4531148
20
71.9645781
11
2.8443148
21
71.9645781
0
LINE
8
DEFAULT_255_2_778
10
2.8443148
20
71.9645781
11
2.0373148
21
69.6835781
0
LINE
8
DEFAULT_255_2_778
10
2.0373148
20
69.6835781
11
3.4531148
21
69.6835781
0
LINE
8
DEFAULT_255_2_778
10
3.4531148
20
69.6835781
11
3.4531148
21
71.9645781
0
LINE
8
DEFAULT_255_2_778
10
1.9947148
20
69.5409781
11
1.1877148
21
67.2599781
0
LINE
8
DEFAULT_255_2_778
10
1.1877148
20
67.2599781
11
2.3630148
21
67.2599781
0
LINE
8
DEFAULT_255_2_778
10
2.3630148
20
67.2599781
11
2.7027148
21
68.2580781
0
LINE
8
DEFAULT_255_2_778
10
2.7027148
20
68.2580781
11
3.4531148
21
68.2580781
0
LINE
8
DEFAULT_255_2_778
10
3.4531148
20
68.2580781
11
3.4531148
21
69.5409781
0
LINE
8
DEFAULT_255_2_778
10
3.4531148
20
69.5409781
11
1.9947148
21
69.5409781
0
LINE
8
DEFAULT_255_2_778
10
10.1073148
20
71.9645781
11
11.5231148
21
71.9645781
0
LINE
8
DEFAULT_255_2_778
10
11.5231148
20
71.9645781
11
11.5231148
21
69.6835781
0
LINE
8
DEFAULT_255_2_778
10
11.5231148
20
69.6835781
11
10.1073148
21
69.6835781
0
LINE
8
DEFAULT_255_2_778
10
10.1073148
20
69.6835781
11
10.1073148
21
71.9645781
0
LINE
8
DEFAULT_255_2_778
10
12.0044148
20
71.9645781
11
11.6647148
21
71.9645781
0
LINE
8
DEFAULT_255_2_778
10
11.6647148
20
71.9645781
11
11.6647148
21
69.6835781
0
LINE
8
DEFAULT_255_2_778
10
11.6647148
20
69.6835781
11
13.1231148
21
69.6835781
0
LINE
8
DEFAULT_255_2_778
10
13.1231148
20
69.6835781
11
13.1231148
21
69.6835781
0
LINE
8
DEFAULT_255_2_778
10
10.1073148
20
69.5409781
11
11.5231148
21
69.5409781
0
LINE
8
DEFAULT_255_2_778
10
11.5231148
20
69.5409781
11
11.5231148
21
67.2599781
0
LINE
8
DEFAULT_255_2_778
10
11.5231148
20
67.2599781
11
10.1073148
21
67.2599781
0
LINE
8
DEFAULT_255_2_778
10
10.1073148
20
67.2599781
11
10.1073148
21
69.5409781
0
LINE
8
DEFAULT_255_2_778
10
11.6647148
20
67.2599781
11
11.9478148
21
67.2599781
0
LINE
8
DEFAULT_255_2_778
10
13.2077148
20
69.5266781
11
11.6644148
21
69.5266781
0
LINE
8
DEFAULT_255_2_778
10
11.6644148
20
69.5266781
11
11.6644148
21
67.2599781
0
LINE
8
DEFAULT_255_2_778
10
11.6644148
20
67.2599781
11
11.6647148
21
67.2599781
0
LINE
8
DEFAULT_255_2_778
10
6.2846148
20
71.9645781
11
7.7004148
21
71.9645781
0
LINE
8
DEFAULT_255_2_778
10
7.7004148
20
71.9645781
11
7.7004148
21
69.6835781
0
LINE
8
DEFAULT_255_2_778
10
7.7004148
20
69.6835781
11
6.2846148
21
69.6835781
0
LINE
8
DEFAULT_255_2_778
10
6.2846148
20
69.6835781
11
6.2846148
21
71.9645781
0
LINE
8
DEFAULT_255_2_778
10
8.1817148
20
71.9645781
11
7.8420148
21
71.9645781
0
LINE
8
DEFAULT_255_2_778
10
7.8420148
20
71.9645781
11
7.8420148
21
69.6835781
0
LINE
8
DEFAULT_255_2_778
10
7.8420148
20
69.6835781
11
9.3004148
21
69.6835781
0
LINE
8
DEFAULT_255_2_778
10
9.3004148
20
69.6835781
11
9.3004148
21
69.6835781
0
LINE
8
DEFAULT_255_2_778
10
6.2846148
20
69.5409781
11
7.7004148
21
69.5409781
0
LINE
8
DEFAULT_255_2_778
10
7.7004148
20
69.5409781
11
7.7004148
21
67.2599781
0
LINE
8
DEFAULT_255_2_778
10
7.7004148
20
67.2599781
11
6.2846148
21
67.2599781
0
LINE
8
DEFAULT_255_2_778
10
6.2846148
20
67.2599781
11
6.2846148
21
69.5409781
0
LINE
8
DEFAULT_255_2_778
10
7.8420148
20
67.2599781
11
8.1251148
21
67.2599781
0
LINE
8
DEFAULT_255_2_778
10
9.3850148
20
69.5266781
11
7.8417148
21
69.5266781
0
LINE
8
DEFAULT_255_2_778
10
7.8417148
20
69.5266781
11
7.8417148
21
67.2599781
0
LINE
8
DEFAULT_255_2_778
10
7.8417148
20
67.2599781
11
7.8420148
21
67.2599781
0
ARC
8
DEFAULT_255_2_778
10
25.4646582
20
40.3050534
40
1.2763022
50
147.3010383
51
179.3353644
0
ARC
8
DEFAULT_255_2_778
10
26.0292644
20
39.96805
40
1.9336064
50
134.4641351
51
147.9357336
0
ARC
8
DEFAULT_255_2_778
10
26.6432265
20
39.350868
40
2.8041462
50
124.9397052
51
134.5839737
0
ARC
8
DEFAULT_255_2_778
10
27.2879175
20
38.435862
40
3.9234532
50
117.3928341
51
125.0047202
0
ARC
8
DEFAULT_255_2_778
10
27.901634
20
37.2596538
40
5.250142
50
111.0417616
51
117.4336721
0
ARC
8
DEFAULT_255_2_778
10
28.4082883
20
35.9554121
40
6.6493306
50
105.7487903
51
111.0812634
0
ARC
8
DEFAULT_255_2_778
10
28.7865202
20
34.617954
40
8.0392416
50
100.4595043
51
105.7560622
0
ARC
8
DEFAULT_255_2_778
10
29.0207496
20
33.3623382
40
9.3165157
50
95.27059
51
100.4742162
0
ARC
8
DEFAULT_255_2_778
10
29.1117714
20
32.4030414
40
10.2801181
50
89.9700684
51
95.2846153
0
ARC
8
DEFAULT_255_2_778
10
29.1228896
20
32.4161069
40
10.267053
50
84.5514462
51
90.032076
0
ARC
8
DEFAULT_255_2_778
10
29.2170736
20
33.3870239
40
9.2915799
50
79.4673036
51
84.5611152
0
ARC
8
DEFAULT_255_2_778
10
29.4507549
20
34.631091
40
8.0257588
50
74.1982007
51
79.4839565
0
ARC
8
DEFAULT_255_2_778
10
29.8389325
20
35.9959246
40
6.6067984
50
68.6302383
51
74.2142416
0
ARC
8
DEFAULT_255_2_778
10
30.3618905
20
37.3243905
40
5.1791095
50
62.2108685
51
68.6626549
0
ARC
8
DEFAULT_255_2_778
10
30.979498
20
38.4903256
40
3.859703
50
54.5545247
51
62.2523969
0
ARC
8
DEFAULT_255_2_778
10
31.6303447
20
39.3981414
40
2.7426931
50
44.6292254
51
54.6329902
0
ARC
8
DEFAULT_255_2_778
10
32.2554331
20
40.0084985
40
1.8690581
50
30.3510551
51
44.7752411
0
ARC
8
DEFAULT_255_2_778
10
32.7849232
20
40.3079168
40
1.2608752
50
0.5426447
51
30.767664
0
ARC
8
DEFAULT_255_2_778
10
32.769656
20
40.3346684
40
1.2761717
50
327.2993766
51
359.3350618
0
ARC
8
DEFAULT_255_2_778
10
32.2049811
20
40.6717254
40
1.9335619
50
314.4629594
51
327.9344147
0
ARC
8
DEFAULT_255_2_778
10
31.5909666
20
41.2889847
40
2.8041933
50
304.9389304
51
314.582818
0
ARC
8
DEFAULT_255_2_778
10
30.9462615
20
42.2040357
40
3.9235452
50
297.3923852
51
305.0039563
0
ARC
8
DEFAULT_255_2_778
10
30.3325361
20
43.3802732
40
5.2502642
50
291.0416226
51
297.4332753
0
ARC
8
DEFAULT_255_2_778
10
29.8258817
20
44.6845302
40
6.6494669
50
285.7488417
51
291.081106
0
ARC
8
DEFAULT_255_2_778
10
29.4477074
20
46.0217861
40
8.0391677
50
280.4596117
51
285.7561015
0
ARC
8
DEFAULT_255_2_778
10
29.2135107
20
47.2771627
40
9.3162009
50
275.2707166
51
280.4743782
0
ARC
8
DEFAULT_255_2_778
10
29.1225103
20
48.2361296
40
10.2794728
50
269.9700772
51
275.2847812
0
ARC
8
DEFAULT_255_2_778
10
29.1113941
20
48.2244414
40
10.2677847
50
264.5516523
51
270.0320728
0
ARC
8
DEFAULT_255_2_778
10
29.0172038
20
47.253407
40
9.2921942
50
259.4677027
51
264.5613125
0
ARC
8
DEFAULT_255_2_778
10
28.7835199
20
46.0092477
40
8.0262818
50
254.1987969
51
259.484316
0
ARC
8
DEFAULT_255_2_778
10
28.3953117
20
44.644249
40
6.6071543
50
248.631049
51
254.2148305
0
ARC
8
DEFAULT_255_2_778
10
27.872342
20
43.3156898
40
5.1793741
50
242.2119284
51
248.6634313
0
ARC
8
DEFAULT_255_2_778
10
27.2546931
20
42.1496238
40
3.8598327
50
234.5558534
51
242.2534554
0
ARC
8
DEFAULT_255_2_778
10
26.6038139
20
41.2417183
40
2.742731
50
224.6308325
51
234.634326
0
ARC
8
DEFAULT_255_2_778
10
25.9786677
20
40.6312713
40
1.8689918
50
210.3526366
51
224.7768885
0
ARC
8
DEFAULT_255_2_778
10
25.4491186
20
40.3318038
40
1.2607334
50
180.5428882
51
210.7694745
0
LINE
8
DEFAULT_255_2_778
10
24.1884418
20
40.3198583
11
24.1884418
21
40.3198583
0
ARC
8
DEFAULT_255_2_778
10
39.1199682
20
40.2629143
40
1.3190107
50
147.4103731
51
179.352199
0
ARC
8
DEFAULT_255_2_778
10
39.6964514
20
39.9194006
40
1.9898609
50
134.3565562
51
148.0172718
0
ARC
8
DEFAULT_255_2_778
10
40.3244922
20
39.2861136
40
2.8817468
50
124.7549356
51
134.4819446
0
ARC
8
DEFAULT_255_2_778
10
40.9736865
20
38.3588821
40
4.0136457
50
117.1832936
51
124.8233438
0
ARC
8
DEFAULT_255_2_778
10
41.5792396
20
37.188417
40
5.3314741
50
110.8325423
51
117.2258067
0
ARC
8
DEFAULT_255_2_778
10
42.0795946
20
35.8834883
40
6.7290378
50
105.2771729
51
110.8628684
0
ARC
8
DEFAULT_255_2_778
10
42.4351856
20
34.5930411
40
8.0675784
50
100.1919193
51
105.2985286
0
ARC
8
DEFAULT_255_2_778
10
42.6459359
20
33.4292995
40
9.2502483
50
94.9847761
51
100.2012439
0
ARC
8
DEFAULT_255_2_778
10
42.7252001
20
32.5548133
40
10.1283148
50
89.9743075
51
95.0016302
0
ARC
8
DEFAULT_255_2_778
10
42.7354567
20
32.5944551
40
10.0886735
50
84.4546225
51
90.0324563
0
ARC
8
DEFAULT_255_2_778
10
42.8287883
20
33.5398847
40
9.1386498
50
79.2833312
51
84.4642408
0
ARC
8
DEFAULT_255_2_778
10
43.0599352
20
34.7489427
40
7.9076972
50
73.9301824
51
79.2999097
0
ARC
8
DEFAULT_255_2_778
10
43.4495872
20
36.0928418
40
6.5084522
50
68.129373
51
73.9515183
0
ARC
8
DEFAULT_255_2_778
10
43.9751772
20
37.3961341
40
5.1031733
50
61.6310789
51
68.1548578
0
ARC
8
DEFAULT_255_2_778
10
44.5850258
20
38.5198728
40
3.8246216
50
53.9156452
51
61.6710561
0
ARC
8
DEFAULT_255_2_778
10
45.2305997
20
39.3989159
40
2.7339977
50
43.8092025
51
53.9991798
0
ARC
8
DEFAULT_255_2_778
10
45.8522667
20
39.9888619
40
1.8769827
50
29.311839
51
43.9502507
0
ARC
8
DEFAULT_255_2_778
10
46.3628059
20
40.2671703
40
1.2955798
50
0.4712885
51
29.6331219
0
ARC
8
DEFAULT_255_2_778
10
46.339275
20
40.2927349
40
1.319151
50
327.4121964
51
359.3524808
0
ARC
8
DEFAULT_255_2_778
10
45.7628554
20
40.6361904
40
1.9899171
50
314.3581707
51
328.0188874
0
ARC
8
DEFAULT_255_2_778
10
45.1348724
20
41.2693846
40
2.8816961
50
304.7562364
51
314.4835304
0
ARC
8
DEFAULT_255_2_778
10
44.4857288
20
42.1964942
40
4.0134658
50
297.1842817
51
304.8246772
0
ARC
8
DEFAULT_255_2_778
10
43.8801992
20
43.3668545
40
5.3311903
50
290.8332906
51
297.2268436
0
ARC
8
DEFAULT_255_2_778
10
43.379832
20
44.6717742
40
6.72875
50
285.2777366
51
290.8635872
0
ARC
8
DEFAULT_255_2_778
10
43.0242574
20
45.9621342
40
8.0672023
50
280.1923102
51
285.29905
0
ARC
8
DEFAULT_255_2_778
10
42.8135478
20
47.1256258
40
9.2496191
50
274.9849304
51
280.2016116
0
ARC
8
DEFAULT_255_2_778
10
42.7342821
20
48.0000936
40
10.1276675
50
269.9743139
51
275.0017899
0
ARC
8
DEFAULT_255_2_778
10
42.7240229
20
47.961646
40
10.0892206
50
264.4547611
51
270.0324771
0
ARC
8
DEFAULT_255_2_778
10
42.6306702
20
47.0159706
40
9.1389501
50
259.2834975
51
264.464376
0
ARC
8
DEFAULT_255_2_778
10
42.3994647
20
45.8065805
40
7.9076603
50
253.9302017
51
259.3000721
0
ARC
8
DEFAULT_255_2_778
10
42.0097981
20
44.4626338
40
6.5083656
50
248.1292189
51
253.9515497
0
ARC
8
DEFAULT_255_2_778
10
41.48418
20
43.1592872
40
5.1030258
50
241.6306486
51
248.154727
0
ARC
8
DEFAULT_255_2_778
10
40.8743534
20
42.0356054
40
3.8245345
50
233.914871
51
241.6705988
0
ARC
8
DEFAULT_255_2_778
10
40.228815
20
41.156632
40
2.7339879
50
223.808104
51
233.9983552
0
ARC
8
DEFAULT_255_2_778
10
39.6071777
20
40.5667339
40
1.8770272
50
209.3104911
51
223.9490754
0
ARC
8
DEFAULT_255_2_778
10
39.0967133
20
40.2884786
40
1.2957153
50
180.4710137
51
209.6315652
0
LINE
8
DEFAULT_255_2_778
10
37.8010418
20
40.277827
11
37.8010418
21
40.277827
0
ARC
8
DEFAULT_255_2_778
10
25.4646582
20
32.7427534
40
1.2763022
50
147.3010383
51
179.3353644
0
ARC
8
DEFAULT_255_2_778
10
26.0292644
20
32.40575
40
1.9336064
50
134.4641351
51
147.9357336
0
ARC
8
DEFAULT_255_2_778
10
26.6432265
20
31.788568
40
2.8041462
50
124.9397052
51
134.5839737
0
ARC
8
DEFAULT_255_2_778
10
27.2879175
20
30.873562
40
3.9234532
50
117.3928341
51
125.0047202
0
ARC
8
DEFAULT_255_2_778
10
27.901634
20
29.6973538
40
5.250142
50
111.0417616
51
117.4336721
0
ARC
8
DEFAULT_255_2_778
10
28.4082883
20
28.3931121
40
6.6493306
50
105.7487903
51
111.0812634
0
ARC
8
DEFAULT_255_2_778
10
28.7865202
20
27.055654
40
8.0392416
50
100.4595043
51
105.7560622
0
ARC
8
DEFAULT_255_2_778
10
29.0207496
20
25.8000382
40
9.3165157
50
95.27059
51
100.4742162
0
ARC
8
DEFAULT_255_2_778
10
29.1117714
20
24.8407414
40
10.2801181
50
89.9700684
51
95.2846153
0
ARC
8
DEFAULT_255_2_778
10
29.1228896
20
24.8538069
40
10.267053
50
84.5514462
51
90.032076
0
ARC
8
DEFAULT_255_2_778
10
29.2170736
20
25.8247239
40
9.2915799
50
79.4673036
51
84.5611152
0
ARC
8
DEFAULT_255_2_778
10
29.4507549
20
27.068791
40
8.0257588
50
74.1982007
51
79.4839565
0
ARC
8
DEFAULT_255_2_778
10
29.8389325
20
28.4336246
40
6.6067984
50
68.6302383
51
74.2142416
0
ARC
8
DEFAULT_255_2_778
10
30.3618905
20
29.7620905
40
5.1791095
50
62.2108685
51
68.6626549
0
ARC
8
DEFAULT_255_2_778
10
30.979498
20
30.9280256
40
3.859703
50
54.5545247
51
62.2523969
0
ARC
8
DEFAULT_255_2_778
10
31.6303447
20
31.8358414
40
2.7426931
50
44.6292254
51
54.6329902
0
ARC
8
DEFAULT_255_2_778
10
32.2554331
20
32.4461985
40
1.8690581
50
30.3510551
51
44.7752411
0
ARC
8
DEFAULT_255_2_778
10
32.7849232
20
32.7456168
40
1.2608752
50
0.5426447
51
30.767664
0
ARC
8
DEFAULT_255_2_778
10
32.769656
20
32.7723684
40
1.2761717
50
327.2993766
51
359.3350618
0
ARC
8
DEFAULT_255_2_778
10
32.2049811
20
33.1094254
40
1.9335619
50
314.4629594
51
327.9344147
0
ARC
8
DEFAULT_255_2_778
10
31.5909666
20
33.7266847
40
2.8041933
50
304.9389304
51
314.582818
0
ARC
8
DEFAULT_255_2_778
10
30.9462615
20
34.6417357
40
3.9235452
50
297.3923852
51
305.0039563
0
ARC
8
DEFAULT_255_2_778
10
30.3325361
20
35.8179732
40
5.2502642
50
291.0416226
51
297.4332753
0
ARC
8
DEFAULT_255_2_778
10
29.8258817
20
37.1222302
40
6.6494669
50
285.7488417
51
291.081106
0
ARC
8
DEFAULT_255_2_778
10
29.4477074
20
38.4594861
40
8.0391677
50
280.4596117
51
285.7561015
0
ARC
8
DEFAULT_255_2_778
10
29.2135107
20
39.7148627
40
9.3162009
50
275.2707166
51
280.4743782
0
ARC
8
DEFAULT_255_2_778
10
29.1225103
20
40.6738296
40
10.2794728
50
269.9700772
51
275.2847812
0
ARC
8
DEFAULT_255_2_778
10
29.1113941
20
40.6621414
40
10.2677847
50
264.5516523
51
270.0320728
0
ARC
8
DEFAULT_255_2_778
10
29.0172038
20
39.691107
40
9.2921942
50
259.4677027
51
264.5613125
0
ARC
8
DEFAULT_255_2_778
10
28.7835199
20
38.4469477
40
8.0262818
50
254.1987969
51
259.484316
0
ARC
8
DEFAULT_255_2_778
10
28.3953117
20
37.081949
40
6.6071543
50
248.631049
51
254.2148305
0
ARC
8
DEFAULT_255_2_778
10
27.872342
20
35.7533898
40
5.1793741
50
242.2119284
51
248.6634313
0
ARC
8
DEFAULT_255_2_778
10
27.2546931
20
34.5873238
40
3.8598327
50
234.5558534
51
242.2534554
0
ARC
8
DEFAULT_255_2_778
10
26.6038139
20
33.6794183
40
2.742731
50
224.6308325
51
234.634326
0
ARC
8
DEFAULT_255_2_778
10
25.9786677
20
33.0689713
40
1.8689918
50
210.3526366
51
224.7768885
0
ARC
8
DEFAULT_255_2_778
10
25.4491186
20
32.7695038
40
1.2607334
50
180.5428882
51
210.7694745
0
LINE
8
DEFAULT_255_2_778
10
24.1884418
20
32.7575583
11
24.1884418
21
32.7575583
0
ARC
8
DEFAULT_255_2_778
10
39.1199682
20
32.8863143
40
1.3190107
50
147.4103731
51
179.352199
0
ARC
8
DEFAULT_255_2_778
10
39.6964514
20
32.5428006
40
1.9898609
50
134.3565562
51
148.0172718
0
ARC
8
DEFAULT_255_2_778
10
40.3244922
20
31.9095136
40
2.8817468
50
124.7549356
51
134.4819446
0
ARC
8
DEFAULT_255_2_778
10
40.9736865
20
30.9822821
40
4.0136457
50
117.1832936
51
124.8233438
0
ARC
8
DEFAULT_255_2_778
10
41.5792396
20
29.811817
40
5.3314741
50
110.8325423
51
117.2258067
0
ARC
8
DEFAULT_255_2_778
10
42.0795946
20
28.5068883
40
6.7290378
50
105.2771729
51
110.8628684
0
ARC
8
DEFAULT_255_2_778
10
42.4351856
20
27.2164411
40
8.0675784
50
100.1919193
51
105.2985286
0
ARC
8
DEFAULT_255_2_778
10
42.6459359
20
26.0526995
40
9.2502483
50
94.9847761
51
100.2012439
0
ARC
8
DEFAULT_255_2_778
10
42.7252001
20
25.1782133
40
10.1283148
50
89.9743075
51
95.0016302
0
ARC
8
DEFAULT_255_2_778
10
42.7354567
20
25.2178551
40
10.0886735
50
84.4546225
51
90.0324563
0
ARC
8
DEFAULT_255_2_778
10
42.8287883
20
26.1632847
40
9.1386498
50
79.2833312
51
84.4642408
0
ARC
8
DEFAULT_255_2_778
10
43.0599352
20
27.3723427
40
7.9076972
50
73.9301824
51
79.2999097
0
ARC
8
DEFAULT_255_2_778
10
43.4495872
20
28.7162418
40
6.5084522
50
68.129373
51
73.9515183
0
ARC
8
DEFAULT_255_2_778
10
43.9751772
20
30.0195341
40
5.1031733
50
61.6310789
51
68.1548578
0
ARC
8
DEFAULT_255_2_778
10
44.5850258
20
31.1432728
40
3.8246216
50
53.9156452
51
61.6710561
0
ARC
8
DEFAULT_255_2_778
10
45.2305997
20
32.0223159
40
2.7339977
50
43.8092025
51
53.9991798
0
ARC
8
DEFAULT_255_2_778
10
45.8522667
20
32.6122619
40
1.8769827
50
29.311839
51
43.9502507
0
ARC
8
DEFAULT_255_2_778
10
46.3628059
20
32.8905703
40
1.2955798
50
0.4712885
51
29.6331219
0
ARC
8
DEFAULT_255_2_778
10
46.339275
20
32.9161349
40
1.319151
50
327.4121964
51
359.3524808
0
ARC
8
DEFAULT_255_2_778
10
45.7628554
20
33.2595904
40
1.9899171
50
314.3581707
51
328.0188874
0
ARC
8
DEFAULT_255_2_778
10
45.1348724
20
33.8927846
40
2.8816961
50
304.7562364
51
314.4835304
0
ARC
8
DEFAULT_255_2_778
10
44.4857288
20
34.8198942
40
4.0134658
50
297.1842817
51
304.8246772
0
ARC
8
DEFAULT_255_2_778
10
43.8801992
20
35.9902545
40
5.3311903
50
290.8332906
51
297.2268436
0
ARC
8
DEFAULT_255_2_778
10
43.379832
20
37.2951742
40
6.72875
50
285.2777366
51
290.8635872
0
ARC
8
DEFAULT_255_2_778
10
43.0242574
20
38.5855342
40
8.0672023
50
280.1923102
51
285.29905
0
ARC
8
DEFAULT_255_2_778
10
42.8135478
20
39.7490258
40
9.2496191
50
274.9849304
51
280.2016116
0
ARC
8
DEFAULT_255_2_778
10
42.7342821
20
40.6234936
40
10.1276675
50
269.9743139
51
275.0017899
0
ARC
8
DEFAULT_255_2_778
10
42.7240229
20
40.585046
40
10.0892206
50
264.4547611
51
270.0324771
0
ARC
8
DEFAULT_255_2_778
10
42.6306702
20
39.6393706
40
9.1389501
50
259.2834975
51
264.464376
0
ARC
8
DEFAULT_255_2_778
10
42.3994647
20
38.4299805
40
7.9076603
50
253.9302017
51
259.3000721
0
ARC
8
DEFAULT_255_2_778
10
42.0097981
20
37.0860338
40
6.5083656
50
248.1292189
51
253.9515497
0
ARC
8
DEFAULT_255_2_778
10
41.48418
20
35.7826872
40
5.1030258
50
241.6306486
51
248.154727
0
ARC
8
DEFAULT_255_2_778
10
40.8743534
20
34.6590054
40
3.8245345
50
233.914871
51
241.6705988
0
ARC
8
DEFAULT_255_2_778
10
40.228815
20
33.780032
40
2.7339879
50
223.808104
51
233.9983552
0
ARC
8
DEFAULT_255_2_778
10
39.6071777
20
33.1901339
40
1.8770272
50
209.3104911
51
223.9490754
0
ARC
8
DEFAULT_255_2_778
10
39.0967133
20
32.9118786
40
1.2957153
50
180.4710137
51
209.6315652
0
LINE
8
DEFAULT_255_2_778
10
37.8010418
20
32.901227
11
37.8010418
21
32.901227
0
ARC
8
DEFAULT_255_2_778
10
25.4646582
20
25.1806534
40
1.2763022
50
147.3010383
51
179.3353644
0
ARC
8
DEFAULT_255_2_778
10
26.0292644
20
24.84365
40
1.9336064
50
134.4641351
51
147.9357336
0
ARC
8
DEFAULT_255_2_778
10
26.6432265
20
24.226468
40
2.8041462
50
124.9397052
51
134.5839737
0
ARC
8
DEFAULT_255_2_778
10
27.2879175
20
23.311462
40
3.9234532
50
117.3928341
51
125.0047202
0
ARC
8
DEFAULT_255_2_778
10
27.901634
20
22.1352538
40
5.250142
50
111.0417616
51
117.4336721
0
ARC
8
DEFAULT_255_2_778
10
28.4082883
20
20.8310121
40
6.6493306
50
105.7487903
51
111.0812634
0
ARC
8
DEFAULT_255_2_778
10
28.7865202
20
19.493554
40
8.0392416
50
100.4595043
51
105.7560622
0
ARC
8
DEFAULT_255_2_778
10
29.0207496
20
18.2379382
40
9.3165157
50
95.27059
51
100.4742162
0
ARC
8
DEFAULT_255_2_778
10
29.1117714
20
17.2786414
40
10.2801181
50
89.9700684
51
95.2846153
0
ARC
8
DEFAULT_255_2_778
10
29.1228896
20
17.2917069
40
10.267053
50
84.5514462
51
90.032076
0
ARC
8
DEFAULT_255_2_778
10
29.2170736
20
18.2626239
40
9.2915799
50
79.4673036
51
84.5611152
0
ARC
8
DEFAULT_255_2_778
10
29.4507549
20
19.506691
40
8.0257588
50
74.1982007
51
79.4839565
0
ARC
8
DEFAULT_255_2_778
10
29.8389325
20
20.8715246
40
6.6067984
50
68.6302383
51
74.2142416
0
ARC
8
DEFAULT_255_2_778
10
30.3618905
20
22.1999905
40
5.1791095
50
62.2108685
51
68.6626549
0
ARC
8
DEFAULT_255_2_778
10
30.979498
20
23.3659256
40
3.859703
50
54.5545247
51
62.2523969
0
ARC
8
DEFAULT_255_2_778
10
31.6303447
20
24.2737414
40
2.7426931
50
44.6292254
51
54.6329902
0
ARC
8
DEFAULT_255_2_778
10
32.2554331
20
24.8840985
40
1.8690581
50
30.3510551
51
44.7752411
0
ARC
8
DEFAULT_255_2_778
10
32.7849232
20
25.1835168
40
1.2608752
50
0.5426447
51
30.767664
0
ARC
8
DEFAULT_255_2_778
10
32.769656
20
25.2102684
40
1.2761717
50
327.2993766
51
359.3350618
0
ARC
8
DEFAULT_255_2_778
10
32.2049811
20
25.5473254
40
1.9335619
50
314.4629594
51
327.9344147
0
ARC
8
DEFAULT_255_2_778
10
31.5909666
20
26.1645847
40
2.8041933
50
304.9389304
51
314.582818
0
ARC
8
DEFAULT_255_2_778
10
30.9462615
20
27.0796357
40
3.9235452
50
297.3923852
51
305.0039563
0
ARC
8
DEFAULT_255_2_778
10
30.3325361
20
28.2558732
40
5.2502642
50
291.0416226
51
297.4332753
0
ARC
8
DEFAULT_255_2_778
10
29.8258817
20
29.5601302
40
6.6494669
50
285.7488417
51
291.081106
0
ARC
8
DEFAULT_255_2_778
10
29.4477074
20
30.8973861
40
8.0391677
50
280.4596117
51
285.7561015
0
ARC
8
DEFAULT_255_2_778
10
29.2135107
20
32.1527627
40
9.3162009
50
275.2707166
51
280.4743782
0
ARC
8
DEFAULT_255_2_778
10
29.1225103
20
33.1117296
40
10.2794728
50
269.9700772
51
275.2847812
0
ARC
8
DEFAULT_255_2_778
10
29.1113941
20
33.1000414
40
10.2677847
50
264.5516523
51
270.0320728
0
ARC
8
DEFAULT_255_2_778
10
29.0172038
20
32.129007
40
9.2921942
50
259.4677027
51
264.5613125
0
ARC
8
DEFAULT_255_2_778
10
28.7835199
20
30.8848477
40
8.0262818
50
254.1987969
51
259.484316
0
ARC
8
DEFAULT_255_2_778
10
28.3953117
20
29.519849
40
6.6071543
50
248.631049
51
254.2148305
0
ARC
8
DEFAULT_255_2_778
10
27.872342
20
28.1912898
40
5.1793741
50
242.2119284
51
248.6634313
0
ARC
8
DEFAULT_255_2_778
10
27.2546931
20
27.0252238
40
3.8598327
50
234.5558534
51
242.2534554
0
ARC
8
DEFAULT_255_2_778
10
26.6038139
20
26.1173183
40
2.742731
50
224.6308325
51
234.634326
0
ARC
8
DEFAULT_255_2_778
10
25.9786677
20
25.5068713
40
1.8689918
50
210.3526366
51
224.7768885
0
ARC
8
DEFAULT_255_2_778
10
25.4491186
20
25.2074038
40
1.2607334
50
180.5428882
51
210.7694745
0
LINE
8
DEFAULT_255_2_778
10
24.1884418
20
25.1954583
11
24.1884418
21
25.1954583
0
ARC
8
DEFAULT_255_2_778
10
39.1199682
20
25.5100143
40
1.3190107
50
147.4103731
51
179.352199
0
ARC
8
DEFAULT_255_2_778
10
39.6964514
20
25.1665006
40
1.9898609
50
134.3565562
51
148.0172718
0
ARC
8
DEFAULT_255_2_778
10
40.3244922
20
24.5332136
40
2.8817468
50
124.7549356
51
134.4819446
0
ARC
8
DEFAULT_255_2_778
10
40.9736865
20
23.6059821
40
4.0136457
50
117.1832936
51
124.8233438
0
ARC
8
DEFAULT_255_2_778
10
41.5792396
20
22.435517
40
5.3314741
50
110.8325423
51
117.2258067
0
ARC
8
DEFAULT_255_2_778
10
42.0795946
20
21.1305883
40
6.7290378
50
105.2771729
51
110.8628684
0
ARC
8
DEFAULT_255_2_778
10
42.4351856
20
19.8401411
40
8.0675784
50
100.1919193
51
105.2985286
0
ARC
8
DEFAULT_255_2_778
10
42.6459359
20
18.6763995
40
9.2502483
50
94.9847761
51
100.2012439
0
ARC
8
DEFAULT_255_2_778
10
42.7252001
20
17.8019133
40
10.1283148
50
89.9743075
51
95.0016302
0
ARC
8
DEFAULT_255_2_778
10
42.7354567
20
17.8415551
40
10.0886735
50
84.4546225
51
90.0324563
0
ARC
8
DEFAULT_255_2_778
10
42.8287883
20
18.7869847
40
9.1386498
50
79.2833312
51
84.4642408
0
ARC
8
DEFAULT_255_2_778
10
43.0599352
20
19.9960427
40
7.9076972
50
73.9301824
51
79.2999097
0
ARC
8
DEFAULT_255_2_778
10
43.4495872
20
21.3399418
40
6.5084522
50
68.129373
51
73.9515183
0
ARC
8
DEFAULT_255_2_778
10
43.9751772
20
22.6432341
40
5.1031733
50
61.6310789
51
68.1548578
0
ARC
8
DEFAULT_255_2_778
10
44.5850258
20
23.7669728
40
3.8246216
50
53.9156452
51
61.6710561
0
ARC
8
DEFAULT_255_2_778
10
45.2305997
20
24.6460159
40
2.7339977
50
43.8092025
51
53.9991798
0
ARC
8
DEFAULT_255_2_778
10
45.8522667
20
25.2359619
40
1.8769827
50
29.311839
51
43.9502507
0
ARC
8
DEFAULT_255_2_778
10
46.3628059
20
25.5142703
40
1.2955798
50
0.4712885
51
29.6331219
0
ARC
8
DEFAULT_255_2_778
10
46.339275
20
25.5398349
40
1.319151
50
327.4121964
51
359.3524808
0
ARC
8
DEFAULT_255_2_778
10
45.7628554
20
25.8832904
40
1.9899171
50
314.3581707
51
328.0188874
0
ARC
8
DEFAULT_255_2_778
10
45.1348724
20
26.5164846
40
2.8816961
50
304.7562364
51
314.4835304
0
ARC
8
DEFAULT_255_2_778
10
44.4857288
20
27.4435942
40
4.0134658
50
297.1842817
51
304.8246772
0
ARC
8
DEFAULT_255_2_778
10
43.8801992
20
28.6139545
40
5.3311903
50
290.8332906
51
297.2268436
0
ARC
8
DEFAULT_255_2_778
10
43.379832
20
29.9188742
40
6.72875
50
285.2777366
51
290.8635872
0
ARC
8
DEFAULT_255_2_778
10
43.0242574
20
31.2092342
40
8.0672023
50
280.1923102
51
285.29905
0
ARC
8
DEFAULT_255_2_778
10
42.8135478
20
32.3727258
40
9.2496191
50
274.9849304
51
280.2016116
0
ARC
8
DEFAULT_255_2_778
10
42.7342821
20
33.2471936
40
10.1276675
50
269.9743139
51
275.0017899
0
ARC
8
DEFAULT_255_2_778
10
42.7240229
20
33.208746
40
10.0892206
50
264.4547611
51
270.0324771
0
ARC
8
DEFAULT_255_2_778
10
42.6306702
20
32.2630706
40
9.1389501
50
259.2834975
51
264.464376
0
ARC
8
DEFAULT_255_2_778
10
42.3994647
20
31.0536805
40
7.9076603
50
253.9302017
51
259.3000721
0
ARC
8
DEFAULT_255_2_778
10
42.0097981
20
29.7097338
40
6.5083656
50
248.1292189
51
253.9515497
0
ARC
8
DEFAULT_255_2_778
10
41.48418
20
28.4063872
40
5.1030258
50
241.6306486
51
248.154727
0
ARC
8
DEFAULT_255_2_778
10
40.8743534
20
27.2827054
40
3.8245345
50
233.914871
51
241.6705988
0
ARC
8
DEFAULT_255_2_778
10
40.228815
20
26.403732
40
2.7339879
50
223.808104
51
233.9983552
0
ARC
8
DEFAULT_255_2_778
10
39.6071777
20
25.8138339
40
1.8770272
50
209.3104911
51
223.9490754
0
ARC
8
DEFAULT_255_2_778
10
39.0967133
20
25.5355786
40
1.2957153
50
180.4710137
51
209.6315652
0
LINE
8
DEFAULT_255_2_778
10
37.8010418
20
25.524927
11
37.8010418
21
25.524927
0
ARC
8
DEFAULT_255_2_778
10
25.4646582
20
18.0911534
40
1.2763022
50
147.3010383
51
179.3353644
0
ARC
8
DEFAULT_255_2_778
10
26.0292644
20
17.75415
40
1.9336064
50
134.4641351
51
147.9357336
0
ARC
8
DEFAULT_255_2_778
10
26.6432265
20
17.136968
40
2.8041462
50
124.9397052
51
134.5839737
0
ARC
8
DEFAULT_255_2_778
10
27.2879175
20
16.221962
40
3.9234532
50
117.3928341
51
125.0047202
0
ARC
8
DEFAULT_255_2_778
10
27.901634
20
15.0457538
40
5.250142
50
111.0417616
51
117.4336721
0
ARC
8
DEFAULT_255_2_778
10
28.4082883
20
13.7415121
40
6.6493306
50
105.7487903
51
111.0812634
0
ARC
8
DEFAULT_255_2_778
10
28.7865202
20
12.404054
40
8.0392416
50
100.4595043
51
105.7560622
0
ARC
8
DEFAULT_255_2_778
10
29.0207496
20
11.1484382
40
9.3165157
50
95.27059
51
100.4742162
0
ARC
8
DEFAULT_255_2_778
10
29.1117714
20
10.1891414
40
10.2801181
50
89.9700684
51
95.2846153
0
ARC
8
DEFAULT_255_2_778
10
29.1228896
20
10.2022069
40
10.267053
50
84.5514462
51
90.032076
0
ARC
8
DEFAULT_255_2_778
10
29.2170736
20
11.1731239
40
9.2915799
50
79.4673036
51
84.5611152
0
ARC
8
DEFAULT_255_2_778
10
29.4507549
20
12.417191
40
8.0257588
50
74.1982007
51
79.4839565
0
ARC
8
DEFAULT_255_2_778
10
29.8389325
20
13.7820246
40
6.6067984
50
68.6302383
51
74.2142416
0
ARC
8
DEFAULT_255_2_778
10
30.3618905
20
15.1104905
40
5.1791095
50
62.2108685
51
68.6626549
0
ARC
8
DEFAULT_255_2_778
10
30.979498
20
16.2764256
40
3.859703
50
54.5545247
51
62.2523969
0
ARC
8
DEFAULT_255_2_778
10
31.6303447
20
17.1842414
40
2.7426931
50
44.6292254
51
54.6329902
0
ARC
8
DEFAULT_255_2_778
10
32.2554331
20
17.7945985
40
1.8690581
50
30.3510551
51
44.7752411
0
ARC
8
DEFAULT_255_2_778
10
32.7849232
20
18.0940168
40
1.2608752
50
0.5426447
51
30.767664
0
ARC
8
DEFAULT_255_2_778
10
32.769656
20
18.1207684
40
1.2761717
50
327.2993766
51
359.3350618
0
ARC
8
DEFAULT_255_2_778
10
32.2049811
20
18.4578254
40
1.9335619
50
314.4629594
51
327.9344147
0
ARC
8
DEFAULT_255_2_778
10
31.5909666
20
19.0750847
40
2.8041933
50
304.9389304
51
314.582818
0
ARC
8
DEFAULT_255_2_778
10
30.9462615
20
19.9901357
40
3.9235452
50
297.3923852
51
305.0039563
0
ARC
8
DEFAULT_255_2_778
10
30.3325361
20
21.1663732
40
5.2502642
50
291.0416226
51
297.4332753
0
ARC
8
DEFAULT_255_2_778
10
29.8258817
20
22.4706302
40
6.6494669
50
285.7488417
51
291.081106
0
ARC
8
DEFAULT_255_2_778
10
29.4477074
20
23.8078861
40
8.0391677
50
280.4596117
51
285.7561015
0
ARC
8
DEFAULT_255_2_778
10
29.2135107
20
25.0632627
40
9.3162009
50
275.2707166
51
280.4743782
0
ARC
8
DEFAULT_255_2_778
10
29.1225103
20
26.0222296
40
10.2794728
50
269.9700772
51
275.2847812
0
ARC
8
DEFAULT_255_2_778
10
29.1113941
20
26.0105414
40
10.2677847
50
264.5516523
51
270.0320728
0
ARC
8
DEFAULT_255_2_778
10
29.0172038
20
25.039507
40
9.2921942
50
259.4677027
51
264.5613125
0
ARC
8
DEFAULT_255_2_778
10
28.7835199
20
23.7953477
40
8.0262818
50
254.1987969
51
259.484316
0
ARC
8
DEFAULT_255_2_778
10
28.3953117
20
22.430349
40
6.6071543
50
248.631049
51
254.2148305
0
ARC
8
DEFAULT_255_2_778
10
27.872342
20
21.1017898
40
5.1793741
50
242.2119284
51
248.6634313
0
ARC
8
DEFAULT_255_2_778
10
27.2546931
20
19.9357238
40
3.8598327
50
234.5558534
51
242.2534554
0
ARC
8
DEFAULT_255_2_778
10
26.6038139
20
19.0278183
40
2.742731
50
224.6308325
51
234.634326
0
ARC
8
DEFAULT_255_2_778
10
25.9786677
20
18.4173713
40
1.8689918
50
210.3526366
51
224.7768885
0
ARC
8
DEFAULT_255_2_778
10
25.4491186
20
18.1179038
40
1.2607334
50
180.5428882
51
210.7694745
0
LINE
8
DEFAULT_255_2_778
10
24.1884418
20
18.1059583
11
24.1884418
21
18.1059583
0
ARC
8
DEFAULT_255_2_778
10
39.1199682
20
18.1334143
40
1.3190107
50
147.4103731
51
179.352199
0
ARC
8
DEFAULT_255_2_778
10
39.6964514
20
17.7899006
40
1.9898609
50
134.3565562
51
148.0172718
0
ARC
8
DEFAULT_255_2_778
10
40.3244922
20
17.1566136
40
2.8817468
50
124.7549356
51
134.4819446
0
ARC
8
DEFAULT_255_2_778
10
40.9736865
20
16.2293821
40
4.0136457
50
117.1832936
51
124.8233438
0
ARC
8
DEFAULT_255_2_778
10
41.5792396
20
15.058917
40
5.3314741
50
110.8325423
51
117.2258067
0
ARC
8
DEFAULT_255_2_778
10
42.0795946
20
13.7539883
40
6.7290378
50
105.2771729
51
110.8628684
0
ARC
8
DEFAULT_255_2_778
10
42.4351856
20
12.4635411
40
8.0675784
50
100.1919193
51
105.2985286
0
ARC
8
DEFAULT_255_2_778
10
42.6459359
20
11.2997995
40
9.2502483
50
94.9847761
51
100.2012439
0
ARC
8
DEFAULT_255_2_778
10
42.7252001
20
10.4253133
40
10.1283148
50
89.9743075
51
95.0016302
0
ARC
8
DEFAULT_255_2_778
10
42.7354567
20
10.4649551
40
10.0886735
50
84.4546225
51
90.0324563
0
ARC
8
DEFAULT_255_2_778
10
42.8287883
20
11.4103847
40
9.1386498
50
79.2833312
51
84.4642408
0
ARC
8
DEFAULT_255_2_778
10
43.0599352
20
12.6194427
40
7.9076972
50
73.9301824
51
79.2999097
0
ARC
8
DEFAULT_255_2_778
10
43.4495872
20
13.9633418
40
6.5084522
50
68.129373
51
73.9515183
0
ARC
8
DEFAULT_255_2_778
10
43.9751772
20
15.2666341
40
5.1031733
50
61.6310789
51
68.1548578
0
ARC
8
DEFAULT_255_2_778
10
44.5850258
20
16.3903728
40
3.8246216
50
53.9156452
51
61.6710561
0
ARC
8
DEFAULT_255_2_778
10
45.2305997
20
17.2694159
40
2.7339977
50
43.8092025
51
53.9991798
0
ARC
8
DEFAULT_255_2_778
10
45.8522667
20
17.8593619
40
1.8769827
50
29.311839
51
43.9502507
0
ARC
8
DEFAULT_255_2_778
10
46.3628059
20
18.1376703
40
1.2955798
50
0.4712885
51
29.6331219
0
ARC
8
DEFAULT_255_2_778
10
46.339275
20
18.1632349
40
1.319151
50
327.4121964
51
359.3524808
0
ARC
8
DEFAULT_255_2_778
10
45.7628554
20
18.5066904
40
1.9899171
50
314.3581707
51
328.0188874
0
ARC
8
DEFAULT_255_2_778
10
45.1348724
20
19.1398846
40
2.8816961
50
304.7562364
51
314.4835304
0
ARC
8
DEFAULT_255_2_778
10
44.4857288
20
20.0669942
40
4.0134658
50
297.1842817
51
304.8246772
0
ARC
8
DEFAULT_255_2_778
10
43.8801992
20
21.2373545
40
5.3311903
50
290.8332906
51
297.2268436
0
ARC
8
DEFAULT_255_2_778
10
43.379832
20
22.5422742
40
6.72875
50
285.2777366
51
290.8635872
0
ARC
8
DEFAULT_255_2_778
10
43.0242574
20
23.8326342
40
8.0672023
50
280.1923102
51
285.29905
0
ARC
8
DEFAULT_255_2_778
10
42.8135478
20
24.9961258
40
9.2496191
50
274.9849304
51
280.2016116
0
ARC
8
DEFAULT_255_2_778
10
42.7342821
20
25.8705936
40
10.1276675
50
269.9743139
51
275.0017899
0
ARC
8
DEFAULT_255_2_778
10
42.7240229
20
25.832146
40
10.0892206
50
264.4547611
51
270.0324771
0
ARC
8
DEFAULT_255_2_778
10
42.6306702
20
24.8864706
40
9.1389501
50
259.2834975
51
264.464376
0
ARC
8
DEFAULT_255_2_778
10
42.3994647
20
23.6770805
40
7.9076603
50
253.9302017
51
259.3000721
0
ARC
8
DEFAULT_255_2_778
10
42.0097981
20
22.3331338
40
6.5083656
50
248.1292189
51
253.9515497
0
ARC
8
DEFAULT_255_2_778
10
41.48418
20
21.0297872
40
5.1030258
50
241.6306486
51
248.154727
0
ARC
8
DEFAULT_255_2_778
10
40.8743534
20
19.9061054
40
3.8245345
50
233.914871
51
241.6705988
0
ARC
8
DEFAULT_255_2_778
10
40.228815
20
19.027132
40
2.7339879
50
223.808104
51
233.9983552
0
ARC
8
DEFAULT_255_2_778
10
39.6071777
20
18.4372339
40
1.8770272
50
209.3104911
51
223.9490754
0
ARC
8
DEFAULT_255_2_778
10
39.0967133
20
18.1589786
40
1.2957153
50
180.4710137
51
209.6315652
0
LINE
8
DEFAULT_255_2_778
10
37.8010418
20
18.148327
11
37.8010418
21
18.148327
0
ENDSEC
0
EOF