0
SECTION
2
HEADER
9
$MEASUREMENT
70
1
0
ENDSEC
0
SECTION
2
TABLES
0
TABLE
2
LTYPE
0
LTYPE
72
65
70
64
2
CONTINUOUS
3
______
73
0
40
0
0
ENDTAB
0
TABLE
2
LAYER
0
LAYER
2
DEFAULT_255_2_778
70
0
62
255
6
CONTINUOUS
0
LAYER
2
DEFAULT_255_1_388
70
0
62
255
6
CONTINUOUS
0
ENDTAB
0
ENDSEC
0
SECTION
2
ENTITIES
0
ARC
8
DEFAULT_255_2_778
10
3.5700693
20
51.9926534
40
0.7914215
50
129.1312896
51
180.1450914
0
ARC
8
DEFAULT_255_2_778
10
3.5703345
20
51.9931405
40
0.7912112
50
89.854026
51
129.1684493
0
ARC
8
DEFAULT_255_2_778
10
25.7993937
20
51.992827
40
0.7915249
50
39.4792447
51
90.147911
0
ARC
8
DEFAULT_255_2_778
10
25.7999935
20
51.9926737
40
0.7911595
50
359.8533901
51
39.5154338
0
ARC
8
DEFAULT_255_2_778
10
25.7996693
20
-1.9863989
40
0.7914836
50
309.4761667
51
0.1482649
0
ARC
8
DEFAULT_255_2_778
10
25.799398
20
-1.98683
40
0.7913235
50
269.8517415
51
309.511178
0
ARC
8
DEFAULT_255_2_778
10
3.570342
20
-1.9867718
40
0.7913815
50
219.1282118
51
270.1454017
0
ARC
8
DEFAULT_255_2_778
10
3.5700247
20
-1.9863893
40
0.7913769
50
179.8524075
51
219.1641908
0
LINE
8
DEFAULT_255_2_778
10
3.5723503
20
52.7843492
11
25.7973503
21
52.7843492
0
LINE
8
DEFAULT_255_2_778
10
26.5911503
20
51.9906492
11
26.5911503
21
-1.9843508
0
LINE
8
DEFAULT_255_2_778
10
25.7973503
20
-2.7781508
11
3.5723503
21
-2.7781508
0
LINE
8
DEFAULT_255_2_778
10
2.7786503
20
-1.9843508
11
2.7786503
21
51.9906492
0
LINE
8
DEFAULT_255_1_388
10
11.8411094
20
-0.1247683
11
11.5311868
21
-0.1247683
0
LINE
8
DEFAULT_255_1_388
10
11.5311868
20
-0.1247683
11
11.5311868
21
-0.6398
0
LINE
8
DEFAULT_255_1_388
10
11.5311868
20
-0.6398
11
11.3577024
21
-0.6398
0
LINE
8
DEFAULT_255_1_388
10
11.3577024
20
-0.6398
11
11.3577024
21
0.6757898
0
LINE
8
DEFAULT_255_1_388
10
11.3577024
20
0.6757898
11
11.8429165
21
0.6757898
0
LINE
8
DEFAULT_255_1_388
10
11.5311868
20
0.5330267
11
11.5311868
21
0.0170914
0
LINE
8
DEFAULT_255_1_388
10
11.5311868
20
0.0170914
11
11.8429165
21
0.0170914
0
LINE
8
DEFAULT_255_1_388
10
11.8528557
20
0.5330267
11
11.5311868
21
0.5330267
0
ARC
8
DEFAULT_255_1_388
10
11.8476538
20
-0.0058666
40
0.6816729
50
78.8380084
51
90.398184
0
ARC
8
DEFAULT_255_1_388
10
11.8944569
20
0.2214796
40
0.449571
50
58.9633273
51
79.0810717
0
ARC
8
DEFAULT_255_1_388
10
11.9283953
20
0.2844823
40
0.3781049
50
48.0194715
51
58.4475592
0
ARC
8
DEFAULT_255_1_388
10
11.9383773
20
0.2940818
40
0.3642936
50
3.3374546
51
48.1766642
0
ARC
8
DEFAULT_255_1_388
10
11.799858
20
0.2741581
40
0.5038766
50
359.9483251
51
4.6822857
0
ARC
8
DEFAULT_255_1_388
10
11.8138503
20
0.2693779
40
0.4899031
50
346.1879032
51
0.5059221
0
ARC
8
DEFAULT_255_1_388
10
11.9667295
20
0.2296763
40
0.3319729
50
310.8832219
51
346.5426612
0
ARC
8
DEFAULT_255_1_388
10
11.9320143
20
0.2765853
40
0.3901853
50
286.6925305
51
310.228778
0
ARC
8
DEFAULT_255_1_388
10
11.8679873
20
0.4779585
40
0.6014737
50
274.6848219
51
287.0247342
0
ARC
8
DEFAULT_255_1_388
10
11.8426422
20
0.7264088
40
0.8511785
50
269.8968222
51
275.0192639
0
ARC
8
DEFAULT_255_1_388
10
11.8457415
20
0.4926144
40
0.4755314
50
269.6596206
51
279.4150542
0
ARC
8
DEFAULT_255_1_388
10
11.8746873
20
0.3248945
40
0.3053379
50
279.2050006
51
294.9901776
0
ARC
8
DEFAULT_255_1_388
10
11.9073508
20
0.2520353
40
0.2255036
50
295.2886769
51
311.2912669
0
ARC
8
DEFAULT_255_1_388
10
11.9153249
20
0.2401938
40
0.2113522
50
311.7853512
51
347.2860549
0
ARC
8
DEFAULT_255_1_388
10
11.804641
20
0.268643
40
0.3256011
50
346.6891629
51
0.1057086
0
ARC
8
DEFAULT_255_1_388
10
11.712387
20
0.2719247
40
0.417863
50
359.63239
51
359.9961329
0
ARC
8
DEFAULT_255_1_388
10
11.8288475
20
0.2746987
40
0.3014155
50
359.4673371
51
15.5931159
0
ARC
8
DEFAULT_255_1_388
10
11.8991538
20
0.2936937
40
0.2285918
50
15.7441779
51
46.620186
0
ARC
8
DEFAULT_255_1_388
10
11.8825298
20
0.2745361
40
0.2539359
50
46.8628482
51
75.6676625
0
ARC
8
DEFAULT_255_1_388
10
11.8494354
20
0.1554243
40
0.3775415
50
75.2763152
51
88.2916439
0
ARC
8
DEFAULT_255_1_388
10
11.8428354
20
0.0552097
40
0.4779221
50
87.8589087
51
88.7986197
0
LINE
8
DEFAULT_255_1_388
10
12.5251077
20
0.6757898
11
12.7491917
21
0.6757898
0
LINE
8
DEFAULT_255_1_388
10
12.7491917
20
0.6757898
11
13.1792883
21
-0.3976447
0
LINE
8
DEFAULT_255_1_388
10
13.1792883
20
-0.3976447
11
13.609385
21
0.6757898
0
LINE
8
DEFAULT_255_1_388
10
13.609385
20
0.6757898
11
13.8343726
21
0.6757898
0
LINE
8
DEFAULT_255_1_388
10
13.8343726
20
0.6757898
11
13.8343726
21
-0.6398
0
LINE
8
DEFAULT_255_1_388
10
13.8343726
20
-0.6398
11
13.6608882
21
-0.6398
0
LINE
8
DEFAULT_255_1_388
10
13.6608882
20
-0.6398
11
13.6608882
21
-0.127479
0
LINE
8
DEFAULT_255_1_388
10
13.6608882
20
-0.127479
11
13.6771523
21
0.4255025
0
LINE
8
DEFAULT_255_1_388
10
13.6771523
20
0.4255025
11
13.2452485
21
-0.6398
0
LINE
8
DEFAULT_255_1_388
10
13.2452485
20
-0.6398
11
13.1124246
21
-0.6398
0
LINE
8
DEFAULT_255_1_388
10
13.1124246
20
-0.6398
11
12.6814243
21
0.4227918
0
LINE
8
DEFAULT_255_1_388
10
12.6814243
20
0.4227918
11
12.698592
21
-0.127479
0
LINE
8
DEFAULT_255_1_388
10
12.698592
20
-0.127479
11
12.698592
21
-0.6398
0
LINE
8
DEFAULT_255_1_388
10
12.698592
20
-0.6398
11
12.5251077
21
-0.6398
0
LINE
8
DEFAULT_255_1_388
10
12.5251077
20
-0.6398
11
12.5251077
21
0.6757898
0
LINE
8
DEFAULT_255_1_388
10
14.3078403
20
-0.0145334
11
14.1741128
21
0.0198021
0
LINE
8
DEFAULT_255_1_388
10
14.1741128
20
0.0198021
11
14.2409766
21
0.6757898
0
LINE
8
DEFAULT_255_1_388
10
14.2409766
20
0.6757898
11
14.9150356
21
0.6757898
0
LINE
8
DEFAULT_255_1_388
10
14.9150356
20
0.6757898
11
14.9150356
21
0.5212803
0
LINE
8
DEFAULT_255_1_388
10
14.9150356
20
0.5212803
11
14.3828362
21
0.5212803
0
LINE
8
DEFAULT_255_1_388
10
14.3828362
20
0.5212803
11
14.3430793
21
0.1625652
0
LINE
8
DEFAULT_255_1_388
10
14.1271274
20
-0.2937348
11
14.2852512
21
-0.2937348
0
LINE
8
DEFAULT_255_1_388
10
14.352115
20
0.0216092
11
14.3078403
21
-0.0145334
0
ARC
8
DEFAULT_255_1_388
10
14.5517407
20
-0.1951759
40
0.4141476
50
93.7181681
51
120.253934
0
ARC
8
DEFAULT_255_1_388
10
14.5623459
20
-0.2860716
40
0.5055616
50
89.9660471
51
94.2495185
0
ARC
8
DEFAULT_255_1_388
10
14.5669281
20
-0.2197846
40
0.4392953
50
73.8045384
51
90.5585736
0
ARC
8
DEFAULT_255_1_388
10
14.5933539
20
-0.123248
40
0.3392225
50
41.3071072
51
73.543002
0
ARC
8
DEFAULT_255_1_388
10
14.5465359
20
-0.1635539
40
0.4009977
50
13.5075837
51
41.2174839
0
ARC
8
DEFAULT_255_1_388
10
14.3618456
20
-0.2119093
40
0.5918864
50
1.1330171
51
13.8830737
0
ARC
8
DEFAULT_255_1_388
10
14.2022102
20
-0.2204478
40
0.7516787
50
359.9925091
51
1.5431298
0
ARC
8
DEFAULT_255_1_388
10
14.3466717
20
-0.2250973
40
0.6072343
50
347.8572712
51
0.4294349
0
ARC
8
DEFAULT_255_1_388
10
14.5435852
20
-0.2697102
40
0.4053482
50
323.6727442
51
348.1674594
0
ARC
8
DEFAULT_255_1_388
10
14.5766816
20
-0.2898825
40
0.3667495
50
316.8171818
51
323.1486802
0
ARC
8
DEFAULT_255_1_388
10
14.583594
20
-0.2940388
40
0.358869
50
281.839603
51
316.5458142
0
ARC
8
DEFAULT_255_1_388
10
14.5413227
20
-0.1190637
40
0.5388223
50
269.5770964
51
282.4214641
0
ARC
8
DEFAULT_255_1_388
10
14.5333148
20
-0.143107
40
0.5147801
50
256.2425863
51
270.4486481
0
ARC
8
DEFAULT_255_1_388
10
14.4996676
20
-0.2780876
40
0.3756708
50
228.9024379
51
256.33135
0
ARC
8
DEFAULT_255_1_388
10
14.4913656
20
-0.2911946
40
0.360344
50
193.7536029
51
228.5272638
0
ARC
8
DEFAULT_255_1_388
10
14.6306221
20
-0.2503537
40
0.5053599
50
184.9244437
51
194.4976052
0
ARC
8
DEFAULT_255_1_388
10
14.6522862
20
-0.2463278
40
0.3700839
50
187.3596909
51
198.6733728
0
ARC
8
DEFAULT_255_1_388
10
14.5342106
20
-0.2872627
40
0.2451195
50
198.4453795
51
217.7945479
0
ARC
8
DEFAULT_255_1_388
10
14.5009278
20
-0.3108437
40
0.2043754
50
218.2887146
51
228.5613203
0
ARC
8
DEFAULT_255_1_388
10
14.5119285
20
-0.2960098
40
0.2227819
50
228.9652423
51
258.1237049
0
ARC
8
DEFAULT_255_1_388
10
14.5350723
20
-0.1969036
40
0.3245374
50
257.7260585
51
270.4013717
0
ARC
8
DEFAULT_255_1_388
10
14.5401221
20
-0.2469745
40
0.2744726
50
269.4204315
51
286.420998
0
ARC
8
DEFAULT_255_1_388
10
14.5568276
20
-0.3076295
40
0.2115721
50
286.7250065
51
320.6004665
0
ARC
8
DEFAULT_255_1_388
10
14.5137192
20
-0.2726473
40
0.2670878
50
320.6712228
51
344.5440474
0
ARC
8
DEFAULT_255_1_388
10
14.3835906
20
-0.2344606
40
0.4026927
50
344.241448
51
356.735803
0
ARC
8
DEFAULT_255_1_388
10
14.2432213
20
-0.2228344
40
0.5435085
50
356.3547471
51
0.0507222
0
ARC
8
DEFAULT_255_1_388
10
14.3934478
20
-0.2193188
40
0.3932934
50
359.5579289
51
12.9534322
0
ARC
8
DEFAULT_255_1_388
10
14.5121318
20
-0.1905414
40
0.2711827
50
12.6489751
51
41.608121
0
ARC
8
DEFAULT_255_1_388
10
14.5380478
20
-0.1685054
40
0.2371737
50
41.7851122
51
85.9892156
0
ARC
8
DEFAULT_255_1_388
10
14.5241788
20
-0.2600262
40
0.3295244
50
84.6965848
51
90.0672125
0
ARC
8
DEFAULT_255_1_388
10
14.5215355
20
-0.3351882
40
0.4046926
50
89.6804991
51
99.161352
0
ARC
8
DEFAULT_255_1_388
10
14.4984365
20
-0.1971152
40
0.2647044
50
98.9836248
51
113.8905702
0
ARC
8
DEFAULT_255_1_388
10
14.472604
20
-0.1361882
40
0.1985386
50
114.195234
51
127.3641866
0
ARC
8
DEFAULT_255_1_388
10
15.6167595
20
0.329572
40
0.3175098
50
338.8762533
51
0.5167111
0
ARC
8
DEFAULT_255_1_388
10
15.6357188
20
0.32446
40
0.2979894
50
325.8415285
51
338.4793574
0
ARC
8
DEFAULT_255_1_388
10
15.5917822
20
0.3549242
40
0.351452
50
296.7587686
51
325.7536481
0
ARC
8
DEFAULT_255_1_388
10
15.558945
20
0.4103363
40
0.4157374
50
296.0927901
51
297.3613472
0
ARC
8
DEFAULT_255_1_388
10
15.5883645
20
-0.3279407
40
0.395855
50
47.9007294
51
67.1948823
0
ARC
8
DEFAULT_255_1_388
10
15.6104287
20
-0.3002401
40
0.360516
50
35.2363914
51
47.551141
0
ARC
8
DEFAULT_255_1_388
10
15.6398691
20
-0.2805907
40
0.3251343
50
359.2759765
51
35.4014143
0
ARC
8
DEFAULT_255_1_388
10
15.5560618
20
-0.2888213
40
0.4089365
50
343.1293083
51
0.5775513
0
ARC
8
DEFAULT_255_1_388
10
15.6375731
20
-0.3112664
40
0.3244269
50
310.8496669
51
342.7449331
0
ARC
8
DEFAULT_255_1_388
10
15.5905606
20
-0.2576087
40
0.3957651
50
281.5472888
51
310.9170406
0
ARC
8
DEFAULT_255_1_388
10
15.550448
20
-0.0829186
40
0.5749654
50
269.619248
51
281.9789564
0
ARC
8
DEFAULT_255_1_388
10
15.5423258
20
-0.0828224
40
0.5750649
50
257.4585678
51
270.4285689
0
ARC
8
DEFAULT_255_1_388
10
15.4994778
20
-0.2632259
40
0.389671
50
228.7554326
51
257.8484789
0
ARC
8
DEFAULT_255_1_388
10
15.4646263
20
-0.3051772
40
0.335154
50
184.0104975
51
228.5071184
0
ARC
8
DEFAULT_255_1_388
10
15.5954656
20
-0.285257
40
0.4671891
50
179.9315832
51
185.3253753
0
ARC
8
DEFAULT_255_1_388
10
15.4631169
20
-0.2810408
40
0.33486
50
145.6796023
51
180.6259786
0
ARC
8
DEFAULT_255_1_388
10
15.4814935
20
-0.2938729
40
0.3572723
50
115.5537685
51
145.6415986
0
ARC
8
DEFAULT_255_1_388
10
15.5197978
20
-0.3624913
40
0.4357296
50
113.243307
51
116.2057839
0
ARC
8
DEFAULT_255_1_388
10
15.502663
20
0.3572379
40
0.3549126
50
222.9549744
51
244.1370481
0
ARC
8
DEFAULT_255_1_388
10
15.4889273
20
0.3418378
40
0.3343711
50
213.3436887
51
222.6274467
0
ARC
8
DEFAULT_255_1_388
10
15.4673343
20
0.3271653
40
0.3082678
50
180.431584
51
213.271499
0
ARC
8
DEFAULT_255_1_388
10
15.5308342
20
0.3324296
40
0.3718363
50
179.9991191
51
181.1690594
0
ARC
8
DEFAULT_255_1_388
10
15.5780798
20
0.3363072
40
0.4190996
50
164.6186169
51
180.529336
0
ARC
8
DEFAULT_255_1_388
10
15.4770446
20
0.363478
40
0.3144772
50
132.2455553
51
164.5090724
0
ARC
8
DEFAULT_255_1_388
10
15.5093425
20
0.326907
40
0.3632644
50
100.7053914
51
132.1386381
0
ARC
8
DEFAULT_255_1_388
10
15.5436486
20
0.1719118
40
0.5219578
50
89.6730358
51
101.2451698
0
ARC
8
DEFAULT_255_1_388
10
15.5506477
20
0.1915648
40
0.5023124
50
76.287748
51
90.4586006
0
ARC
8
DEFAULT_255_1_388
10
15.5850979
20
0.3290671
40
0.3605639
50
47.8240511
51
76.4266241
0
ARC
8
DEFAULT_255_1_388
10
15.6101363
20
0.3583599
40
0.3220463
50
6.9168387
51
47.6262497
0
ARC
8
DEFAULT_255_1_388
10
15.4766816
20
0.3337004
40
0.4575765
50
359.8415968
51
7.9697453
0
ARC
8
DEFAULT_255_1_388
10
15.5151086
20
-0.2783481
40
0.2827228
50
359.445363
51
16.9256873
0
ARC
8
DEFAULT_255_1_388
10
15.567852
20
-0.2638219
40
0.2280396
50
17.2920767
51
45.4630727
0
ARC
8
DEFAULT_255_1_388
10
15.5617655
20
-0.2690676
40
0.2360485
50
45.30305
51
83.1920945
0
ARC
8
DEFAULT_255_1_388
10
15.54564
20
-0.3592527
40
0.3275527
50
82.2612665
51
90.1434275
0
ARC
8
DEFAULT_255_1_388
10
15.5421676
20
-0.3330131
40
0.3013237
50
89.4956434
51
104.8580688
0
ARC
8
DEFAULT_255_1_388
10
15.5222866
20
-0.2576545
40
0.2233867
50
104.8856641
51
135.244616
0
ARC
8
DEFAULT_255_1_388
10
15.5278855
20
-0.2626648
40
0.2308906
50
135.3399546
51
172.1044062
0
ARC
8
DEFAULT_255_1_388
10
15.618638
20
-0.2800333
40
0.3232034
50
171.2645637
51
180.186429
0
ARC
8
DEFAULT_255_1_388
10
15.5996384
20
-0.2836574
40
0.304213
50
179.5154935
51
193.6464289
0
ARC
8
DEFAULT_255_1_388
10
15.507806
20
-0.3070527
40
0.209456
50
193.3540274
51
225.8258581
0
ARC
8
DEFAULT_255_1_388
10
15.5123932
20
-0.2990924
40
0.2183738
50
226.4180634
51
255.8552336
0
ARC
8
DEFAULT_255_1_388
10
15.5412399
20
-0.1937479
40
0.3275812
50
255.4654104
51
268.7987425
0
ARC
8
DEFAULT_255_1_388
10
15.5465575
20
-0.0995455
40
0.4218877
50
268.3449238
51
270.0094605
0
ARC
8
DEFAULT_255_1_388
10
15.5491809
20
-0.1763906
40
0.3450519
50
269.5759586
51
282.0820163
0
ARC
8
DEFAULT_255_1_388
10
15.5744845
20
-0.2882637
40
0.2303642
50
281.752014
51
306.6056188
0
ARC
8
DEFAULT_255_1_388
10
15.5855653
20
-0.3064198
40
0.2091906
50
307.1346085
51
314.027845
0
ARC
8
DEFAULT_255_1_388
10
15.5815165
20
-0.3034541
40
0.2141385
50
314.2552483
51
350.1694025
0
ARC
8
DEFAULT_255_1_388
10
15.4857402
20
-0.2826825
40
0.312082
50
349.4140529
51
0.2933014
0
ARC
8
DEFAULT_255_1_388
10
15.5442679
20
0.2976924
40
0.2588377
50
89.477747
51
105.729729
0
ARC
8
DEFAULT_255_1_388
10
15.5289599
20
0.3545367
40
0.1999733
50
105.9233417
51
135.1660906
0
ARC
8
DEFAULT_255_1_388
10
15.531263
20
0.3529412
40
0.2027322
50
135.3052302
51
168.9883645
0
ARC
8
DEFAULT_255_1_388
10
15.6243646
20
0.3315996
40
0.2982129
50
168.3801673
51
180.3602268
0
ARC
8
DEFAULT_255_1_388
10
15.5986763
20
0.3273622
40
0.2725291
50
179.5033122
51
194.9125571
0
ARC
8
DEFAULT_255_1_388
10
15.532817
20
0.3100427
40
0.204431
50
194.9720816
51
224.194444
0
ARC
8
DEFAULT_255_1_388
10
15.5296535
20
0.3074635
40
0.2003651
50
224.2962453
51
262.015664
0
ARC
8
DEFAULT_255_1_388
10
15.5456539
20
0.3897315
40
0.2840925
50
261.1245923
51
270.1962896
0
ARC
8
DEFAULT_255_1_388
10
15.5490021
20
0.3686859
40
0.2630559
50
269.4827276
51
285.0987215
0
ARC
8
DEFAULT_255_1_388
10
15.5663457
20
0.3036175
40
0.1957162
50
285.1585357
51
315.9484501
0
ARC
8
DEFAULT_255_1_388
10
15.556333
20
0.3128315
40
0.2093195
50
316.0413965
51
351.916092
0
ARC
8
DEFAULT_255_1_388
10
15.4738705
20
0.3287323
40
0.2932279
50
351.105835
51
0.1939062
0
ARC
8
DEFAULT_255_1_388
10
15.5034339
20
0.3321224
40
0.2636739
50
359.4789618
51
16.0678224
0
ARC
8
DEFAULT_255_1_388
10
15.5569811
20
0.3465721
40
0.2082215
50
16.3252067
51
44.7913869
0
ARC
8
DEFAULT_255_1_388
10
15.5549873
20
0.346632
40
0.2095992
50
44.3957814
51
88.2499162
0
ARC
8
DEFAULT_255_1_388
10
15.5467207
20
0.2778006
40
0.2787189
50
86.9833854
51
90.0192215
0
LINE
8
DEFAULT_255_1_388
10
17.0375085
20
-0.5033618
11
17.0375085
21
-0.6398
0
LINE
8
DEFAULT_255_1_388
10
17.0375085
20
-0.6398
11
16.1755081
21
-0.6398
0
LINE
8
DEFAULT_255_1_388
10
16.1755081
20
-0.6398
11
16.1755081
21
-0.5196259
0
LINE
8
DEFAULT_255_1_388
10
16.1755081
20
-0.5196259
11
16.6309045
21
-0.0136298
0
LINE
8
DEFAULT_255_1_388
10
16.3173677
20
0.2881607
11
16.1502083
21
0.2881607
0
LINE
8
DEFAULT_255_1_388
10
16.7293931
20
-0.121154
11
16.3770029
21
-0.5033618
0
LINE
8
DEFAULT_255_1_388
10
16.3770029
20
-0.5033618
11
17.0375085
21
-0.5033618
0
ARC
8
DEFAULT_255_1_388
10
15.1133105
20
1.3283983
40
2.0258655
50
318.5132526
51
320.7829045
0
ARC
8
DEFAULT_255_1_388
10
15.7081062
20
0.8442929
40
1.2589638
50
320.7372878
51
323.9739031
0
ARC
8
DEFAULT_255_1_388
10
16.1489994
20
0.5248554
40
0.7145141
50
323.8962701
51
328.64194
0
ARC
8
DEFAULT_255_1_388
10
16.3792251
20
0.3828545
40
0.4440242
50
328.8294576
51
331.7891185
0
ARC
8
DEFAULT_255_1_388
10
16.4914571
20
0.3249374
40
0.3177517
50
331.4254512
51
352.9365785
0
ARC
8
DEFAULT_255_1_388
10
16.5067571
20
0.321505
40
0.3021496
50
353.2257659
51
0.0166158
0
ARC
8
DEFAULT_255_1_388
10
16.5304332
20
0.3240894
40
0.2784847
50
359.486299
51
15.9343185
0
ARC
8
DEFAULT_255_1_388
10
16.5874599
20
0.3394269
40
0.2194403
50
16.1712913
51
43.5286088
0
ARC
8
DEFAULT_255_1_388
10
16.5961543
20
0.3481191
40
0.2071504
50
43.4417391
51
83.1661095
0
ARC
8
DEFAULT_255_1_388
10
16.5810704
20
0.2652316
40
0.2912888
50
82.160179
51
90.1505708
0
ARC
8
DEFAULT_255_1_388
10
16.5775186
20
0.2048279
40
0.3517025
50
89.5460741
51
102.5418361
0
ARC
8
DEFAULT_255_1_388
10
16.5501906
20
0.3207933
40
0.2325748
50
102.1738499
51
129.206123
0
ARC
8
DEFAULT_255_1_388
10
16.5413359
20
0.3347664
40
0.2161591
50
129.72865
51
135.753947
0
ARC
8
DEFAULT_255_1_388
10
16.5549841
20
0.3238728
40
0.2335433
50
136.1757367
51
166.3673339
0
ARC
8
DEFAULT_255_1_388
10
16.668253
20
0.2935148
40
0.3507873
50
165.9090694
51
178.8684636
0
ARC
8
DEFAULT_255_1_388
10
16.7658301
20
0.2882263
40
0.4484624
50
178.4391136
51
180.0083808
0
ARC
8
DEFAULT_255_1_388
10
16.6079003
20
0.2926197
40
0.4577138
50
163.2878482
51
180.5581842
0
ARC
8
DEFAULT_255_1_388
10
16.5177044
20
0.3174393
40
0.3641968
50
133.4540601
51
162.947111
0
ARC
8
DEFAULT_255_1_388
10
16.5377926
20
0.2960789
40
0.3935189
50
100.7869829
51
133.4382499
0
ARC
8
DEFAULT_255_1_388
10
16.5769171
20
0.1218399
40
0.5720313
50
89.660664
51
101.3702276
0
ARC
8
DEFAULT_255_1_388
10
16.584378
20
0.1287263
40
0.5651495
50
78.2172678
51
90.412935
0
ARC
8
DEFAULT_255_1_388
10
16.6243245
20
0.3114511
40
0.378122
50
55.9269121
51
78.4888449
0
ARC
8
DEFAULT_255_1_388
10
16.6463961
20
0.3495187
40
0.3342379
50
47.929771
51
55.4049217
0
ARC
8
DEFAULT_255_1_388
10
16.6578491
20
0.3611618
40
0.3179217
50
4.334829
51
48.0560205
0
ARC
8
DEFAULT_255_1_388
10
16.5346293
20
0.3420487
40
0.442341
50
359.9251713
51
5.5971671
0
ARC
8
DEFAULT_255_1_388
10
16.5828447
20
0.3483728
40
0.3941854
50
337.8914027
51
358.9967534
0
ARC
8
DEFAULT_255_1_388
10
16.2776017
20
0.4661295
40
0.7213271
50
326.9132501
51
338.3508308
0
ARC
8
DEFAULT_255_1_388
10
15.8292129
20
0.7535105
40
1.2538973
50
319.6471833
51
327.0959558
0
ARC
8
DEFAULT_255_1_388
10
15.3978787
20
1.109305
40
1.8129975
50
317.2588228
51
319.9045804
0
LINE
8
DEFAULT_255_1_388
10
12.4009637
20
46.3238
11
12.2753682
21
46.6671545
0
LINE
8
DEFAULT_255_1_388
10
12.2753682
20
46.6671545
11
11.7241939
21
46.6671545
0
LINE
8
DEFAULT_255_1_388
10
11.7241939
20
46.6671545
11
11.6004056
21
46.3238
0
LINE
8
DEFAULT_255_1_388
10
11.6004056
20
46.3238
11
11.4214998
21
46.3238
0
LINE
8
DEFAULT_255_1_388
10
11.4214998
20
46.3238
11
11.9238816
21
47.6393898
0
LINE
8
DEFAULT_255_1_388
10
11.9238816
20
47.6393898
11
12.0756805
21
47.6393898
0
LINE
8
DEFAULT_255_1_388
10
12.0756805
20
47.6393898
11
12.5789659
21
46.3238
0
LINE
8
DEFAULT_255_1_388
10
12.5789659
20
46.3238
11
12.4009637
21
46.3238
0
LINE
8
DEFAULT_255_1_388
10
11.9997811
20
47.4252451
11
11.7766006
21
46.8099177
0
LINE
8
DEFAULT_255_1_388
10
11.7766006
20
46.8099177
11
12.223865
21
46.8099177
0
LINE
8
DEFAULT_255_1_388
10
12.223865
20
46.8099177
11
11.9997811
21
47.4252451
0
LINE
8
DEFAULT_255_1_388
10
13.5394549
20
46.7412468
11
13.7138428
21
46.7412468
0
LINE
8
DEFAULT_255_1_388
10
12.7009471
20
46.9201525
11
12.7009471
21
47.0466516
0
LINE
8
DEFAULT_255_1_388
10
13.7138428
20
47.2165217
11
13.5394549
21
47.2165217
0
LINE
8
DEFAULT_255_1_388
10
12.875335
20
47.0421337
11
12.875335
21
46.9147312
0
ARC
8
DEFAULT_255_1_388
10
13.0972662
20
46.8084329
40
0.6202263
50
340.1774904
51
353.7812217
0
ARC
8
DEFAULT_255_1_388
10
13.2740515
20
46.7425893
40
0.4315926
50
311.4560052
51
340.4420756
0
ARC
8
DEFAULT_255_1_388
10
13.2703055
20
46.7550665
40
0.4434573
50
282.4332229
51
310.7514507
0
ARC
8
DEFAULT_255_1_388
10
13.2208873
20
46.9592703
40
0.6535262
50
269.9358869
51
282.8096729
0
ARC
8
DEFAULT_255_1_388
10
13.2150812
20
47.1105329
40
0.8048043
50
269.9995752
51
270.3612856
0
ARC
8
DEFAULT_255_1_388
10
13.2091302
20
46.8306781
40
0.5249831
50
250.7885263
51
270.6488451
0
ARC
8
DEFAULT_255_1_388
10
13.1902127
20
46.7589853
40
0.4510942
50
219.3628377
51
250.0611024
0
ARC
8
DEFAULT_255_1_388
10
13.2835001
20
46.8382653
40
0.5735046
50
193.5480293
51
219.5755675
0
ARC
8
DEFAULT_255_1_388
10
13.550321
20
46.907552
40
0.849146
50
181.1220183
51
193.8754971
0
ARC
8
DEFAULT_255_1_388
10
13.7826443
20
46.9199914
40
1.0816971
50
179.9914644
51
181.5398227
0
ARC
8
DEFAULT_255_1_388
10
13.5749754
20
47.0508586
40
0.8740384
50
169.5837606
51
180.275782
0
ARC
8
DEFAULT_255_1_388
10
13.3683102
20
47.0890439
40
0.6638751
50
155.0367033
51
169.6002779
0
ARC
8
DEFAULT_255_1_388
10
13.240556
20
47.1506336
40
0.5220662
50
136.7831557
51
155.2472983
0
ARC
8
DEFAULT_255_1_388
10
13.1967351
20
47.1878577
40
0.4646502
50
121.7633063
51
136.4281161
0
ARC
8
DEFAULT_255_1_388
10
13.2119191
20
47.1598049
40
0.4964979
50
95.6460018
51
121.5489589
0
ARC
8
DEFAULT_255_1_388
10
13.2296165
20
47.0350704
40
0.6223912
50
89.9245727
51
96.1375919
0
ARC
8
DEFAULT_255_1_388
10
13.235287
20
47.0484721
40
0.6090084
50
76.6779212
51
90.456405
0
ARC
8
DEFAULT_255_1_388
10
13.2795683
20
47.227406
40
0.42469
50
47.4858803
51
76.9287069
0
ARC
8
DEFAULT_255_1_388
10
13.2630297
20
47.2161623
40
0.4441778
50
16.5424081
51
46.8934505
0
ARC
8
DEFAULT_255_1_388
10
13.0821347
20
47.1567265
40
0.6345318
50
5.4072971
51
17.0363711
0
ARC
8
DEFAULT_255_1_388
10
12.9203072
20
47.1307304
40
0.6250632
50
7.8888693
51
15.9242022
0
ARC
8
DEFAULT_255_1_388
10
13.1438057
20
47.1956309
40
0.3923364
50
15.7650676
51
27.9410069
0
ARC
8
DEFAULT_255_1_388
10
13.2680226
20
47.2621317
40
0.2514401
50
27.8167196
51
46.4007942
0
ARC
8
DEFAULT_255_1_388
10
13.2736068
20
47.2614882
40
0.2480958
50
47.4372362
51
75.0695672
0
ARC
8
DEFAULT_255_1_388
10
13.2388904
20
47.1406277
40
0.3738281
50
74.7009379
51
87.8124314
0
ARC
8
DEFAULT_255_1_388
10
13.2306521
20
47.0222659
40
0.4924321
50
87.3802571
51
90.0251599
0
ARC
8
DEFAULT_255_1_388
10
13.2263168
20
47.1542997
40
0.3604218
50
89.3451886
51
108.5744412
0
ARC
8
DEFAULT_255_1_388
10
13.210916
20
47.2120836
40
0.3007661
50
109.2998307
51
143.3037387
0
ARC
8
DEFAULT_255_1_388
10
13.296645
20
47.1461584
40
0.4089031
50
143.075267
51
163.1918576
0
ARC
8
DEFAULT_255_1_388
10
13.5162284
20
47.0768652
40
0.6391492
50
162.9375929
51
174.6208776
0
ARC
8
DEFAULT_255_1_388
10
13.8116666
20
47.0444711
40
0.9363344
50
174.342123
51
180.1430283
0
ARC
8
DEFAULT_255_1_388
10
13.7069207
20
46.9101117
40
0.8315986
50
179.6817261
51
189.150555
0
ARC
8
DEFAULT_255_1_388
10
13.4255956
20
46.8632559
40
0.5464044
50
188.9911061
51
203.5772363
0
ARC
8
DEFAULT_255_1_388
10
13.3041248
20
46.8128539
40
0.4149206
50
203.9075402
51
215.1312435
0
ARC
8
DEFAULT_255_1_388
10
13.2003046
20
46.7323907
40
0.2837747
50
213.9071511
51
263.8848919
0
ARC
8
DEFAULT_255_1_388
10
13.2144039
20
46.8206519
40
0.3730641
50
263.1757928
51
270.1031044
0
ARC
8
DEFAULT_255_1_388
10
13.2180119
20
46.9609511
40
0.5133712
50
269.6722503
51
279.0606936
0
ARC
8
DEFAULT_255_1_388
10
13.2480274
20
46.779515
40
0.3294739
50
278.8749101
51
293.6349581
0
ARC
8
DEFAULT_255_1_388
10
13.2840478
20
46.6949251
40
0.2375405
50
293.8553806
51
310.0518171
0
ARC
8
DEFAULT_255_1_388
10
13.2845987
20
46.6879021
40
0.2318463
50
311.0644687
51
332.0111037
0
ARC
8
DEFAULT_255_1_388
10
13.150466
20
46.7618702
40
0.3850112
50
331.6586806
51
343.2877423
0
ARC
8
DEFAULT_255_1_388
10
12.9184125
20
46.8331806
40
0.6277712
50
343.1446576
51
351.0103568
0
ARC
8
DEFAULT_255_1_388
10
12.7551449
20
46.8631873
40
0.7937327
50
350.71248
51
351.1626997
0
LINE
8
DEFAULT_255_1_388
10
14.1177361
20
46.9490666
11
13.9840086
21
46.9834021
0
LINE
8
DEFAULT_255_1_388
10
13.9840086
20
46.9834021
11
14.0508724
21
47.6393898
0
LINE
8
DEFAULT_255_1_388
10
14.0508724
20
47.6393898
11
14.7249314
21
47.6393898
0
LINE
8
DEFAULT_255_1_388
10
14.7249314
20
47.6393898
11
14.7249314
21
47.4848803
0
LINE
8
DEFAULT_255_1_388
10
14.7249314
20
47.4848803
11
14.192732
21
47.4848803
0
LINE
8
DEFAULT_255_1_388
10
14.192732
20
47.4848803
11
14.1529751
21
47.1261652
0
LINE
8
DEFAULT_255_1_388
10
13.9370232
20
46.6698652
11
14.095147
21
46.6698652
0
LINE
8
DEFAULT_255_1_388
10
14.1620108
20
46.9852092
11
14.1177361
21
46.9490666
0
ARC
8
DEFAULT_255_1_388
10
14.3616365
20
46.7684241
40
0.4141476
50
93.7181681
51
120.253934
0
ARC
8
DEFAULT_255_1_388
10
14.3722417
20
46.6775284
40
0.5055616
50
89.9660471
51
94.2495185
0
ARC
8
DEFAULT_255_1_388
10
14.3768239
20
46.7438154
40
0.4392953
50
73.8045384
51
90.5585736
0
ARC
8
DEFAULT_255_1_388
10
14.4032497
20
46.840352
40
0.3392225
50
41.3071072
51
73.543002
0
ARC
8
DEFAULT_255_1_388
10
14.3564317
20
46.8000461
40
0.4009977
50
13.5075837
51
41.2174839
0
ARC
8
DEFAULT_255_1_388
10
14.1717414
20
46.7516907
40
0.5918864
50
1.1330171
51
13.8830737
0
ARC
8
DEFAULT_255_1_388
10
14.012106
20
46.7431522
40
0.7516787
50
359.9925091
51
1.5431298
0
ARC
8
DEFAULT_255_1_388
10
14.1565675
20
46.7385027
40
0.6072343
50
347.8572712
51
0.4294349
0
ARC
8
DEFAULT_255_1_388
10
14.353481
20
46.6938898
40
0.4053482
50
323.6727442
51
348.1674594
0
ARC
8
DEFAULT_255_1_388
10
14.3865774
20
46.6737175
40
0.3667495
50
316.8171818
51
323.1486802
0
ARC
8
DEFAULT_255_1_388
10
14.3934898
20
46.6695612
40
0.358869
50
281.839603
51
316.5458142
0
ARC
8
DEFAULT_255_1_388
10
14.3512185
20
46.8445363
40
0.5388223
50
269.5770964
51
282.4214641
0
ARC
8
DEFAULT_255_1_388
10
14.3432106
20
46.820493
40
0.5147801
50
256.2425863
51
270.4486481
0
ARC
8
DEFAULT_255_1_388
10
14.3095634
20
46.6855124
40
0.3756708
50
228.9024379
51
256.33135
0
ARC
8
DEFAULT_255_1_388
10
14.3012614
20
46.6724054
40
0.360344
50
193.7536029
51
228.5272638
0
ARC
8
DEFAULT_255_1_388
10
14.4405179
20
46.7132463
40
0.5053599
50
184.9244437
51
194.4976052
0
ARC
8
DEFAULT_255_1_388
10
14.462182
20
46.7172722
40
0.3700839
50
187.3596909
51
198.6733728
0
ARC
8
DEFAULT_255_1_388
10
14.3441064
20
46.6763373
40
0.2451195
50
198.4453795
51
217.7945479
0
ARC
8
DEFAULT_255_1_388
10
14.3108236
20
46.6527563
40
0.2043754
50
218.2887146
51
228.5613203
0
ARC
8
DEFAULT_255_1_388
10
14.3218243
20
46.6675902
40
0.2227819
50
228.9652423
51
258.1237049
0
ARC
8
DEFAULT_255_1_388
10
14.3449681
20
46.7666964
40
0.3245374
50
257.7260585
51
270.4013717
0
ARC
8
DEFAULT_255_1_388
10
14.3500179
20
46.7166255
40
0.2744726
50
269.4204315
51
286.420998
0
ARC
8
DEFAULT_255_1_388
10
14.3667234
20
46.6559705
40
0.2115721
50
286.7250065
51
320.6004665
0
ARC
8
DEFAULT_255_1_388
10
14.323615
20
46.6909527
40
0.2670878
50
320.6712228
51
344.5440474
0
ARC
8
DEFAULT_255_1_388
10
14.1934864
20
46.7291394
40
0.4026927
50
344.241448
51
356.735803
0
ARC
8
DEFAULT_255_1_388
10
14.0531171
20
46.7407656
40
0.5435085
50
356.3547471
51
0.0507222
0
ARC
8
DEFAULT_255_1_388
10
14.2033436
20
46.7442812
40
0.3932934
50
359.5579289
51
12.9534322
0
ARC
8
DEFAULT_255_1_388
10
14.3220276
20
46.7730586
40
0.2711827
50
12.6489751
51
41.608121
0
ARC
8
DEFAULT_255_1_388
10
14.3479436
20
46.7950946
40
0.2371737
50
41.7851122
51
85.9892156
0
ARC
8
DEFAULT_255_1_388
10
14.3340746
20
46.7035738
40
0.3295244
50
84.6965848
51
90.0672125
0
ARC
8
DEFAULT_255_1_388
10
14.3314313
20
46.6284118
40
0.4046926
50
89.6804991
51
99.161352
0
ARC
8
DEFAULT_255_1_388
10
14.3083323
20
46.7664848
40
0.2647044
50
98.9836248
51
113.8905702
0
ARC
8
DEFAULT_255_1_388
10
14.2824998
20
46.8274118
40
0.1985386
50
114.195234
51
127.3641866
0
LINE
8
DEFAULT_255_1_388
10
15.7712591
20
47.101769
11
15.7712591
21
46.8849135
0
LINE
8
DEFAULT_255_1_388
10
14.9408833
20
46.8623244
11
14.9408833
21
47.0855048
0
LINE
8
DEFAULT_255_1_388
10
15.6040997
20
46.8397353
11
15.6040997
21
47.1135153
0
LINE
8
DEFAULT_255_1_388
10
15.1080428
20
47.1261652
11
15.1080428
21
46.8587102
0
ARC
8
DEFAULT_255_1_388
10
14.3934925
20
46.8794118
40
1.3777776
50
353.8440855
51
0.2287917
0
ARC
8
DEFAULT_255_1_388
10
14.9153942
20
46.8211414
40
0.852639
50
344.4934746
51
353.9763743
0
ARC
8
DEFAULT_255_1_388
10
15.2520749
20
46.7254191
40
0.5026273
50
329.2803599
51
344.7473406
0
ARC
8
DEFAULT_255_1_388
10
15.3636245
20
46.6642038
40
0.3754848
50
324.9361395
51
328.6153007
0
ARC
8
DEFAULT_255_1_388
10
15.4061895
20
46.6344586
40
0.3235566
50
280.5801797
51
324.9173226
0
ARC
8
DEFAULT_255_1_388
10
15.3610524
20
46.8224236
40
0.5167077
50
269.5979457
51
281.6732777
0
ARC
8
DEFAULT_255_1_388
10
15.3529427
20
46.8089113
40
0.5032026
50
256.6228565
51
270.5105488
0
ARC
8
DEFAULT_255_1_388
10
15.307717
20
46.6347345
40
0.3233092
50
215.8618351
51
257.2787793
0
ARC
8
DEFAULT_255_1_388
10
15.4225877
20
46.7118106
40
0.4615831
50
197.9695203
51
215.2622745
0
ARC
8
DEFAULT_255_1_388
10
15.7021552
20
46.8061641
40
0.7566307
50
187.8816486
51
198.2346584
0
ARC
8
DEFAULT_255_1_388
10
16.1474791
20
46.8704453
40
1.2065653
50
180.8977266
51
188.0054894
0
ARC
8
DEFAULT_255_1_388
10
16.4525004
20
46.88194
40
1.5117443
50
180.7434591
51
181.152202
0
ARC
8
DEFAULT_255_1_388
10
16.285
20
47.0909371
40
1.3441277
50
173.7674302
51
180.2315596
0
ARC
8
DEFAULT_255_1_388
10
15.7767869
20
47.1483779
40
0.8326847
50
164.3058537
51
173.9000553
0
ARC
8
DEFAULT_255_1_388
10
15.4491869
20
47.2427652
40
0.4917711
50
148.7922028
51
164.5682288
0
ARC
8
DEFAULT_255_1_388
10
15.3422607
20
47.3024457
40
0.3694204
50
144.5883979
51
148.1161588
0
ARC
8
DEFAULT_255_1_388
10
15.3035352
20
47.3294667
40
0.322202
50
101.6440149
51
144.5142619
0
ARC
8
DEFAULT_255_1_388
10
15.3513544
20
47.1394337
40
0.5180451
50
89.528284
51
102.5820197
0
ARC
8
DEFAULT_255_1_388
10
15.3602536
20
47.1350376
40
0.5224441
50
77.0437914
51
90.508231
0
ARC
8
DEFAULT_255_1_388
10
15.405479
20
47.3198272
40
0.3322297
50
48.2777708
51
77.4996087
0
ARC
8
DEFAULT_255_1_388
10
15.413653
20
47.3343557
40
0.315966
50
36.3141586
51
47.6307332
0
ARC
8
DEFAULT_255_1_388
10
15.3159252
20
47.2685159
40
0.4337313
50
18.2931065
51
35.6770203
0
ARC
8
DEFAULT_255_1_388
10
15.0298093
20
47.1703107
40
0.7362203
50
8.0246996
51
18.5605636
0
ARC
8
DEFAULT_255_1_388
10
14.5614448
20
47.1011432
40
1.2096583
50
1.127539
51
8.1718423
0
ARC
8
DEFAULT_255_1_388
10
14.1965582
20
47.0868374
40
1.5747719
50
0.5432713
51
1.38669
0
ARC
8
DEFAULT_255_1_388
10
14.402296
20
47.1175163
40
1.2018103
50
359.8092569
51
4.9408001
0
ARC
8
DEFAULT_255_1_388
10
14.8759542
20
47.15979
40
0.7262727
50
4.8364937
51
12.2906017
0
ARC
8
DEFAULT_255_1_388
10
15.1859007
20
47.2288485
40
0.4087324
50
12.0806994
51
23.8171225
0
ARC
8
DEFAULT_255_1_388
10
15.3179403
20
47.2847508
40
0.2653719
50
24.2874621
51
31.3934353
0
ARC
8
DEFAULT_255_1_388
10
15.3769838
20
47.3233822
40
0.1948607
50
30.7407708
51
82.4658033
0
ARC
8
DEFAULT_255_1_388
10
15.3567499
20
47.2240017
40
0.2961198
50
81.1057101
51
90.2187368
0
ARC
8
DEFAULT_255_1_388
10
15.3527311
20
47.2530421
40
0.2670929
50
89.380395
51
105.6763916
0
ARC
8
DEFAULT_255_1_388
10
15.3321033
20
47.328032
40
0.1893189
50
105.7980655
51
149.7387869
0
ARC
8
DEFAULT_255_1_388
10
15.4518173
20
47.2560719
40
0.3289892
50
149.4208441
51
163.628295
0
ARC
8
DEFAULT_255_1_388
10
15.6870403
20
47.1843345
40
0.5749004
50
163.3764549
51
172.141138
0
ARC
8
DEFAULT_255_1_388
10
16.0583124
20
47.1311582
40
0.9499585
50
172.0258462
51
178.0705453
0
ARC
8
DEFAULT_255_1_388
10
16.4004677
20
47.1149682
40
1.2924734
50
177.8639301
51
179.5036263
0
ARC
8
DEFAULT_255_1_388
10
16.2785696
20
46.8546151
40
1.170534
50
179.7995545
51
185.246089
0
ARC
8
DEFAULT_255_1_388
10
15.8237289
20
46.8115404
40
0.7136613
50
185.1411911
51
193.0082205
0
ARC
8
DEFAULT_255_1_388
10
15.5263549
20
46.7412441
40
0.4080987
50
192.7897338
51
205.2507384
0
ARC
8
DEFAULT_255_1_388
10
15.4085759
20
46.6886538
40
0.2791522
50
205.8001921
51
211.2545876
0
ARC
8
DEFAULT_255_1_388
10
15.3497299
20
46.6492132
40
0.2084074
50
210.3789935
51
238.4007996
0
ARC
8
DEFAULT_255_1_388
10
15.3475385
20
46.6544786
40
0.2117943
50
239.6521916
51
265.9793852
0
ARC
8
DEFAULT_255_1_388
10
15.3571233
20
46.7301358
40
0.2879689
50
265.1324455
51
270.0603288
0
ARC
8
DEFAULT_255_1_388
10
15.3603611
20
46.6936418
40
0.2514919
50
269.3314378
51
287.2180039
0
ARC
8
DEFAULT_255_1_388
10
15.3758693
20
46.6370291
40
0.1928357
50
287.7957942
51
329.0808983
0
ARC
8
DEFAULT_255_1_388
10
15.268145
20
46.7042651
40
0.319808
50
328.6635261
51
343.3325043
0
ARC
8
DEFAULT_255_1_388
10
15.0236908
20
46.7804195
40
0.5758408
50
343.0498092
51
351.9392499
0
ARC
8
DEFAULT_255_1_388
10
14.633623
20
46.8379205
40
0.9701202
50
351.8071632
51
357.7957897
0
ARC
8
DEFAULT_255_1_388
10
14.2701707
20
46.8567724
40
1.3340376
50
357.5870923
51
359.2682493
0
LINE
8
DEFAULT_255_1_388
10
16.8103582
20
47.101769
11
16.8103582
21
46.8849135
0
LINE
8
DEFAULT_255_1_388
10
15.9799825
20
46.8623244
11
15.9799825
21
47.0855048
0
LINE
8
DEFAULT_255_1_388
10
16.6431988
20
46.8397353
11
16.6431988
21
47.1135153
0
LINE
8
DEFAULT_255_1_388
10
16.1471419
20
47.1261652
11
16.1471419
21
46.8587102
0
ARC
8
DEFAULT_255_1_388
10
15.4325916
20
46.8794118
40
1.3777776
50
353.8440855
51
0.2287917
0
ARC
8
DEFAULT_255_1_388
10
15.9544933
20
46.8211414
40
0.852639
50
344.4934746
51
353.9763743
0
ARC
8
DEFAULT_255_1_388
10
16.2911741
20
46.7254191
40
0.5026273
50
329.2803599
51
344.7473406
0
ARC
8
DEFAULT_255_1_388
10
16.4027236
20
46.6642038
40
0.3754848
50
324.9361395
51
328.6153007
0
ARC
8
DEFAULT_255_1_388
10
16.4452886
20
46.6344586
40
0.3235566
50
280.5801797
51
324.9173226
0
ARC
8
DEFAULT_255_1_388
10
16.4001515
20
46.8224236
40
0.5167077
50
269.5979457
51
281.6732777
0
ARC
8
DEFAULT_255_1_388
10
16.3920418
20
46.8089113
40
0.5032026
50
256.6228565
51
270.5105488
0
ARC
8
DEFAULT_255_1_388
10
16.3468161
20
46.6347345
40
0.3233092
50
215.8618351
51
257.2787793
0
ARC
8
DEFAULT_255_1_388
10
16.4616868
20
46.7118106
40
0.4615831
50
197.9695203
51
215.2622745
0
ARC
8
DEFAULT_255_1_388
10
16.7412544
20
46.8061641
40
0.7566307
50
187.8816486
51
198.2346584
0
ARC
8
DEFAULT_255_1_388
10
17.1865782
20
46.8704453
40
1.2065653
50
180.8977266
51
188.0054894
0
ARC
8
DEFAULT_255_1_388
10
17.4915996
20
46.88194
40
1.5117443
50
180.7434591
51
181.152202
0
ARC
8
DEFAULT_255_1_388
10
17.3240992
20
47.0909371
40
1.3441277
50
173.7674302
51
180.2315596
0
ARC
8
DEFAULT_255_1_388
10
16.815886
20
47.1483779
40
0.8326847
50
164.3058537
51
173.9000553
0
ARC
8
DEFAULT_255_1_388
10
16.488286
20
47.2427652
40
0.4917711
50
148.7922028
51
164.5682288
0
ARC
8
DEFAULT_255_1_388
10
16.3813598
20
47.3024457
40
0.3694204
50
144.5883979
51
148.1161588
0
ARC
8
DEFAULT_255_1_388
10
16.3426343
20
47.3294667
40
0.322202
50
101.6440149
51
144.5142619
0
ARC
8
DEFAULT_255_1_388
10
16.3904535
20
47.1394337
40
0.5180451
50
89.528284
51
102.5820197
0
ARC
8
DEFAULT_255_1_388
10
16.3993527
20
47.1350376
40
0.5224441
50
77.0437914
51
90.508231
0
ARC
8
DEFAULT_255_1_388
10
16.4445781
20
47.3198272
40
0.3322297
50
48.2777708
51
77.4996087
0
ARC
8
DEFAULT_255_1_388
10
16.4527521
20
47.3343557
40
0.315966
50
36.3141586
51
47.6307332
0
ARC
8
DEFAULT_255_1_388
10
16.3550243
20
47.2685159
40
0.4337313
50
18.2931065
51
35.6770203
0
ARC
8
DEFAULT_255_1_388
10
16.0689084
20
47.1703107
40
0.7362203
50
8.0246996
51
18.5605636
0
ARC
8
DEFAULT_255_1_388
10
15.6005439
20
47.1011432
40
1.2096583
50
1.127539
51
8.1718423
0
ARC
8
DEFAULT_255_1_388
10
15.2356573
20
47.0868374
40
1.5747719
50
0.5432713
51
1.38669
0
ARC
8
DEFAULT_255_1_388
10
15.4413952
20
47.1175163
40
1.2018103
50
359.8092569
51
4.9408001
0
ARC
8
DEFAULT_255_1_388
10
15.9150533
20
47.15979
40
0.7262727
50
4.8364937
51
12.2906017
0
ARC
8
DEFAULT_255_1_388
10
16.2249998
20
47.2288485
40
0.4087324
50
12.0806994
51
23.8171225
0
ARC
8
DEFAULT_255_1_388
10
16.3570394
20
47.2847508
40
0.2653719
50
24.2874621
51
31.3934353
0
ARC
8
DEFAULT_255_1_388
10
16.416083
20
47.3233822
40
0.1948607
50
30.7407708
51
82.4658033
0
ARC
8
DEFAULT_255_1_388
10
16.395849
20
47.2240017
40
0.2961198
50
81.1057101
51
90.2187368
0
ARC
8
DEFAULT_255_1_388
10
16.3918302
20
47.2530421
40
0.2670929
50
89.380395
51
105.6763916
0
ARC
8
DEFAULT_255_1_388
10
16.3712024
20
47.328032
40
0.1893189
50
105.7980655
51
149.7387869
0
ARC
8
DEFAULT_255_1_388
10
16.4909164
20
47.2560719
40
0.3289892
50
149.4208441
51
163.628295
0
ARC
8
DEFAULT_255_1_388
10
16.7261394
20
47.1843345
40
0.5749004
50
163.3764549
51
172.141138
0
ARC
8
DEFAULT_255_1_388
10
17.0974115
20
47.1311582
40
0.9499585
50
172.0258462
51
178.0705453
0
ARC
8
DEFAULT_255_1_388
10
17.4395668
20
47.1149682
40
1.2924734
50
177.8639301
51
179.5036263
0
ARC
8
DEFAULT_255_1_388
10
17.3176687
20
46.8546151
40
1.170534
50
179.7995545
51
185.246089
0
ARC
8
DEFAULT_255_1_388
10
16.862828
20
46.8115404
40
0.7136613
50
185.1411911
51
193.0082205
0
ARC
8
DEFAULT_255_1_388
10
16.5654541
20
46.7412441
40
0.4080987
50
192.7897338
51
205.2507384
0
ARC
8
DEFAULT_255_1_388
10
16.4476751
20
46.6886538
40
0.2791522
50
205.8001921
51
211.2545876
0
ARC
8
DEFAULT_255_1_388
10
16.388829
20
46.6492132
40
0.2084074
50
210.3789935
51
238.4007996
0
ARC
8
DEFAULT_255_1_388
10
16.3866376
20
46.6544786
40
0.2117943
50
239.6521916
51
265.9793852
0
ARC
8
DEFAULT_255_1_388
10
16.3962225
20
46.7301358
40
0.2879689
50
265.1324455
51
270.0603288
0
ARC
8
DEFAULT_255_1_388
10
16.3994602
20
46.6936418
40
0.2514919
50
269.3314378
51
287.2180039
0
ARC
8
DEFAULT_255_1_388
10
16.4149684
20
46.6370291
40
0.1928357
50
287.7957942
51
329.0808983
0
ARC
8
DEFAULT_255_1_388
10
16.3072441
20
46.7042651
40
0.319808
50
328.6635261
51
343.3325043
0
ARC
8
DEFAULT_255_1_388
10
16.06279
20
46.7804195
40
0.5758408
50
343.0498092
51
351.9392499
0
ARC
8
DEFAULT_255_1_388
10
15.6727221
20
46.8379205
40
0.9701202
50
351.8071632
51
357.7957897
0
ARC
8
DEFAULT_255_1_388
10
15.3092698
20
46.8567724
40
1.3340376
50
357.5870923
51
359.2682493
0
ARC
8
DEFAULT_255_2_778
10
17.2795513
20
49.6390655
40
0.9032652
50
36.6636783
51
62.8800292
0
ARC
8
DEFAULT_255_2_778
10
17.362048
20
50.9080795
40
0.5698185
50
305.2984654
51
359.1896208
0
ARC
8
DEFAULT_255_2_778
10
17.3634372
20
50.9034256
40
0.5683825
50
359.6567283
51
359.9965559
0
ARC
8
DEFAULT_255_2_778
10
17.3738628
20
50.9032968
40
0.5579568
50
0.0097156
51
44.9837975
0
ARC
8
DEFAULT_255_2_778
10
17.3736736
20
50.9034297
40
0.5579968
50
44.9604089
51
90.0139948
0
ARC
8
DEFAULT_255_2_778
10
17.3735813
20
50.8858846
40
0.5755419
50
90.0043846
51
90.2659864
0
ARC
8
DEFAULT_255_2_778
10
17.3015142
20
49.6927344
40
0.8779024
50
272.428255
51
302.0472027
0
ARC
8
DEFAULT_255_2_778
10
17.3149911
20
49.6582487
40
0.841549
50
302.5153244
51
0.4882776
0
ARC
8
DEFAULT_255_2_778
10
17.3237108
20
49.6862449
40
0.833059
50
358.5675863
51
29.0157619
0
ARC
8
DEFAULT_255_2_778
10
15.115709
20
49.6401166
40
0.90203
50
36.6388615
51
62.8867752
0
ARC
8
DEFAULT_255_2_778
10
15.1980877
20
50.9077954
40
0.5692748
50
305.2706468
51
359.2174393
0
ARC
8
DEFAULT_255_2_778
10
15.2034234
20
50.9030241
40
0.563894
50
359.6947901
51
359.9999584
0
ARC
8
DEFAULT_255_2_778
10
15.2087973
20
50.9030658
40
0.5585202
50
359.9956834
51
44.9740581
0
ARC
8
DEFAULT_255_2_778
10
15.2091182
20
50.9033026
40
0.5581257
50
44.9801433
51
90.0010632
0
ARC
8
DEFAULT_255_2_778
10
15.2091083
20
50.8993714
40
0.562057
50
90.0000416
51
90.3056982
0
ARC
8
DEFAULT_255_2_778
10
15.1365968
20
49.6928822
40
0.8780507
50
272.42898
51
302.0445025
0
ARC
8
DEFAULT_255_2_778
10
15.1501929
20
49.6582943
40
0.8415468
50
302.5093151
51
0.4851764
0
ARC
8
DEFAULT_255_2_778
10
15.1579024
20
49.6859974
40
0.8340609
50
358.5863171
51
28.9970314
0
LINE
8
DEFAULT_255_2_778
10
13.4101095
20
50.1784203
11
12.9532095
21
51.4614203
0
LINE
8
DEFAULT_255_2_778
10
12.9532095
20
51.4614203
11
12.6084095
21
51.4614203
0
LINE
8
DEFAULT_255_2_778
10
12.6084095
20
51.4614203
11
12.6084095
21
50.1784203
0
LINE
8
DEFAULT_255_2_778
10
12.6084095
20
50.1784203
11
13.4101095
21
50.1784203
0
LINE
8
DEFAULT_255_2_778
10
12.6084095
20
49.3767203
11
13.0334095
21
49.3767203
0
LINE
8
DEFAULT_255_2_778
10
13.0334095
20
49.3767203
11
13.2257095
21
48.8156203
0
LINE
8
DEFAULT_255_2_778
10
13.2257095
20
48.8156203
11
13.8911095
21
48.8156203
0
LINE
8
DEFAULT_255_2_778
10
13.8911095
20
48.8156203
11
13.4342095
21
50.0983203
0
LINE
8
DEFAULT_255_2_778
10
13.4342095
20
50.0983203
11
12.6084095
21
50.0983203
0
LINE
8
DEFAULT_255_2_778
10
12.6084095
20
50.0983203
11
12.6084095
21
49.3767203
0
LINE
8
DEFAULT_255_2_778
10
12.5283095
20
51.4614203
11
12.1835095
21
51.4614203
0
LINE
8
DEFAULT_255_2_778
10
12.1835095
20
51.4614203
11
11.7266095
21
50.1784203
0
LINE
8
DEFAULT_255_2_778
10
11.7266095
20
50.1784203
11
12.5283095
21
50.1784203
0
LINE
8
DEFAULT_255_2_778
10
12.5283095
20
50.1784203
11
12.5283095
21
51.4614203
0
LINE
8
DEFAULT_255_2_778
10
11.7025095
20
50.0983203
11
11.2453095
21
48.8156203
0
LINE
8
DEFAULT_255_2_778
10
11.2453095
20
48.8156203
11
11.9107095
21
48.8156203
0
LINE
8
DEFAULT_255_2_778
10
11.9107095
20
48.8156203
11
12.1031095
21
49.3767203
0
LINE
8
DEFAULT_255_2_778
10
12.1031095
20
49.3767203
11
12.5280095
21
49.3767203
0
LINE
8
DEFAULT_255_2_778
10
12.5280095
20
49.3767203
11
12.5280095
21
50.0983203
0
LINE
8
DEFAULT_255_2_778
10
12.5280095
20
50.0983203
11
11.7025095
21
50.0983203
0
LINE
8
DEFAULT_255_2_778
10
16.2965095
20
51.4614203
11
17.0981095
21
51.4614203
0
LINE
8
DEFAULT_255_2_778
10
17.0981095
20
51.4614203
11
17.0981095
21
50.1784203
0
LINE
8
DEFAULT_255_2_778
10
17.0981095
20
50.1784203
11
16.2965095
21
50.1784203
0
LINE
8
DEFAULT_255_2_778
10
16.2965095
20
50.1784203
11
16.2965095
21
51.4614203
0
LINE
8
DEFAULT_255_2_778
10
17.3709095
20
51.4614203
11
17.1786095
21
51.4614203
0
LINE
8
DEFAULT_255_2_778
10
17.1786095
20
51.4614203
11
17.1786095
21
50.1784203
0
LINE
8
DEFAULT_255_2_778
10
17.1786095
20
50.1784203
11
18.0043095
21
50.1784203
0
LINE
8
DEFAULT_255_2_778
10
18.0043095
20
50.1784203
11
18.0041095
21
50.1784203
0
LINE
8
DEFAULT_255_2_778
10
16.2965095
20
50.0983203
11
17.0981095
21
50.0983203
0
LINE
8
DEFAULT_255_2_778
10
17.0981095
20
50.0983203
11
17.0981095
21
48.8156203
0
LINE
8
DEFAULT_255_2_778
10
17.0981095
20
48.8156203
11
16.2965095
21
48.8156203
0
LINE
8
DEFAULT_255_2_778
10
16.2965095
20
48.8156203
11
16.2965095
21
50.0983203
0
LINE
8
DEFAULT_255_2_778
10
17.1783095
20
48.8156203
11
17.3387095
21
48.8156203
0
LINE
8
DEFAULT_255_2_778
10
18.0522095
20
50.0903203
11
17.1783095
21
50.0903203
0
LINE
8
DEFAULT_255_2_778
10
17.1783095
20
50.0903203
11
17.1783095
21
48.8156203
0
LINE
8
DEFAULT_255_2_778
10
17.1783095
20
48.8156203
11
17.1783095
21
48.8156203
0
LINE
8
DEFAULT_255_2_778
10
14.1316095
20
51.4614203
11
14.9333095
21
51.4614203
0
LINE
8
DEFAULT_255_2_778
10
14.9333095
20
51.4614203
11
14.9333095
21
50.1784203
0
LINE
8
DEFAULT_255_2_778
10
14.9333095
20
50.1784203
11
14.1316095
21
50.1784203
0
LINE
8
DEFAULT_255_2_778
10
14.1316095
20
50.1784203
11
14.1316095
21
51.4614203
0
LINE
8
DEFAULT_255_2_778
10
15.2061095
20
51.4614203
11
15.0138095
21
51.4614203
0
LINE
8
DEFAULT_255_2_778
10
15.0138095
20
51.4614203
11
15.0138095
21
50.1784203
0
LINE
8
DEFAULT_255_2_778
10
15.0138095
20
50.1784203
11
15.8395095
21
50.1784203
0
LINE
8
DEFAULT_255_2_778
10
15.8395095
20
50.1784203
11
15.8395095
21
50.1784203
0
LINE
8
DEFAULT_255_2_778
10
14.1316095
20
50.0983203
11
14.9333095
21
50.0983203
0
LINE
8
DEFAULT_255_2_778
10
14.9333095
20
50.0983203
11
14.9333095
21
48.8156203
0
LINE
8
DEFAULT_255_2_778
10
14.9333095
20
48.8156203
11
14.1316095
21
48.8156203
0
LINE
8
DEFAULT_255_2_778
10
14.1316095
20
48.8156203
11
14.1316095
21
50.0983203
0
LINE
8
DEFAULT_255_2_778
10
15.0135095
20
48.8156203
11
15.1738095
21
48.8156203
0
LINE
8
DEFAULT_255_2_778
10
15.8874095
20
50.0903203
11
15.0135095
21
50.0903203
0
LINE
8
DEFAULT_255_2_778
10
15.0135095
20
50.0903203
11
15.0135095
21
48.8156203
0
LINE
8
DEFAULT_255_2_778
10
15.0135095
20
48.8156203
11
15.0135095
21
48.8156203
0
LINE
8
DEFAULT_255_1_388
10
4.1672903
20
45.6549898
11
4.1672903
21
44.4812596
0
LINE
8
DEFAULT_255_1_388
10
4.1672903
20
44.4812596
11
4.7907498
21
44.4812596
0
LINE
8
DEFAULT_255_1_388
10
4.7907498
20
44.4812596
11
4.7907498
21
44.3394
0
LINE
8
DEFAULT_255_1_388
10
4.7907498
20
44.3394
11
3.9929024
21
44.3394
0
LINE
8
DEFAULT_255_1_388
10
3.9929024
20
44.3394
11
3.9929024
21
45.6549898
0
LINE
8
DEFAULT_255_1_388
10
3.9929024
20
45.6549898
11
4.1672903
21
45.6549898
0
LINE
8
DEFAULT_255_1_388
10
5.4413162
20
45.4290987
11
5.4413162
21
45.0450838
0
LINE
8
DEFAULT_255_1_388
10
5.4413162
20
45.0450838
11
5.8081634
21
45.0450838
0
LINE
8
DEFAULT_255_1_388
10
5.8081634
20
45.0450838
11
5.8081634
21
44.8869601
0
LINE
8
DEFAULT_255_1_388
10
5.8081634
20
44.8869601
11
5.4413162
21
44.8869601
0
LINE
8
DEFAULT_255_1_388
10
5.4413162
20
44.8869601
11
5.4413162
21
44.4713204
0
LINE
8
DEFAULT_255_1_388
10
5.4413162
20
44.4713204
11
5.2732532
21
44.4713204
0
LINE
8
DEFAULT_255_1_388
10
5.2732532
20
44.4713204
11
5.2732532
21
44.8869601
0
LINE
8
DEFAULT_255_1_388
10
5.2732532
20
44.8869601
11
4.9064061
21
44.8869601
0
LINE
8
DEFAULT_255_1_388
10
4.9064061
20
44.8869601
11
4.9064061
21
45.0450838
0
LINE
8
DEFAULT_255_1_388
10
4.9064061
20
45.0450838
11
5.2732532
21
45.0450838
0
LINE
8
DEFAULT_255_1_388
10
5.2732532
20
45.0450838
11
5.2732532
21
45.4290987
0
LINE
8
DEFAULT_255_1_388
10
5.2732532
20
45.4290987
11
5.4413162
21
45.4290987
0
LINE
8
DEFAULT_255_1_388
10
4.793232
20
5.0693468
11
4.9676199
21
5.0693468
0
LINE
8
DEFAULT_255_1_388
10
3.9547242
20
5.2482525
11
3.9547242
21
5.3747516
0
LINE
8
DEFAULT_255_1_388
10
4.9676199
20
5.5446217
11
4.793232
21
5.5446217
0
LINE
8
DEFAULT_255_1_388
10
4.1291121
20
5.3702337
11
4.1291121
21
5.2428312
0
ARC
8
DEFAULT_255_1_388
10
4.3510433
20
5.1365329
40
0.6202263
50
340.1774904
51
353.7812217
0
ARC
8
DEFAULT_255_1_388
10
4.5278286
20
5.0706893
40
0.4315926
50
311.4560052
51
340.4420756
0
ARC
8
DEFAULT_255_1_388
10
4.5240826
20
5.0831665
40
0.4434573
50
282.4332229
51
310.7514507
0
ARC
8
DEFAULT_255_1_388
10
4.4746644
20
5.2873703
40
0.6535262
50
269.9358869
51
282.8096729
0
ARC
8
DEFAULT_255_1_388
10
4.4688583
20
5.4386329
40
0.8048043
50
269.9995752
51
270.3612856
0
ARC
8
DEFAULT_255_1_388
10
4.4629073
20
5.1587781
40
0.5249831
50
250.7885263
51
270.6488451
0
ARC
8
DEFAULT_255_1_388
10
4.4439898
20
5.0870853
40
0.4510942
50
219.3628377
51
250.0611024
0
ARC
8
DEFAULT_255_1_388
10
4.5372772
20
5.1663653
40
0.5735046
50
193.5480293
51
219.5755675
0
ARC
8
DEFAULT_255_1_388
10
4.8040981
20
5.235652
40
0.849146
50
181.1220183
51
193.8754971
0
ARC
8
DEFAULT_255_1_388
10
5.0364214
20
5.2480914
40
1.0816971
50
179.9914644
51
181.5398227
0
ARC
8
DEFAULT_255_1_388
10
4.8287525
20
5.3789586
40
0.8740384
50
169.5837606
51
180.275782
0
ARC
8
DEFAULT_255_1_388
10
4.6220873
20
5.4171439
40
0.6638751
50
155.0367033
51
169.6002779
0
ARC
8
DEFAULT_255_1_388
10
4.4943331
20
5.4787336
40
0.5220662
50
136.7831557
51
155.2472983
0
ARC
8
DEFAULT_255_1_388
10
4.4505122
20
5.5159577
40
0.4646502
50
121.7633063
51
136.4281161
0
ARC
8
DEFAULT_255_1_388
10
4.4656962
20
5.4879049
40
0.4964979
50
95.6460018
51
121.5489589
0
ARC
8
DEFAULT_255_1_388
10
4.4833936
20
5.3631704
40
0.6223912
50
89.9245727
51
96.1375919
0
ARC
8
DEFAULT_255_1_388
10
4.4890641
20
5.3765721
40
0.6090084
50
76.6779212
51
90.456405
0
ARC
8
DEFAULT_255_1_388
10
4.5333454
20
5.555506
40
0.42469
50
47.4858803
51
76.9287069
0
ARC
8
DEFAULT_255_1_388
10
4.5168068
20
5.5442623
40
0.4441778
50
16.5424081
51
46.8934505
0
ARC
8
DEFAULT_255_1_388
10
4.3359118
20
5.4848265
40
0.6345318
50
5.4072971
51
17.0363711
0
ARC
8
DEFAULT_255_1_388
10
4.1740843
20
5.4588304
40
0.6250632
50
7.8888693
51
15.9242022
0
ARC
8
DEFAULT_255_1_388
10
4.3975828
20
5.5237309
40
0.3923364
50
15.7650676
51
27.9410069
0
ARC
8
DEFAULT_255_1_388
10
4.5217997
20
5.5902317
40
0.2514401
50
27.8167196
51
46.4007942
0
ARC
8
DEFAULT_255_1_388
10
4.5273839
20
5.5895882
40
0.2480958
50
47.4372362
51
75.0695672
0
ARC
8
DEFAULT_255_1_388
10
4.4926675
20
5.4687277
40
0.3738281
50
74.7009379
51
87.8124314
0
ARC
8
DEFAULT_255_1_388
10
4.4844292
20
5.3503659
40
0.4924321
50
87.3802571
51
90.0251599
0
ARC
8
DEFAULT_255_1_388
10
4.4800939
20
5.4823997
40
0.3604218
50
89.3451886
51
108.5744412
0
ARC
8
DEFAULT_255_1_388
10
4.4646931
20
5.5401836
40
0.3007661
50
109.2998307
51
143.3037387
0
ARC
8
DEFAULT_255_1_388
10
4.5504221
20
5.4742584
40
0.4089031
50
143.075267
51
163.1918576
0
ARC
8
DEFAULT_255_1_388
10
4.7700055
20
5.4049652
40
0.6391492
50
162.9375929
51
174.6208776
0
ARC
8
DEFAULT_255_1_388
10
5.0654437
20
5.3725711
40
0.9363344
50
174.342123
51
180.1430283
0
ARC
8
DEFAULT_255_1_388
10
4.9606978
20
5.2382117
40
0.8315986
50
179.6817261
51
189.150555
0
ARC
8
DEFAULT_255_1_388
10
4.6793727
20
5.1913559
40
0.5464044
50
188.9911061
51
203.5772363
0
ARC
8
DEFAULT_255_1_388
10
4.5579019
20
5.1409539
40
0.4149206
50
203.9075402
51
215.1312435
0
ARC
8
DEFAULT_255_1_388
10
4.4540817
20
5.0604907
40
0.2837747
50
213.9071511
51
263.8848919
0
ARC
8
DEFAULT_255_1_388
10
4.468181
20
5.1487519
40
0.3730641
50
263.1757928
51
270.1031044
0
ARC
8
DEFAULT_255_1_388
10
4.471789
20
5.2890511
40
0.5133712
50
269.6722503
51
279.0606936
0
ARC
8
DEFAULT_255_1_388
10
4.5018045
20
5.107615
40
0.3294739
50
278.8749101
51
293.6349581
0
ARC
8
DEFAULT_255_1_388
10
4.5378249
20
5.0230251
40
0.2375405
50
293.8553806
51
310.0518171
0
ARC
8
DEFAULT_255_1_388
10
4.5383758
20
5.0160021
40
0.2318463
50
311.0644687
51
332.0111037
0
ARC
8
DEFAULT_255_1_388
10
4.4042431
20
5.0899702
40
0.3850112
50
331.6586806
51
343.2877423
0
ARC
8
DEFAULT_255_1_388
10
4.1721896
20
5.1612806
40
0.6277712
50
343.1446576
51
351.0103568
0
ARC
8
DEFAULT_255_1_388
10
4.008922
20
5.1912873
40
0.7937327
50
350.71248
51
351.1626997
0
LINE
8
DEFAULT_255_1_388
10
6.216346
20
5.3503553
11
6.216346
21
5.2672274
0
LINE
8
DEFAULT_255_1_388
10
5.158272
20
5.2554811
11
5.158272
21
5.3503553
0
LINE
8
DEFAULT_255_1_388
10
6.0437652
20
5.2545775
11
6.0437652
21
5.3521625
0
LINE
8
DEFAULT_255_1_388
10
5.3308528
20
5.3639088
11
5.3308528
21
5.2672274
0
ARC
8
DEFAULT_255_1_388
10
5.2441198
20
5.2627726
40
0.9722364
50
350.4878118
51
0.2625322
0
ARC
8
DEFAULT_255_1_388
10
5.5021158
20
5.2183994
40
0.7104556
50
336.0277991
51
350.5787241
0
ARC
8
DEFAULT_255_1_388
10
5.6534265
20
5.1500243
40
0.544417
50
319.887443
51
336.1331163
0
ARC
8
DEFAULT_255_1_388
10
5.7212077
20
5.0957733
40
0.4576311
50
302.4806296
51
319.6144102
0
ARC
8
DEFAULT_255_1_388
10
5.7082699
20
5.1207067
40
0.4856183
50
275.8196423
51
302.1885521
0
ARC
8
DEFAULT_255_1_388
10
5.689556
20
5.2492466
40
0.6154183
50
269.9169897
51
276.339506
0
ARC
8
DEFAULT_255_1_388
10
5.6845161
20
5.172068
40
0.5382553
50
252.5221437
51
270.441579
0
ARC
8
DEFAULT_255_1_388
10
5.6683411
20
5.1114046
40
0.4755426
50
237.5349961
51
252.1858334
0
ARC
8
DEFAULT_255_1_388
10
5.6783787
20
5.124212
40
0.4917393
50
209.0632754
51
237.3492577
0
ARC
8
DEFAULT_255_1_388
10
5.7763113
20
5.1857104
40
0.6072464
50
205.118533
51
209.6465345
0
ARC
8
DEFAULT_255_1_388
10
5.8659115
20
5.2237174
40
0.7045164
50
188.7216633
51
204.8239753
0
ARC
8
DEFAULT_255_1_388
10
6.0905891
20
5.2615387
40
0.9323368
50
180.3722704
51
188.9253909
0
ARC
8
DEFAULT_255_1_388
10
6.0875452
20
5.3548416
40
0.929284
50
169.5253055
51
180.2766048
0
ARC
8
DEFAULT_255_1_388
10
5.8735251
20
5.3942024
40
0.7116745
50
155.8314601
51
169.5088611
0
ARC
8
DEFAULT_255_1_388
10
5.7294714
20
5.4610312
40
0.5528904
50
139.6259579
51
156.0379072
0
ARC
8
DEFAULT_255_1_388
10
5.6631248
20
5.5144143
40
0.4677708
50
122.6414784
51
139.3431662
0
ARC
8
DEFAULT_255_1_388
10
5.6744503
20
5.4937787
40
0.4912586
50
93.0224537
51
122.4556091
0
ARC
8
DEFAULT_255_1_388
10
5.6866023
20
5.3851776
40
0.6003837
50
89.9756766
51
93.6340839
0
ARC
8
DEFAULT_255_1_388
10
5.6909621
20
5.4300879
40
0.5554884
50
73.7463329
51
90.4234008
0
ARC
8
DEFAULT_255_1_388
10
5.7107094
20
5.5065772
40
0.4765353
50
57.663051
51
73.4516911
0
ARC
8
DEFAULT_255_1_388
10
5.7098132
20
5.5090108
40
0.4749629
50
29.1441355
51
57.4146687
0
ARC
8
DEFAULT_255_1_388
10
5.6045943
20
5.4433046
40
0.5988917
50
24.0985653
51
29.732054
0
ARC
8
DEFAULT_255_1_388
10
5.4883575
20
5.3951154
40
0.7246823
50
8.6654943
51
23.8241215
0
ARC
8
DEFAULT_255_1_388
10
5.2369994
20
5.3541037
40
0.9793537
50
359.7807044
51
8.8218476
0
ARC
8
DEFAULT_255_1_388
10
5.1079698
20
5.3569731
40
0.9358078
50
359.7054632
51
8.0359751
0
ARC
8
DEFAULT_255_1_388
10
5.4454749
20
5.4061252
40
0.5947474
50
7.8926278
51
20.2962188
0
ARC
8
DEFAULT_255_1_388
10
5.62856
20
5.4736367
40
0.3996117
50
20.3231056
51
36.4990255
0
ARC
8
DEFAULT_255_1_388
10
5.7056897
20
5.5330399
40
0.3022818
50
36.1436715
51
85.6627846
0
ARC
8
DEFAULT_255_1_388
10
5.6874152
20
5.4160881
40
0.4203853
50
84.3845912
51
90.076054
0
ARC
8
DEFAULT_255_1_388
10
5.6826507
20
5.4903416
40
0.346157
50
89.3037228
51
109.9046209
0
ARC
8
DEFAULT_255_1_388
10
5.672234
20
5.5333379
40
0.3022217
50
110.8229774
51
143.917961
0
ARC
8
DEFAULT_255_1_388
10
5.77727
20
5.4531455
40
0.434348
50
143.5289166
51
163.2980252
0
ARC
8
DEFAULT_255_1_388
10
5.9918987
20
5.3856685
40
0.659321
50
163.0418884
51
174.3139873
0
ARC
8
DEFAULT_255_1_388
10
6.2623951
20
5.3544378
40
0.9315905
50
174.050934
51
179.4174954
0
ARC
8
DEFAULT_255_1_388
10
6.2055895
20
5.2625382
40
0.8747493
50
179.6928582
51
188.7908948
0
ARC
8
DEFAULT_255_1_388
10
5.9059695
20
5.2146086
40
0.5713262
50
188.6328449
51
202.5630732
0
ARC
8
DEFAULT_255_1_388
10
5.7648532
20
5.1579142
40
0.4192612
50
202.8078931
51
216.1195888
0
ARC
8
DEFAULT_255_1_388
10
5.6738049
20
5.0846479
40
0.3025752
50
215.0755613
51
264.6379773
0
ARC
8
DEFAULT_255_1_388
10
5.6880887
20
5.1781376
40
0.3970284
50
263.8464302
51
270.0830805
0
ARC
8
DEFAULT_255_1_388
10
5.6927431
20
5.1490808
40
0.3679937
50
269.3649295
51
287.5149684
0
ARC
8
DEFAULT_255_1_388
10
5.7127872
20
5.0762714
40
0.2925408
50
288.0629019
51
323.8115617
0
ARC
8
DEFAULT_255_1_388
10
5.6147848
20
5.1493754
40
0.4148018
50
323.6546541
51
342.6591359
0
ARC
8
DEFAULT_255_1_388
10
5.3862506
20
5.223728
40
0.6551163
50
342.4092446
51
353.6451501
0
ARC
8
DEFAULT_255_1_388
10
5.06773
20
5.2633565
40
0.9760748
50
353.4027553
51
359.4846611
0
LINE
8
DEFAULT_255_1_388
10
6.4765726
20
5.9674898
11
6.7006565
21
5.9674898
0
LINE
8
DEFAULT_255_1_388
10
6.7006565
20
5.9674898
11
7.1307532
21
4.8940553
0
LINE
8
DEFAULT_255_1_388
10
7.1307532
20
4.8940553
11
7.5608499
21
5.9674898
0
LINE
8
DEFAULT_255_1_388
10
7.5608499
20
5.9674898
11
7.7858375
21
5.9674898
0
LINE
8
DEFAULT_255_1_388
10
7.7858375
20
5.9674898
11
7.7858375
21
4.6519
0
LINE
8
DEFAULT_255_1_388
10
7.7858375
20
4.6519
11
7.6123531
21
4.6519
0
LINE
8
DEFAULT_255_1_388
10
7.6123531
20
4.6519
11
7.6123531
21
5.164221
0
LINE
8
DEFAULT_255_1_388
10
7.6123531
20
5.164221
11
7.6286172
21
5.7172025
0
LINE
8
DEFAULT_255_1_388
10
7.6286172
20
5.7172025
11
7.1967134
21
4.6519
0
LINE
8
DEFAULT_255_1_388
10
7.1967134
20
4.6519
11
7.0638895
21
4.6519
0
LINE
8
DEFAULT_255_1_388
10
7.0638895
20
4.6519
11
6.6328892
21
5.7144918
0
LINE
8
DEFAULT_255_1_388
10
6.6328892
20
5.7144918
11
6.6500569
21
5.164221
0
LINE
8
DEFAULT_255_1_388
10
6.6500569
20
5.164221
11
6.6500569
21
4.6519
0
LINE
8
DEFAULT_255_1_388
10
6.6500569
20
4.6519
11
6.4765726
21
4.6519
0
LINE
8
DEFAULT_255_1_388
10
6.4765726
20
4.6519
11
6.4765726
21
5.9674898
0
LINE
8
DEFAULT_255_1_388
10
8.9107752
20
4.7883382
11
8.9107752
21
4.6519
0
LINE
8
DEFAULT_255_1_388
10
8.9107752
20
4.6519
11
8.0487747
21
4.6519
0
LINE
8
DEFAULT_255_1_388
10
8.0487747
20
4.6519
11
8.0487747
21
4.7720741
0
LINE
8
DEFAULT_255_1_388
10
8.0487747
20
4.7720741
11
8.5041712
21
5.2780702
0
LINE
8
DEFAULT_255_1_388
10
8.1906343
20
5.5798607
11
8.0234749
21
5.5798607
0
LINE
8
DEFAULT_255_1_388
10
8.6026597
20
5.170546
11
8.2502696
21
4.7883382
0
LINE
8
DEFAULT_255_1_388
10
8.2502696
20
4.7883382
11
8.9107752
21
4.7883382
0
ARC
8
DEFAULT_255_1_388
10
6.9865771
20
6.6200983
40
2.0258655
50
318.5132526
51
320.7829045
0
ARC
8
DEFAULT_255_1_388
10
7.5813728
20
6.1359929
40
1.2589638
50
320.7372878
51
323.9739031
0
ARC
8
DEFAULT_255_1_388
10
8.022266
20
5.8165554
40
0.7145141
50
323.8962701
51
328.64194
0
ARC
8
DEFAULT_255_1_388
10
8.2524918
20
5.6745545
40
0.4440242
50
328.8294576
51
331.7891185
0
ARC
8
DEFAULT_255_1_388
10
8.3647238
20
5.6166374
40
0.3177517
50
331.4254512
51
352.9365785
0
ARC
8
DEFAULT_255_1_388
10
8.3800238
20
5.613205
40
0.3021496
50
353.2257659
51
0.0166158
0
ARC
8
DEFAULT_255_1_388
10
8.4036998
20
5.6157894
40
0.2784847
50
359.486299
51
15.9343185
0
ARC
8
DEFAULT_255_1_388
10
8.4607265
20
5.6311269
40
0.2194403
50
16.1712913
51
43.5286088
0
ARC
8
DEFAULT_255_1_388
10
8.469421
20
5.6398191
40
0.2071504
50
43.4417391
51
83.1661095
0
ARC
8
DEFAULT_255_1_388
10
8.4543371
20
5.5569316
40
0.2912888
50
82.160179
51
90.1505708
0
ARC
8
DEFAULT_255_1_388
10
8.4507852
20
5.4965279
40
0.3517025
50
89.5460741
51
102.5418361
0
ARC
8
DEFAULT_255_1_388
10
8.4234572
20
5.6124933
40
0.2325748
50
102.1738499
51
129.206123
0
ARC
8
DEFAULT_255_1_388
10
8.4146026
20
5.6264664
40
0.2161591
50
129.72865
51
135.753947
0
ARC
8
DEFAULT_255_1_388
10
8.4282508
20
5.6155728
40
0.2335433
50
136.1757367
51
166.3673339
0
ARC
8
DEFAULT_255_1_388
10
8.5415196
20
5.5852148
40
0.3507873
50
165.9090694
51
178.8684636
0
ARC
8
DEFAULT_255_1_388
10
8.6390968
20
5.5799263
40
0.4484624
50
178.4391136
51
180.0083808
0
ARC
8
DEFAULT_255_1_388
10
8.4811669
20
5.5843197
40
0.4577138
50
163.2878482
51
180.5581842
0
ARC
8
DEFAULT_255_1_388
10
8.3909711
20
5.6091393
40
0.3641968
50
133.4540601
51
162.947111
0
ARC
8
DEFAULT_255_1_388
10
8.4110592
20
5.5877789
40
0.3935189
50
100.7869829
51
133.4382499
0
ARC
8
DEFAULT_255_1_388
10
8.4501837
20
5.4135399
40
0.5720313
50
89.660664
51
101.3702276
0
ARC
8
DEFAULT_255_1_388
10
8.4576446
20
5.4204263
40
0.5651495
50
78.2172678
51
90.412935
0
ARC
8
DEFAULT_255_1_388
10
8.4975912
20
5.6031511
40
0.378122
50
55.9269121
51
78.4888449
0
ARC
8
DEFAULT_255_1_388
10
8.5196627
20
5.6412187
40
0.3342379
50
47.929771
51
55.4049217
0
ARC
8
DEFAULT_255_1_388
10
8.5311157
20
5.6528618
40
0.3179217
50
4.334829
51
48.0560205
0
ARC
8
DEFAULT_255_1_388
10
8.4078959
20
5.6337487
40
0.442341
50
359.9251713
51
5.5971671
0
ARC
8
DEFAULT_255_1_388
10
8.4561114
20
5.6400728
40
0.3941854
50
337.8914027
51
358.9967534
0
ARC
8
DEFAULT_255_1_388
10
8.1508684
20
5.7578295
40
0.7213271
50
326.9132501
51
338.3508308
0
ARC
8
DEFAULT_255_1_388
10
7.7024796
20
6.0452105
40
1.2538973
50
319.6471833
51
327.0959558
0
ARC
8
DEFAULT_255_1_388
10
7.2711454
20
6.401005
40
1.8129975
50
317.2588228
51
319.9045804
0
LINE
8
DEFAULT_255_1_388
10
4.785532
20
13.0068468
11
4.9599199
21
13.0068468
0
LINE
8
DEFAULT_255_1_388
10
3.9470242
20
13.1857525
11
3.9470242
21
13.3122516
0
LINE
8
DEFAULT_255_1_388
10
4.9599199
20
13.4821217
11
4.785532
21
13.4821217
0
LINE
8
DEFAULT_255_1_388
10
4.1214121
20
13.3077337
11
4.1214121
21
13.1803312
0
ARC
8
DEFAULT_255_1_388
10
4.3433433
20
13.0740329
40
0.6202263
50
340.1774904
51
353.7812217
0
ARC
8
DEFAULT_255_1_388
10
4.5201286
20
13.0081893
40
0.4315926
50
311.4560052
51
340.4420756
0
ARC
8
DEFAULT_255_1_388
10
4.5163826
20
13.0206665
40
0.4434573
50
282.4332229
51
310.7514507
0
ARC
8
DEFAULT_255_1_388
10
4.4669644
20
13.2248703
40
0.6535262
50
269.9358869
51
282.8096729
0
ARC
8
DEFAULT_255_1_388
10
4.4611583
20
13.3761329
40
0.8048043
50
269.9995752
51
270.3612856
0
ARC
8
DEFAULT_255_1_388
10
4.4552073
20
13.0962781
40
0.5249831
50
250.7885263
51
270.6488451
0
ARC
8
DEFAULT_255_1_388
10
4.4362898
20
13.0245853
40
0.4510942
50
219.3628377
51
250.0611024
0
ARC
8
DEFAULT_255_1_388
10
4.5295772
20
13.1038653
40
0.5735046
50
193.5480293
51
219.5755675
0
ARC
8
DEFAULT_255_1_388
10
4.7963981
20
13.173152
40
0.849146
50
181.1220183
51
193.8754971
0
ARC
8
DEFAULT_255_1_388
10
5.0287214
20
13.1855914
40
1.0816971
50
179.9914644
51
181.5398227
0
ARC
8
DEFAULT_255_1_388
10
4.8210525
20
13.3164586
40
0.8740384
50
169.5837606
51
180.275782
0
ARC
8
DEFAULT_255_1_388
10
4.6143873
20
13.3546439
40
0.6638751
50
155.0367033
51
169.6002779
0
ARC
8
DEFAULT_255_1_388
10
4.4866331
20
13.4162336
40
0.5220662
50
136.7831557
51
155.2472983
0
ARC
8
DEFAULT_255_1_388
10
4.4428122
20
13.4534577
40
0.4646502
50
121.7633063
51
136.4281161
0
ARC
8
DEFAULT_255_1_388
10
4.4579962
20
13.4254049
40
0.4964979
50
95.6460018
51
121.5489589
0
ARC
8
DEFAULT_255_1_388
10
4.4756936
20
13.3006704
40
0.6223912
50
89.9245727
51
96.1375919
0
ARC
8
DEFAULT_255_1_388
10
4.4813641
20
13.3140721
40
0.6090084
50
76.6779212
51
90.456405
0
ARC
8
DEFAULT_255_1_388
10
4.5256454
20
13.493006
40
0.42469
50
47.4858803
51
76.9287069
0
ARC
8
DEFAULT_255_1_388
10
4.5091068
20
13.4817623
40
0.4441778
50
16.5424081
51
46.8934505
0
ARC
8
DEFAULT_255_1_388
10
4.3282118
20
13.4223265
40
0.6345318
50
5.4072971
51
17.0363711
0
ARC
8
DEFAULT_255_1_388
10
4.1663843
20
13.3963304
40
0.6250632
50
7.8888693
51
15.9242022
0
ARC
8
DEFAULT_255_1_388
10
4.3898828
20
13.4612309
40
0.3923364
50
15.7650676
51
27.9410069
0
ARC
8
DEFAULT_255_1_388
10
4.5140997
20
13.5277317
40
0.2514401
50
27.8167196
51
46.4007942
0
ARC
8
DEFAULT_255_1_388
10
4.5196839
20
13.5270882
40
0.2480958
50
47.4372362
51
75.0695672
0
ARC
8
DEFAULT_255_1_388
10
4.4849675
20
13.4062277
40
0.3738281
50
74.7009379
51
87.8124314
0
ARC
8
DEFAULT_255_1_388
10
4.4767292
20
13.2878659
40
0.4924321
50
87.3802571
51
90.0251599
0
ARC
8
DEFAULT_255_1_388
10
4.4723939
20
13.4198997
40
0.3604218
50
89.3451886
51
108.5744412
0
ARC
8
DEFAULT_255_1_388
10
4.4569931
20
13.4776836
40
0.3007661
50
109.2998307
51
143.3037387
0
ARC
8
DEFAULT_255_1_388
10
4.5427221
20
13.4117584
40
0.4089031
50
143.075267
51
163.1918576
0
ARC
8
DEFAULT_255_1_388
10
4.7623055
20
13.3424652
40
0.6391492
50
162.9375929
51
174.6208776
0
ARC
8
DEFAULT_255_1_388
10
5.0577437
20
13.3100711
40
0.9363344
50
174.342123
51
180.1430283
0
ARC
8
DEFAULT_255_1_388
10
4.9529978
20
13.1757117
40
0.8315986
50
179.6817261
51
189.150555
0
ARC
8
DEFAULT_255_1_388
10
4.6716727
20
13.1288559
40
0.5464044
50
188.9911061
51
203.5772363
0
ARC
8
DEFAULT_255_1_388
10
4.5502019
20
13.0784539
40
0.4149206
50
203.9075402
51
215.1312435
0
ARC
8
DEFAULT_255_1_388
10
4.4463817
20
12.9979907
40
0.2837747
50
213.9071511
51
263.8848919
0
ARC
8
DEFAULT_255_1_388
10
4.460481
20
13.0862519
40
0.3730641
50
263.1757928
51
270.1031044
0
ARC
8
DEFAULT_255_1_388
10
4.464089
20
13.2265511
40
0.5133712
50
269.6722503
51
279.0606936
0
ARC
8
DEFAULT_255_1_388
10
4.4941045
20
13.045115
40
0.3294739
50
278.8749101
51
293.6349581
0
ARC
8
DEFAULT_255_1_388
10
4.5301249
20
12.9605251
40
0.2375405
50
293.8553806
51
310.0518171
0
ARC
8
DEFAULT_255_1_388
10
4.5306758
20
12.9535021
40
0.2318463
50
311.0644687
51
332.0111037
0
ARC
8
DEFAULT_255_1_388
10
4.3965431
20
13.0274702
40
0.3850112
50
331.6586806
51
343.2877423
0
ARC
8
DEFAULT_255_1_388
10
4.1644896
20
13.0987806
40
0.6277712
50
343.1446576
51
351.0103568
0
ARC
8
DEFAULT_255_1_388
10
4.001222
20
13.1287873
40
0.7937327
50
350.71248
51
351.1626997
0
LINE
8
DEFAULT_255_1_388
10
6.208646
20
13.2878553
11
6.208646
21
13.2047274
0
LINE
8
DEFAULT_255_1_388
10
5.150572
20
13.1929811
11
5.150572
21
13.2878553
0
LINE
8
DEFAULT_255_1_388
10
6.0360652
20
13.1920775
11
6.0360652
21
13.2896625
0
LINE
8
DEFAULT_255_1_388
10
5.3231528
20
13.3014088
11
5.3231528
21
13.2047274
0
ARC
8
DEFAULT_255_1_388
10
5.2364198
20
13.2002726
40
0.9722364
50
350.4878118
51
0.2625322
0
ARC
8
DEFAULT_255_1_388
10
5.4944158
20
13.1558994
40
0.7104556
50
336.0277991
51
350.5787241
0
ARC
8
DEFAULT_255_1_388
10
5.6457265
20
13.0875243
40
0.544417
50
319.887443
51
336.1331163
0
ARC
8
DEFAULT_255_1_388
10
5.7135077
20
13.0332733
40
0.4576311
50
302.4806296
51
319.6144102
0
ARC
8
DEFAULT_255_1_388
10
5.7005699
20
13.0582067
40
0.4856183
50
275.8196423
51
302.1885521
0
ARC
8
DEFAULT_255_1_388
10
5.681856
20
13.1867466
40
0.6154183
50
269.9169897
51
276.339506
0
ARC
8
DEFAULT_255_1_388
10
5.6768161
20
13.109568
40
0.5382553
50
252.5221437
51
270.441579
0
ARC
8
DEFAULT_255_1_388
10
5.6606411
20
13.0489046
40
0.4755426
50
237.5349961
51
252.1858334
0
ARC
8
DEFAULT_255_1_388
10
5.6706787
20
13.061712
40
0.4917393
50
209.0632754
51
237.3492577
0
ARC
8
DEFAULT_255_1_388
10
5.7686113
20
13.1232104
40
0.6072464
50
205.118533
51
209.6465345
0
ARC
8
DEFAULT_255_1_388
10
5.8582115
20
13.1612174
40
0.7045164
50
188.7216633
51
204.8239753
0
ARC
8
DEFAULT_255_1_388
10
6.0828891
20
13.1990387
40
0.9323368
50
180.3722704
51
188.9253909
0
ARC
8
DEFAULT_255_1_388
10
6.0798452
20
13.2923416
40
0.929284
50
169.5253055
51
180.2766048
0
ARC
8
DEFAULT_255_1_388
10
5.8658251
20
13.3317024
40
0.7116745
50
155.8314601
51
169.5088611
0
ARC
8
DEFAULT_255_1_388
10
5.7217714
20
13.3985312
40
0.5528904
50
139.6259579
51
156.0379072
0
ARC
8
DEFAULT_255_1_388
10
5.6554248
20
13.4519143
40
0.4677708
50
122.6414784
51
139.3431662
0
ARC
8
DEFAULT_255_1_388
10
5.6667503
20
13.4312787
40
0.4912586
50
93.0224537
51
122.4556091
0
ARC
8
DEFAULT_255_1_388
10
5.6789023
20
13.3226776
40
0.6003837
50
89.9756766
51
93.6340839
0
ARC
8
DEFAULT_255_1_388
10
5.6832621
20
13.3675879
40
0.5554884
50
73.7463329
51
90.4234008
0
ARC
8
DEFAULT_255_1_388
10
5.7030094
20
13.4440772
40
0.4765353
50
57.663051
51
73.4516911
0
ARC
8
DEFAULT_255_1_388
10
5.7021132
20
13.4465108
40
0.4749629
50
29.1441355
51
57.4146687
0
ARC
8
DEFAULT_255_1_388
10
5.5968943
20
13.3808046
40
0.5988917
50
24.0985653
51
29.732054
0
ARC
8
DEFAULT_255_1_388
10
5.4806575
20
13.3326154
40
0.7246823
50
8.6654943
51
23.8241215
0
ARC
8
DEFAULT_255_1_388
10
5.2292994
20
13.2916037
40
0.9793537
50
359.7807044
51
8.8218476
0
ARC
8
DEFAULT_255_1_388
10
5.1002698
20
13.2944731
40
0.9358078
50
359.7054632
51
8.0359751
0
ARC
8
DEFAULT_255_1_388
10
5.4377749
20
13.3436252
40
0.5947474
50
7.8926278
51
20.2962188
0
ARC
8
DEFAULT_255_1_388
10
5.62086
20
13.4111367
40
0.3996117
50
20.3231056
51
36.4990255
0
ARC
8
DEFAULT_255_1_388
10
5.6979897
20
13.4705399
40
0.3022818
50
36.1436715
51
85.6627846
0
ARC
8
DEFAULT_255_1_388
10
5.6797152
20
13.3535881
40
0.4203853
50
84.3845912
51
90.076054
0
ARC
8
DEFAULT_255_1_388
10
5.6749507
20
13.4278416
40
0.346157
50
89.3037228
51
109.9046209
0
ARC
8
DEFAULT_255_1_388
10
5.664534
20
13.4708379
40
0.3022217
50
110.8229774
51
143.917961
0
ARC
8
DEFAULT_255_1_388
10
5.76957
20
13.3906455
40
0.434348
50
143.5289166
51
163.2980252
0
ARC
8
DEFAULT_255_1_388
10
5.9841987
20
13.3231685
40
0.659321
50
163.0418884
51
174.3139873
0
ARC
8
DEFAULT_255_1_388
10
6.2546951
20
13.2919378
40
0.9315905
50
174.050934
51
179.4174954
0
ARC
8
DEFAULT_255_1_388
10
6.1978895
20
13.2000382
40
0.8747493
50
179.6928582
51
188.7908948
0
ARC
8
DEFAULT_255_1_388
10
5.8982695
20
13.1521086
40
0.5713262
50
188.6328449
51
202.5630732
0
ARC
8
DEFAULT_255_1_388
10
5.7571532
20
13.0954142
40
0.4192612
50
202.8078931
51
216.1195888
0
ARC
8
DEFAULT_255_1_388
10
5.6661049
20
13.0221479
40
0.3025752
50
215.0755613
51
264.6379773
0
ARC
8
DEFAULT_255_1_388
10
5.6803887
20
13.1156376
40
0.3970284
50
263.8464302
51
270.0830805
0
ARC
8
DEFAULT_255_1_388
10
5.6850431
20
13.0865808
40
0.3679937
50
269.3649295
51
287.5149684
0
ARC
8
DEFAULT_255_1_388
10
5.7050872
20
13.0137714
40
0.2925408
50
288.0629019
51
323.8115617
0
ARC
8
DEFAULT_255_1_388
10
5.6070848
20
13.0868754
40
0.4148018
50
323.6546541
51
342.6591359
0
ARC
8
DEFAULT_255_1_388
10
5.3785506
20
13.161228
40
0.6551163
50
342.4092446
51
353.6451501
0
ARC
8
DEFAULT_255_1_388
10
5.06003
20
13.2008565
40
0.9760748
50
353.4027553
51
359.4846611
0
LINE
8
DEFAULT_255_1_388
10
6.4688726
20
13.9049898
11
6.6929565
21
13.9049898
0
LINE
8
DEFAULT_255_1_388
10
6.6929565
20
13.9049898
11
7.1230532
21
12.8315553
0
LINE
8
DEFAULT_255_1_388
10
7.1230532
20
12.8315553
11
7.5531499
21
13.9049898
0
LINE
8
DEFAULT_255_1_388
10
7.5531499
20
13.9049898
11
7.7781375
21
13.9049898
0
LINE
8
DEFAULT_255_1_388
10
7.7781375
20
13.9049898
11
7.7781375
21
12.5894
0
LINE
8
DEFAULT_255_1_388
10
7.7781375
20
12.5894
11
7.6046531
21
12.5894
0
LINE
8
DEFAULT_255_1_388
10
7.6046531
20
12.5894
11
7.6046531
21
13.101721
0
LINE
8
DEFAULT_255_1_388
10
7.6046531
20
13.101721
11
7.6209172
21
13.6547025
0
LINE
8
DEFAULT_255_1_388
10
7.6209172
20
13.6547025
11
7.1890134
21
12.5894
0
LINE
8
DEFAULT_255_1_388
10
7.1890134
20
12.5894
11
7.0561895
21
12.5894
0
LINE
8
DEFAULT_255_1_388
10
7.0561895
20
12.5894
11
6.6251892
21
13.6519918
0
LINE
8
DEFAULT_255_1_388
10
6.6251892
20
13.6519918
11
6.6423569
21
13.101721
0
LINE
8
DEFAULT_255_1_388
10
6.6423569
20
13.101721
11
6.6423569
21
12.5894
0
LINE
8
DEFAULT_255_1_388
10
6.6423569
20
12.5894
11
6.4688726
21
12.5894
0
LINE
8
DEFAULT_255_1_388
10
6.4688726
20
12.5894
11
6.4688726
21
13.9049898
0
LINE
8
DEFAULT_255_1_388
10
8.5904419
20
13.9113148
11
8.5904419
21
12.5894
0
LINE
8
DEFAULT_255_1_388
10
8.5904419
20
12.5894
11
8.4223789
21
12.5894
0
LINE
8
DEFAULT_255_1_388
10
8.4223789
20
12.5894
11
8.4223789
21
13.703495
0
LINE
8
DEFAULT_255_1_388
10
8.4223789
20
13.703495
11
8.0853494
21
13.5797066
0
LINE
8
DEFAULT_255_1_388
10
8.0853494
20
13.5797066
11
8.0853494
21
13.7315055
0
LINE
8
DEFAULT_255_1_388
10
8.0853494
20
13.7315055
11
8.5642385
21
13.9113148
0
LINE
8
DEFAULT_255_1_388
10
8.5642385
20
13.9113148
11
8.5904419
21
13.9113148
0
LINE
8
DEFAULT_255_1_388
10
4.9160457
20
21.4620892
11
4.7416577
21
21.4620892
0
LINE
8
DEFAULT_255_1_388
10
3.9627852
20
20.9082042
11
4.1371731
21
20.9082042
0
ARC
8
DEFAULT_255_1_388
10
4.8157304
20
22.4684821
40
1.4087688
50
248.9196578
51
254.1442424
0
ARC
8
DEFAULT_255_1_388
10
4.6267184
20
21.9818805
40
0.8867498
50
241.6337352
51
249.0064643
0
ARC
8
DEFAULT_255_1_388
10
4.4547498
20
21.6667764
40
0.5277799
50
230.4982261
51
241.8087583
0
ARC
8
DEFAULT_255_1_388
10
4.3665269
20
21.5543686
40
0.3849419
50
227.4062979
51
229.9877433
0
ARC
8
DEFAULT_255_1_388
10
4.3116615
20
21.5008155
40
0.3084129
50
200.6782127
51
228.1765252
0
ARC
8
DEFAULT_255_1_388
10
4.3197984
20
21.4991277
40
0.315461
50
179.506278
51
199.8695278
0
ARC
8
DEFAULT_255_1_388
10
4.3187573
20
21.5074671
40
0.3144584
50
132.4834401
51
181.0242352
0
ARC
8
DEFAULT_255_1_388
10
4.3856777
20
21.4442788
40
0.4063094
50
129.2526113
51
133.4249077
0
ARC
8
DEFAULT_255_1_388
10
4.402237
20
21.4194619
40
0.436014
50
101.9878945
51
128.8741833
0
ARC
8
DEFAULT_255_1_388
10
4.4470785
20
21.225836
40
0.6347415
50
89.5906376
51
102.3170567
0
ARC
8
DEFAULT_255_1_388
10
4.4550097
20
21.2616586
40
0.5989122
50
77.2359491
51
90.3248968
0
ARC
8
DEFAULT_255_1_388
10
4.4783028
20
21.3704554
40
0.4876594
50
63.8379856
51
77.0808925
0
ARC
8
DEFAULT_255_1_388
10
4.5095561
20
21.4286882
40
0.4216191
50
45.9863127
51
64.1608798
0
ARC
8
DEFAULT_255_1_388
10
4.5388955
20
21.462199
40
0.3771394
50
32.2747934
51
45.6544796
0
ARC
8
DEFAULT_255_1_388
10
4.5463761
20
21.4643426
40
0.3696765
50
359.6507495
51
32.6129943
0
ARC
8
DEFAULT_255_1_388
10
4.4402944
20
21.4648788
40
0.3013762
50
359.469654
51
14.983205
0
ARC
8
DEFAULT_255_1_388
10
4.5196196
20
21.4861288
40
0.2192542
50
14.9781954
51
48.2004799
0
ARC
8
DEFAULT_255_1_388
10
4.5011307
20
21.4628937
40
0.2489048
50
48.5926661
51
74.1242559
0
ARC
8
DEFAULT_255_1_388
10
4.4636109
20
21.3390607
40
0.3782845
50
73.7889321
51
86.6653996
0
ARC
8
DEFAULT_255_1_388
10
4.4520924
20
21.2032955
40
0.5145025
50
86.2642725
51
90.0533288
0
ARC
8
DEFAULT_255_1_388
10
4.4489017
20
21.2477376
40
0.4700681
50
89.669455
51
99.2313411
0
ARC
8
DEFAULT_255_1_388
10
4.4216176
20
21.4102401
40
0.3052945
50
99.0695987
51
113.7659242
0
ARC
8
DEFAULT_255_1_388
10
4.3908171
20
21.4828772
40
0.226407
50
114.0402885
51
127.9848946
0
ARC
8
DEFAULT_255_1_388
10
4.3637647
20
21.5161884
40
0.1835045
50
127.7287217
51
176.7106493
0
ARC
8
DEFAULT_255_1_388
10
4.4401312
20
21.504821
40
0.2604907
50
175.1780759
51
180.0581213
0
ARC
8
DEFAULT_255_1_388
10
4.3452656
20
21.5034411
40
0.1656287
50
179.6140658
51
228.124674
0
ARC
8
DEFAULT_255_1_388
10
4.3950013
20
21.549494
40
0.2332038
50
226.5785315
51
230.8792476
0
ARC
8
DEFAULT_255_1_388
10
4.44795
20
21.6197908
40
0.3211664
50
231.4636401
51
241.9261664
0
ARC
8
DEFAULT_255_1_388
10
4.5826283
20
21.8676349
40
0.6032345
50
241.7177136
51
248.3259138
0
ARC
8
DEFAULT_255_1_388
10
4.7384878
20
22.2537771
40
1.0196417
50
248.2007377
51
252.4527713
0
ARC
8
DEFAULT_255_1_388
10
4.8738405
20
22.6722092
40
1.4594143
50
252.3388938
51
254.347037
0
ARC
8
DEFAULT_255_1_388
10
4.0253705
20
19.6374095
40
1.6917621
50
71.0197462
51
74.4085467
0
ARC
8
DEFAULT_255_1_388
10
4.2160793
20
20.1879144
40
1.1091618
50
66.1845203
51
71.086519
0
ARC
8
DEFAULT_255_1_388
10
4.3911342
20
20.5820439
40
0.6779073
50
59.3537334
51
66.269255
0
ARC
8
DEFAULT_255_1_388
10
4.4911068
20
20.7511777
40
0.4814366
50
49.1021732
51
59.3294421
0
ARC
8
DEFAULT_255_1_388
10
4.5832056
20
20.8561575
40
0.3417875
50
32.7924183
51
49.2503526
0
ARC
8
DEFAULT_255_1_388
10
4.618167
20
20.8811311
40
0.2988789
50
31.121225
51
32.3977355
0
ARC
8
DEFAULT_255_1_388
10
4.6093848
20
20.8778728
40
0.3080861
50
8.1116803
51
30.7958224
0
ARC
8
DEFAULT_255_1_388
10
4.5182194
20
20.8623437
40
0.4005385
50
359.8390945
51
8.4707348
0
ARC
8
DEFAULT_255_1_388
10
4.5886242
20
20.8568751
40
0.3301608
50
337.4732479
51
0.7538283
0
ARC
8
DEFAULT_255_1_388
10
4.6087267
20
20.8546554
40
0.3107929
50
307.5917028
51
336.4313755
0
ARC
8
DEFAULT_255_1_388
10
4.5576324
20
20.9114509
40
0.3870096
50
307.6560665
51
308.4561779
0
ARC
8
DEFAULT_255_1_388
10
4.5310541
20
20.9522832
40
0.435591
50
284.3733666
51
307.1426212
0
ARC
8
DEFAULT_255_1_388
10
4.4753435
20
21.1572391
40
0.6479685
50
272.4384566
51
284.6464689
0
ARC
8
DEFAULT_255_1_388
10
4.461082
20
21.3596434
40
0.8508149
50
269.9708517
51
272.8180721
0
ARC
8
DEFAULT_255_1_388
10
4.4562503
20
21.1304283
40
0.6216151
50
248.2707343
51
270.4054609
0
ARC
8
DEFAULT_255_1_388
10
4.4501374
20
21.1089673
40
0.5994203
50
246.1380358
51
248.054058
0
ARC
8
DEFAULT_255_1_388
10
4.4030517
20
21.0100705
40
0.4899388
50
233.1671897
51
246.4951656
0
ARC
8
DEFAULT_255_1_388
10
4.3407152
20
20.9259137
40
0.3852115
50
215.3403381
51
233.084328
0
ARC
8
DEFAULT_255_1_388
10
4.3100516
20
20.9036093
40
0.3472969
50
179.2419235
51
215.2648426
0
ARC
8
DEFAULT_255_1_388
10
4.3964067
20
20.9051979
40
0.259251
50
179.3355796
51
199.1045873
0
ARC
8
DEFAULT_255_1_388
10
4.3590209
20
20.8954223
40
0.2207454
50
199.8830064
51
232.7061328
0
ARC
8
DEFAULT_255_1_388
10
4.4121483
20
20.9622456
40
0.306101
50
232.3736206
51
255.5136621
0
ARC
8
DEFAULT_255_1_388
10
4.4504989
20
21.1022177
40
0.4512213
50
255.2447928
51
267.5318292
0
ARC
8
DEFAULT_255_1_388
10
4.4603456
20
21.2408709
40
0.5901825
50
267.1564563
51
270.0294721
0
ARC
8
DEFAULT_255_1_388
10
4.4634781
20
21.1909623
40
0.5402814
50
269.6999944
51
278.1662446
0
ARC
8
DEFAULT_255_1_388
10
4.4922809
20
20.9962974
40
0.3435003
50
278.0229022
51
290.6255326
0
ARC
8
DEFAULT_255_1_388
10
4.5313975
20
20.8919547
40
0.2320666
50
290.6616368
51
307.0374127
0
ARC
8
DEFAULT_255_1_388
10
4.5651875
20
20.850504
40
0.1786372
50
306.3942078
51
355.303191
0
ARC
8
DEFAULT_255_1_388
10
4.5076168
20
20.8591186
40
0.2367516
50
354.3662092
51
0.0709489
0
ARC
8
DEFAULT_255_1_388
10
4.5236037
20
20.8616561
40
0.2207761
50
359.4175379
51
16.1975911
0
ARC
8
DEFAULT_255_1_388
10
4.5748155
20
20.8756954
40
0.1676828
50
16.4721294
51
52.6261798
0
ARC
8
DEFAULT_255_1_388
10
4.4824662
20
20.7537606
40
0.3206412
50
52.7381828
51
62.4979144
0
ARC
8
DEFAULT_255_1_388
10
4.3266415
20
20.4605236
40
0.6527035
50
62.2517425
51
68.1219454
0
ARC
8
DEFAULT_255_1_388
10
4.1331903
20
19.9850951
40
1.1659797
50
68.006043
51
71.8055127
0
ARC
8
DEFAULT_255_1_388
10
3.9311811
20
19.3792723
40
1.8045908
50
71.718361
51
73.9260743
0
LINE
8
DEFAULT_255_1_388
10
5.5051697
20
20.5269
11
5.1410332
21
20.5269
0
LINE
8
DEFAULT_255_1_388
10
5.1410332
20
20.5269
11
5.1410332
21
21.8424898
0
LINE
8
DEFAULT_255_1_388
10
5.1410332
20
21.8424898
11
5.5123982
21
21.8424898
0
LINE
8
DEFAULT_255_1_388
10
6.0924866
20
21.2289696
11
6.0924866
21
21.1449381
0
LINE
8
DEFAULT_255_1_388
10
5.516916
20
21.6997267
11
5.3145176
21
21.6997267
0
LINE
8
DEFAULT_255_1_388
10
5.3145176
20
21.6997267
11
5.3145176
21
20.6687596
0
LINE
8
DEFAULT_255_1_388
10
5.3145176
20
20.6687596
11
5.4970376
21
20.6687596
0
LINE
8
DEFAULT_255_1_388
10
5.9208093
20
21.1485523
11
5.9208093
21
21.2253553
0
ARC
8
DEFAULT_255_1_388
10
5.5167777
20
21.1826436
40
0.6598608
50
75.4100343
51
90.3802731
0
ARC
8
DEFAULT_255_1_388
10
5.5426022
20
21.2902691
40
0.5492049
50
60.1455157
51
75.1889627
0
ARC
8
DEFAULT_255_1_388
10
5.5604614
20
21.3213914
40
0.5133226
50
26.525419
51
60.1451222
0
ARC
8
DEFAULT_255_1_388
10
5.43444
20
21.2545642
40
0.6559324
50
7.4029944
51
26.832209
0
ARC
8
DEFAULT_255_1_388
10
5.2550797
20
21.2266229
40
0.8374103
50
0.1605597
51
7.7176135
0
ARC
8
DEFAULT_255_1_388
10
5.2735197
20
21.1406321
40
0.8189782
50
348.7289744
51
0.30125
0
ARC
8
DEFAULT_255_1_388
10
5.4598661
20
21.1036156
40
0.628991
50
333.0706936
51
348.7181455
0
ARC
8
DEFAULT_255_1_388
10
5.568629
20
21.0445449
40
0.5052808
50
299.2531435
51
333.4571133
0
ARC
8
DEFAULT_255_1_388
10
5.528032
20
21.1216629
40
0.5924066
50
278.1072193
51
299.0340218
0
ARC
8
DEFAULT_255_1_388
10
5.4992369
20
21.2912979
40
0.7644209
50
270.4446841
51
278.4508355
0
ARC
8
DEFAULT_255_1_388
10
5.5015853
20
21.18673
40
0.5179903
50
269.4969684
51
284.0204874
0
ARC
8
DEFAULT_255_1_388
10
5.5415571
20
21.0331415
40
0.3592968
50
283.7699076
51
318.1557121
0
ARC
8
DEFAULT_255_1_388
10
5.5036116
20
21.0615399
40
0.4065308
50
318.7417595
51
343.687252
0
ARC
8
DEFAULT_255_1_388
10
5.3006695
20
21.1249275
40
0.6191194
50
343.3324891
51
355.8548594
0
ARC
8
DEFAULT_255_1_388
10
5.0645733
20
21.1473719
40
0.856237
50
355.4988754
51
0.0789913
0
ARC
8
DEFAULT_255_1_388
10
5.1526532
20
21.230108
40
0.7681709
50
359.6455047
51
9.8607559
0
ARC
8
DEFAULT_255_1_388
10
5.4182255
20
21.2780664
40
0.498312
50
9.6573037
51
26.1931522
0
ARC
8
DEFAULT_255_1_388
10
5.522633
20
21.3265587
40
0.3832303
50
26.5777895
51
40.1533752
0
ARC
8
DEFAULT_255_1_388
10
5.5513995
20
21.349002
40
0.3467742
50
40.3839958
51
80.1430923
0
ARC
8
DEFAULT_255_1_388
10
5.5146251
20
21.1859486
40
0.5137832
50
79.2153636
51
89.7445174
0
LINE
8
DEFAULT_255_1_388
10
4.7349359
20
29.2143585
11
4.7349359
21
29.0724989
0
LINE
8
DEFAULT_255_1_388
10
4.7349359
20
29.0724989
11
4.1647868
21
29.0724989
0
LINE
8
DEFAULT_255_1_388
10
4.1647868
20
29.0724989
11
4.1647868
21
28.6062596
0
LINE
8
DEFAULT_255_1_388
10
4.1647868
20
28.6062596
11
4.8270995
21
28.6062596
0
LINE
8
DEFAULT_255_1_388
10
4.8270995
20
28.6062596
11
4.8270995
21
28.4644
0
LINE
8
DEFAULT_255_1_388
10
4.8270995
20
28.4644
11
3.9913024
21
28.4644
0
LINE
8
DEFAULT_255_1_388
10
3.9913024
20
28.4644
11
3.9913024
21
29.7799898
0
LINE
8
DEFAULT_255_1_388
10
3.9913024
20
29.7799898
11
4.8180639
21
29.7799898
0
LINE
8
DEFAULT_255_1_388
10
4.8180639
20
29.7799898
11
4.8180639
21
29.6372267
0
LINE
8
DEFAULT_255_1_388
10
4.8180639
20
29.6372267
11
4.1647868
21
29.6372267
0
LINE
8
DEFAULT_255_1_388
10
4.1647868
20
29.6372267
11
4.1647868
21
29.2143585
0
LINE
8
DEFAULT_255_1_388
10
4.1647868
20
29.2143585
11
4.7349359
21
29.2143585
0
LINE
8
DEFAULT_255_1_388
10
5.9701085
20
29.7799898
11
5.9701085
21
29.6372267
0
LINE
8
DEFAULT_255_1_388
10
5.9701085
20
29.6372267
11
5.5472404
21
29.6372267
0
LINE
8
DEFAULT_255_1_388
10
5.5472404
20
29.6372267
11
5.5472404
21
28.4644
0
LINE
8
DEFAULT_255_1_388
10
5.5472404
20
28.4644
11
5.3746596
21
28.4644
0
LINE
8
DEFAULT_255_1_388
10
5.3746596
20
28.4644
11
5.3746596
21
29.6372267
0
LINE
8
DEFAULT_255_1_388
10
5.3746596
20
29.6372267
11
4.952695
21
29.6372267
0
LINE
8
DEFAULT_255_1_388
10
4.952695
20
29.6372267
11
4.952695
21
29.7799898
0
LINE
8
DEFAULT_255_1_388
10
4.952695
20
29.7799898
11
5.9701085
21
29.7799898
0
LINE
8
DEFAULT_255_1_388
10
7.1763671
20
29.7799898
11
7.1763671
21
28.4644
0
LINE
8
DEFAULT_255_1_388
10
7.1763671
20
28.4644
11
7.0019792
21
28.4644
0
LINE
8
DEFAULT_255_1_388
10
7.0019792
20
28.4644
11
7.0019792
21
29.0724989
0
LINE
8
DEFAULT_255_1_388
10
7.0019792
20
29.0724989
11
6.3387628
21
29.0724989
0
LINE
8
DEFAULT_255_1_388
10
6.3387628
20
29.0724989
11
6.3387628
21
28.4644
0
LINE
8
DEFAULT_255_1_388
10
6.3387628
20
28.4644
11
6.1652785
21
28.4644
0
LINE
8
DEFAULT_255_1_388
10
6.1652785
20
28.4644
11
6.1652785
21
29.7799898
0
LINE
8
DEFAULT_255_1_388
10
6.1652785
20
29.7799898
11
6.3387628
21
29.7799898
0
LINE
8
DEFAULT_255_1_388
10
6.3387628
20
29.7799898
11
6.3387628
21
29.2143585
0
LINE
8
DEFAULT_255_1_388
10
6.3387628
20
29.2143585
11
7.0019792
21
29.2143585
0
LINE
8
DEFAULT_255_1_388
10
7.0019792
20
29.2143585
11
7.0019792
21
29.7799898
0
LINE
8
DEFAULT_255_1_388
10
7.0019792
20
29.7799898
11
7.1763671
21
29.7799898
0
LINE
8
DEFAULT_255_1_388
10
4.1672903
20
37.7174898
11
4.1672903
21
36.5437596
0
LINE
8
DEFAULT_255_1_388
10
4.1672903
20
36.5437596
11
4.7907498
21
36.5437596
0
LINE
8
DEFAULT_255_1_388
10
4.7907498
20
36.5437596
11
4.7907498
21
36.4019
0
LINE
8
DEFAULT_255_1_388
10
4.7907498
20
36.4019
11
3.9929024
21
36.4019
0
LINE
8
DEFAULT_255_1_388
10
3.9929024
20
36.4019
11
3.9929024
21
37.7174898
0
LINE
8
DEFAULT_255_1_388
10
3.9929024
20
37.7174898
11
4.1672903
21
37.7174898
0
LINE
8
DEFAULT_255_1_388
10
5.4413162
20
37.4915987
11
5.4413162
21
37.1075838
0
LINE
8
DEFAULT_255_1_388
10
5.4413162
20
37.1075838
11
5.8081634
21
37.1075838
0
LINE
8
DEFAULT_255_1_388
10
5.8081634
20
37.1075838
11
5.8081634
21
36.9494601
0
LINE
8
DEFAULT_255_1_388
10
5.8081634
20
36.9494601
11
5.4413162
21
36.9494601
0
LINE
8
DEFAULT_255_1_388
10
5.4413162
20
36.9494601
11
5.4413162
21
36.5338204
0
LINE
8
DEFAULT_255_1_388
10
5.4413162
20
36.5338204
11
5.2732532
21
36.5338204
0
LINE
8
DEFAULT_255_1_388
10
5.2732532
20
36.5338204
11
5.2732532
21
36.9494601
0
LINE
8
DEFAULT_255_1_388
10
5.2732532
20
36.9494601
11
4.9064061
21
36.9494601
0
LINE
8
DEFAULT_255_1_388
10
4.9064061
20
36.9494601
11
4.9064061
21
37.1075838
0
LINE
8
DEFAULT_255_1_388
10
4.9064061
20
37.1075838
11
5.2732532
21
37.1075838
0
LINE
8
DEFAULT_255_1_388
10
5.2732532
20
37.1075838
11
5.2732532
21
37.4915987
0
LINE
8
DEFAULT_255_1_388
10
5.2732532
20
37.4915987
11
5.4413162
21
37.4915987
0
LINE
8
DEFAULT_255_1_388
10
23.1198856
20
45.117369
11
23.1198856
21
44.9005135
0
LINE
8
DEFAULT_255_1_388
10
22.2895099
20
44.8779244
11
22.2895099
21
45.1011048
0
LINE
8
DEFAULT_255_1_388
10
22.9527262
20
44.8553353
11
22.9527262
21
45.1291153
0
LINE
8
DEFAULT_255_1_388
10
22.4566693
20
45.1417652
11
22.4566693
21
44.8743102
0
ARC
8
DEFAULT_255_1_388
10
21.742119
20
44.8950118
40
1.3777776
50
353.8440855
51
0.2287917
0
ARC
8
DEFAULT_255_1_388
10
22.2640208
20
44.8367414
40
0.852639
50
344.4934746
51
353.9763743
0
ARC
8
DEFAULT_255_1_388
10
22.6007015
20
44.7410191
40
0.5026273
50
329.2803599
51
344.7473406
0
ARC
8
DEFAULT_255_1_388
10
22.7122511
20
44.6798038
40
0.3754848
50
324.9361395
51
328.6153007
0
ARC
8
DEFAULT_255_1_388
10
22.7548161
20
44.6500586
40
0.3235566
50
280.5801797
51
324.9173226
0
ARC
8
DEFAULT_255_1_388
10
22.7096789
20
44.8380236
40
0.5167077
50
269.5979457
51
281.6732777
0
ARC
8
DEFAULT_255_1_388
10
22.7015693
20
44.8245113
40
0.5032026
50
256.6228565
51
270.5105488
0
ARC
8
DEFAULT_255_1_388
10
22.6563435
20
44.6503345
40
0.3233092
50
215.8618351
51
257.2787793
0
ARC
8
DEFAULT_255_1_388
10
22.7712142
20
44.7274106
40
0.4615831
50
197.9695203
51
215.2622745
0
ARC
8
DEFAULT_255_1_388
10
23.0507818
20
44.8217641
40
0.7566307
50
187.8816486
51
198.2346584
0
ARC
8
DEFAULT_255_1_388
10
23.4961056
20
44.8860453
40
1.2065653
50
180.8977266
51
188.0054894
0
ARC
8
DEFAULT_255_1_388
10
23.801127
20
44.89754
40
1.5117443
50
180.7434591
51
181.152202
0
ARC
8
DEFAULT_255_1_388
10
23.6336266
20
45.1065371
40
1.3441277
50
173.7674302
51
180.2315596
0
ARC
8
DEFAULT_255_1_388
10
23.1254135
20
45.1639779
40
0.8326847
50
164.3058537
51
173.9000553
0
ARC
8
DEFAULT_255_1_388
10
22.7978135
20
45.2583652
40
0.4917711
50
148.7922028
51
164.5682288
0
ARC
8
DEFAULT_255_1_388
10
22.6908872
20
45.3180457
40
0.3694204
50
144.5883979
51
148.1161588
0
ARC
8
DEFAULT_255_1_388
10
22.6521618
20
45.3450667
40
0.322202
50
101.6440149
51
144.5142619
0
ARC
8
DEFAULT_255_1_388
10
22.699981
20
45.1550337
40
0.5180451
50
89.528284
51
102.5820197
0
ARC
8
DEFAULT_255_1_388
10
22.7088802
20
45.1506376
40
0.5224441
50
77.0437914
51
90.508231
0
ARC
8
DEFAULT_255_1_388
10
22.7541055
20
45.3354272
40
0.3322297
50
48.2777708
51
77.4996087
0
ARC
8
DEFAULT_255_1_388
10
22.7622795
20
45.3499557
40
0.315966
50
36.3141586
51
47.6307332
0
ARC
8
DEFAULT_255_1_388
10
22.6645518
20
45.2841159
40
0.4337313
50
18.2931065
51
35.6770203
0
ARC
8
DEFAULT_255_1_388
10
22.3784358
20
45.1859107
40
0.7362203
50
8.0246996
51
18.5605636
0
ARC
8
DEFAULT_255_1_388
10
21.9100714
20
45.1167432
40
1.2096583
50
1.127539
51
8.1718423
0
ARC
8
DEFAULT_255_1_388
10
21.5451847
20
45.1024374
40
1.5747719
50
0.5432713
51
1.38669
0
ARC
8
DEFAULT_255_1_388
10
21.7509226
20
45.1331163
40
1.2018103
50
359.8092569
51
4.9408001
0
ARC
8
DEFAULT_255_1_388
10
22.2245807
20
45.17539
40
0.7262727
50
4.8364937
51
12.2906017
0
ARC
8
DEFAULT_255_1_388
10
22.5345272
20
45.2444485
40
0.4087324
50
12.0806994
51
23.8171225
0
ARC
8
DEFAULT_255_1_388
10
22.6665668
20
45.3003508
40
0.2653719
50
24.2874621
51
31.3934353
0
ARC
8
DEFAULT_255_1_388
10
22.7256104
20
45.3389822
40
0.1948607
50
30.7407708
51
82.4658033
0
ARC
8
DEFAULT_255_1_388
10
22.7053765
20
45.2396017
40
0.2961198
50
81.1057101
51
90.2187368
0
ARC
8
DEFAULT_255_1_388
10
22.7013577
20
45.2686421
40
0.2670929
50
89.380395
51
105.6763916
0
ARC
8
DEFAULT_255_1_388
10
22.6807299
20
45.343632
40
0.1893189
50
105.7980655
51
149.7387869
0
ARC
8
DEFAULT_255_1_388
10
22.8004439
20
45.2716719
40
0.3289892
50
149.4208441
51
163.628295
0
ARC
8
DEFAULT_255_1_388
10
23.0356668
20
45.1999345
40
0.5749004
50
163.3764549
51
172.141138
0
ARC
8
DEFAULT_255_1_388
10
23.406939
20
45.1467582
40
0.9499585
50
172.0258462
51
178.0705453
0
ARC
8
DEFAULT_255_1_388
10
23.7490943
20
45.1305682
40
1.2924734
50
177.8639301
51
179.5036263
0
ARC
8
DEFAULT_255_1_388
10
23.6271961
20
44.8702151
40
1.170534
50
179.7995545
51
185.246089
0
ARC
8
DEFAULT_255_1_388
10
23.1723554
20
44.8271404
40
0.7136613
50
185.1411911
51
193.0082205
0
ARC
8
DEFAULT_255_1_388
10
22.8749815
20
44.7568441
40
0.4080987
50
192.7897338
51
205.2507384
0
ARC
8
DEFAULT_255_1_388
10
22.7572025
20
44.7042538
40
0.2791522
50
205.8001921
51
211.2545876
0
ARC
8
DEFAULT_255_1_388
10
22.6983564
20
44.6648132
40
0.2084074
50
210.3789935
51
238.4007996
0
ARC
8
DEFAULT_255_1_388
10
22.696165
20
44.6700786
40
0.2117943
50
239.6521916
51
265.9793852
0
ARC
8
DEFAULT_255_1_388
10
22.7057499
20
44.7457358
40
0.2879689
50
265.1324455
51
270.0603288
0
ARC
8
DEFAULT_255_1_388
10
22.7089876
20
44.7092418
40
0.2514919
50
269.3314378
51
287.2180039
0
ARC
8
DEFAULT_255_1_388
10
22.7244958
20
44.6526291
40
0.1928357
50
287.7957942
51
329.0808983
0
ARC
8
DEFAULT_255_1_388
10
22.6167715
20
44.7198651
40
0.319808
50
328.6635261
51
343.3325043
0
ARC
8
DEFAULT_255_1_388
10
22.3723174
20
44.7960195
40
0.5758408
50
343.0498092
51
351.9392499
0
ARC
8
DEFAULT_255_1_388
10
21.9822496
20
44.8535205
40
0.9701202
50
351.8071632
51
357.7957897
0
ARC
8
DEFAULT_255_1_388
10
21.6187973
20
44.8723724
40
1.3340376
50
357.5870923
51
359.2682493
0
LINE
8
DEFAULT_255_1_388
10
23.4388439
20
45.6549898
11
23.8129196
21
44.5698089
0
LINE
8
DEFAULT_255_1_388
10
23.8129196
20
44.5698089
11
24.1888024
21
45.6549898
0
LINE
8
DEFAULT_255_1_388
10
24.1888024
20
45.6549898
11
24.3785509
21
45.6549898
0
LINE
8
DEFAULT_255_1_388
10
24.3785509
20
45.6549898
11
23.8906261
21
44.3394
0
LINE
8
DEFAULT_255_1_388
10
23.8906261
20
44.3394
11
23.7370202
21
44.3394
0
LINE
8
DEFAULT_255_1_388
10
23.7370202
20
44.3394
11
23.2499989
21
45.6549898
0
LINE
8
DEFAULT_255_1_388
10
23.2499989
20
45.6549898
11
23.4388439
21
45.6549898
0
ENDSEC
0
EOF