0
SECTION
2
HEADER
9
$MEASUREMENT
70
1
0
ENDSEC
0
SECTION
2
TABLES
0
TABLE
2
LTYPE
0
LTYPE
72
65
70
64
2
CONTINUOUS
3
______
73
0
40
0
0
ENDTAB
0
TABLE
2
LAYER
0
LAYER
2
DEFAULT_255_2_778
70
0
62
255
6
CONTINUOUS
0
LAYER
2
DEFAULT_255_1_234
70
0
62
255
6
CONTINUOUS
0
ENDTAB
0
ENDSEC
0
SECTION
2
ENTITIES
0
ARC
8
DEFAULT_255_2_778
10
3.5700693
20
44.0552035
40
0.7914215
50
129.1312896
51
180.1450914
0
ARC
8
DEFAULT_255_2_778
10
3.5703345
20
44.0556906
40
0.7912112
50
89.854026
51
129.1684493
0
ARC
8
DEFAULT_255_2_778
10
25.7993937
20
44.0553771
40
0.7915249
50
39.4792447
51
90.147911
0
ARC
8
DEFAULT_255_2_778
10
25.7999935
20
44.0552238
40
0.7911595
50
359.8533901
51
39.5154338
0
ARC
8
DEFAULT_255_2_778
10
25.7996693
20
-1.9863488
40
0.7914836
50
309.4761667
51
0.1482649
0
ARC
8
DEFAULT_255_2_778
10
25.799398
20
-1.9867799
40
0.7913235
50
269.8517415
51
309.511178
0
ARC
8
DEFAULT_255_2_778
10
3.570342
20
-1.9867217
40
0.7913815
50
219.1282118
51
270.1454017
0
ARC
8
DEFAULT_255_2_778
10
3.5700247
20
-1.9863392
40
0.7913769
50
179.8524075
51
219.1641908
0
LINE
8
DEFAULT_255_2_778
10
3.5723503
20
44.8468993
11
25.7973503
21
44.8468993
0
LINE
8
DEFAULT_255_2_778
10
26.5911503
20
44.0531993
11
26.5911503
21
-1.9843007
0
LINE
8
DEFAULT_255_2_778
10
25.7973503
20
-2.7781007
11
3.5723503
21
-2.7781007
0
LINE
8
DEFAULT_255_2_778
10
2.7786503
20
-1.9843007
11
2.7786503
21
44.0531993
0
LINE
8
DEFAULT_255_1_234
10
10.0173344
20
-0.1934909
11
9.7418458
21
-0.1934909
0
LINE
8
DEFAULT_255_1_234
10
9.7418458
20
-0.1934909
11
9.7418458
21
-0.6513
0
LINE
8
DEFAULT_255_1_234
10
9.7418458
20
-0.6513
11
9.5876364
21
-0.6513
0
LINE
8
DEFAULT_255_1_234
10
9.5876364
20
-0.6513
11
9.5876364
21
0.5181211
0
LINE
8
DEFAULT_255_1_234
10
9.5876364
20
0.5181211
11
10.0189407
21
0.5181211
0
LINE
8
DEFAULT_255_1_234
10
9.7418458
20
0.3912196
11
9.7418458
21
-0.0673926
0
LINE
8
DEFAULT_255_1_234
10
9.7418458
20
-0.0673926
11
10.0189407
21
-0.0673926
0
LINE
8
DEFAULT_255_1_234
10
10.0277756
20
0.3912196
11
9.7418458
21
0.3912196
0
ARC
8
DEFAULT_255_1_234
10
10.0231534
20
-0.0877805
40
0.6059162
50
78.8378113
51
90.3983573
0
ARC
8
DEFAULT_255_1_234
10
10.0647548
20
0.1142879
40
0.3996205
50
58.9632738
51
79.0810598
0
ARC
8
DEFAULT_255_1_234
10
10.094909
20
0.1702721
40
0.3361177
50
48.0197965
51
58.447194
0
ARC
8
DEFAULT_255_1_234
10
10.1037951
20
0.1788225
40
0.3238191
50
3.3375044
51
48.1766626
0
ARC
8
DEFAULT_255_1_234
10
9.980779
20
0.1611171
40
0.4477806
50
359.9477528
51
4.6829065
0
ARC
8
DEFAULT_255_1_234
10
9.9931107
20
0.1568628
40
0.4354656
50
346.1877825
51
0.5060252
0
ARC
8
DEFAULT_255_1_234
10
10.1289975
20
0.1215731
40
0.295089
50
310.8831995
51
346.5426355
0
ARC
8
DEFAULT_255_1_234
10
10.0981395
20
0.1632695
40
0.3468331
50
286.6925341
51
310.2288297
0
ARC
8
DEFAULT_255_1_234
10
10.0412226
20
0.3422882
40
0.5346654
50
274.6850312
51
287.0245141
0
ARC
8
DEFAULT_255_1_234
10
10.0186949
20
0.5631932
40
0.7566852
50
269.8969846
51
275.018904
0
ARC
8
DEFAULT_255_1_234
10
10.021454
20
0.3552707
40
0.4226708
50
269.6593078
51
279.4153575
0
ARC
8
DEFAULT_255_1_234
10
10.0471815
20
0.2062133
40
0.2714146
50
279.2049762
51
294.9900808
0
ARC
8
DEFAULT_255_1_234
10
10.0762141
20
0.1414508
40
0.2004525
50
295.2888114
51
311.2911209
0
ARC
8
DEFAULT_255_1_234
10
10.0833035
20
0.130922
40
0.1878703
50
311.7854996
51
347.2861051
0
ARC
8
DEFAULT_255_1_234
10
9.9849194
20
0.1562092
40
0.2894234
50
346.6893224
51
0.1059443
0
ARC
8
DEFAULT_255_1_234
10
9.9094089
20
0.1590685
40
0.3649409
50
359.6350983
51
0.0053152
0
ARC
8
DEFAULT_255_1_234
10
10.0064417
20
0.1615937
40
0.2679199
50
359.4672059
51
15.5933957
0
ARC
8
DEFAULT_255_1_234
10
10.0689306
20
0.1784779
40
0.2031932
50
15.7442113
51
46.6203375
0
ARC
8
DEFAULT_255_1_234
10
10.0541527
20
0.1614484
40
0.2257226
50
46.8628658
51
75.6676503
0
ARC
8
DEFAULT_255_1_234
10
10.0247347
20
0.0555718
40
0.3355939
50
75.276167
51
88.2915297
0
ARC
8
DEFAULT_255_1_234
10
10.0189054
20
-0.0322476
40
0.4235602
50
87.8575022
51
88.8000139
0
LINE
8
DEFAULT_255_1_234
10
10.625337
20
0.5181211
11
10.8245241
21
0.5181211
0
LINE
8
DEFAULT_255_1_234
10
10.8245241
20
0.5181211
11
11.2068348
21
-0.4360494
0
LINE
8
DEFAULT_255_1_234
10
11.2068348
20
-0.4360494
11
11.5891456
21
0.5181211
0
LINE
8
DEFAULT_255_1_234
10
11.5891456
20
0.5181211
11
11.7891358
21
0.5181211
0
LINE
8
DEFAULT_255_1_234
10
11.7891358
20
0.5181211
11
11.7891358
21
-0.6513
0
LINE
8
DEFAULT_255_1_234
10
11.7891358
20
-0.6513
11
11.6349265
21
-0.6513
0
LINE
8
DEFAULT_255_1_234
10
11.6349265
20
-0.6513
11
11.6349265
21
-0.1959004
0
LINE
8
DEFAULT_255_1_234
10
11.6349265
20
-0.1959004
11
11.6493836
21
0.2956419
0
LINE
8
DEFAULT_255_1_234
10
11.6493836
20
0.2956419
11
11.2654665
21
-0.6513
0
LINE
8
DEFAULT_255_1_234
10
11.2654665
20
-0.6513
11
11.1474
21
-0.6513
0
LINE
8
DEFAULT_255_1_234
10
11.1474
20
-0.6513
11
10.764286
21
0.2932324
0
LINE
8
DEFAULT_255_1_234
10
10.764286
20
0.2932324
11
10.7795463
21
-0.1959004
0
LINE
8
DEFAULT_255_1_234
10
10.7795463
20
-0.1959004
11
10.7795463
21
-0.6513
0
LINE
8
DEFAULT_255_1_234
10
10.7795463
20
-0.6513
11
10.625337
21
-0.6513
0
LINE
8
DEFAULT_255_1_234
10
10.625337
20
-0.6513
11
10.625337
21
0.5181211
0
LINE
8
DEFAULT_255_1_234
10
12.2099989
20
-0.0955037
11
12.0911292
21
-0.0649831
0
LINE
8
DEFAULT_255_1_234
10
12.0911292
20
-0.0649831
11
12.1505641
21
0.5181211
0
LINE
8
DEFAULT_255_1_234
10
12.1505641
20
0.5181211
11
12.7497317
21
0.5181211
0
LINE
8
DEFAULT_255_1_234
10
12.7497317
20
0.5181211
11
12.7497317
21
0.3807784
0
LINE
8
DEFAULT_255_1_234
10
12.7497317
20
0.3807784
11
12.2766624
21
0.3807784
0
LINE
8
DEFAULT_255_1_234
10
12.2766624
20
0.3807784
11
12.2413227
21
0.0619184
0
LINE
8
DEFAULT_255_1_234
10
12.0493642
20
-0.3436844
11
12.1899196
21
-0.3436844
0
LINE
8
DEFAULT_255_1_234
10
12.2493544
20
-0.0633768
11
12.2099989
21
-0.0955037
0
ARC
8
DEFAULT_255_1_234
10
12.4268011
20
-0.256077
40
0.3681349
50
93.7182161
51
120.2538958
0
ARC
8
DEFAULT_255_1_234
10
12.4362274
20
-0.3368606
40
0.449379
50
89.9660152
51
94.2496022
0
ARC
8
DEFAULT_255_1_234
10
12.4403008
20
-0.2779451
40
0.390482
50
73.8043271
51
90.5585896
0
ARC
8
DEFAULT_255_1_234
10
12.4637905
20
-0.1921398
40
0.3015334
50
41.3071453
51
73.5430202
0
ARC
8
DEFAULT_255_1_234
10
12.4221732
20
-0.2279676
40
0.3564457
50
13.5075983
51
41.2174222
0
ARC
8
DEFAULT_255_1_234
10
12.2579936
20
-0.2709514
40
0.5261351
50
1.1331335
51
13.8829381
0
ARC
8
DEFAULT_255_1_234
10
12.1168305
20
-0.2785335
40
0.6674378
50
359.9919444
51
1.544251
0
ARC
8
DEFAULT_255_1_234
10
12.2445131
20
-0.282672
40
0.5397702
50
347.8572367
51
0.4293338
0
ARC
8
DEFAULT_255_1_234
10
12.4195449
20
-0.3223264
40
0.3603188
50
323.673004
51
348.1672506
0
ARC
8
DEFAULT_255_1_234
10
12.4489957
20
-0.3402832
40
0.3259678
50
316.8171152
51
323.1492751
0
ARC
8
DEFAULT_255_1_234
10
12.4551146
20
-0.343954
40
0.3189975
50
281.8396411
51
316.5457803
0
ARC
8
DEFAULT_255_1_234
10
12.4175409
20
-0.1884238
40
0.4789527
50
269.5770101
51
282.4214771
0
ARC
8
DEFAULT_255_1_234
10
12.4104221
20
-0.2097875
40
0.45759
50
256.2427136
51
270.4486331
0
ARC
8
DEFAULT_255_1_234
10
12.3805123
20
-0.3297771
40
0.3339303
50
228.9023911
51
256.3314342
0
ARC
8
DEFAULT_255_1_234
10
12.3731356
20
-0.3414254
40
0.32031
50
193.753695
51
228.5271154
0
ARC
8
DEFAULT_255_1_234
10
12.496931
20
-0.30512
40
0.4492253
50
184.924711
51
194.497588
0
ARC
8
DEFAULT_255_1_234
10
12.5161877
20
-0.3015409
40
0.3289787
50
187.3600538
51
198.6732863
0
ARC
8
DEFAULT_255_1_234
10
12.4112171
20
-0.3379326
40
0.217884
50
198.4451669
51
217.794479
0
ARC
8
DEFAULT_255_1_234
10
12.3816346
20
-0.3588915
40
0.1816698
50
218.2887171
51
228.5612368
0
ARC
8
DEFAULT_255_1_234
10
12.3914133
20
-0.3457037
40
0.1980329
50
228.9654866
51
258.1234728
0
ARC
8
DEFAULT_255_1_234
10
12.4119843
20
-0.2576167
40
0.2884748
50
257.7258293
51
270.401361
0
ARC
8
DEFAULT_255_1_234
10
12.4164729
20
-0.3021179
40
0.2439788
50
269.4204404
51
286.4209037
0
ARC
8
DEFAULT_255_1_234
10
12.4313217
20
-0.3560343
40
0.1880666
50
286.7251356
51
320.600362
0
ARC
8
DEFAULT_255_1_234
10
12.3930042
20
-0.3249405
40
0.2374121
50
320.6712579
51
344.5441685
0
ARC
8
DEFAULT_255_1_234
10
12.2773368
20
-0.2909955
40
0.3579479
50
344.2412205
51
356.7357071
0
ARC
8
DEFAULT_255_1_234
10
12.1524517
20
-0.2806556
40
0.4832297
50
356.3548756
51
0.0500261
0
ARC
8
DEFAULT_255_1_234
10
12.2861026
20
-0.277535
40
0.3495889
50
359.5576869
51
12.953486
0
ARC
8
DEFAULT_255_1_234
10
12.3915923
20
-0.2519566
40
0.2410532
50
12.6490276
51
41.6081334
0
ARC
8
DEFAULT_255_1_234
10
12.4146294
20
-0.2323679
40
0.2108218
50
41.7850273
51
85.9892764
0
ARC
8
DEFAULT_255_1_234
10
12.4023031
20
-0.3136538
40
0.2928454
50
84.6957577
51
90.0676183
0
ARC
8
DEFAULT_255_1_234
10
12.3999515
20
-0.3805284
40
0.3597255
50
89.6804936
51
99.1614436
0
ARC
8
DEFAULT_255_1_234
10
12.3794146
20
-0.2577869
40
0.235281
50
98.9830931
51
113.8908934
0
ARC
8
DEFAULT_255_1_234
10
12.3564556
20
-0.2036413
40
0.176479
50
114.1950727
51
127.3641004
0
LINE
8
DEFAULT_255_1_234
10
13.6653499
20
0.0506739
11
13.6653499
21
0.0073025
0
LINE
8
DEFAULT_255_1_234
10
13.1232076
20
-0.6521032
11
13.0942933
21
-0.6521032
0
LINE
8
DEFAULT_255_1_234
10
13.0942933
20
-0.6521032
11
13.0942933
21
-0.5268081
0
LINE
8
DEFAULT_255_1_234
10
13.0942933
20
-0.5268081
11
13.1256171
21
-0.5268081
0
LINE
8
DEFAULT_255_1_234
10
13.5167627
20
0.0217597
11
13.5167627
21
0.0811945
0
ARC
8
DEFAULT_255_1_234
10
13.2373897
20
0.0963403
40
0.3635579
50
297.4037347
51
320.016758
0
ARC
8
DEFAULT_255_1_234
10
13.2663846
20
0.040624
40
0.3007486
50
270.2633101
51
297.3851877
0
ARC
8
DEFAULT_255_1_234
10
13.2629801
20
0.0869904
40
0.3471448
50
269.9966443
51
270.7900392
0
ARC
8
DEFAULT_255_1_234
10
13.2604283
20
0.0868143
40
0.3469779
50
254.5999133
51
270.4180344
0
ARC
8
DEFAULT_255_1_234
10
13.2461642
20
0.0303647
40
0.2887697
50
236.4717942
51
254.3541279
0
ARC
8
DEFAULT_255_1_234
10
13.261786
20
0.0513711
40
0.3149125
50
208.4727207
51
236.2134933
0
ARC
8
DEFAULT_255_1_234
10
13.3256635
20
0.0904455
40
0.3897115
50
204.3447514
51
209.0453999
0
ARC
8
DEFAULT_255_1_234
10
13.3936211
20
0.1192656
40
0.4635101
50
183.9375985
51
204.1276318
0
ARC
8
DEFAULT_255_1_234
10
13.4844462
20
0.1290482
40
0.5548037
50
179.9652252
51
184.3013875
0
ARC
8
DEFAULT_255_1_234
10
13.4604508
20
0.1323507
40
0.5308164
50
166.7585989
51
180.3201225
0
ARC
8
DEFAULT_255_1_234
10
13.3758122
20
0.1507488
40
0.4442163
50
154.6955053
51
166.5679793
0
ARC
8
DEFAULT_255_1_234
10
13.2904992
20
0.193721
40
0.3487299
50
136.3324195
51
155.0871442
0
ARC
8
DEFAULT_255_1_234
10
13.2624065
20
0.2177954
40
0.3117924
50
121.236733
51
135.9680508
0
ARC
8
DEFAULT_255_1_234
10
13.2764563
20
0.1917743
40
0.3413302
50
96.845628
51
120.9881519
0
ARC
8
DEFAULT_255_1_234
10
13.2910144
20
0.0982515
40
0.4359341
50
89.8870174
51
97.2802754
0
ARC
8
DEFAULT_255_1_234
10
13.2962583
20
0.1620095
40
0.3722009
50
70.6505584
51
90.6749113
0
ARC
8
DEFAULT_255_1_234
10
13.3093862
20
0.2133361
40
0.3194571
50
36.7492984
51
69.8219918
0
ARC
8
DEFAULT_255_1_234
10
13.2095026
20
0.1354993
40
0.4460685
50
15.39587
51
37.0840084
0
ARC
8
DEFAULT_255_1_234
10
12.996546
20
0.0734242
40
0.6678714
50
3.9488873
51
15.6798563
0
ARC
8
DEFAULT_255_1_234
10
12.7564088
20
0.0517964
40
0.9089418
50
359.929245
51
4.2665314
0
ARC
8
DEFAULT_255_1_234
10
12.2958525
20
0.0006513
40
1.3695135
50
352.8366322
51
0.2782669
0
ARC
8
DEFAULT_255_1_234
10
12.8246204
20
-0.0680371
40
0.8363105
50
341.8359505
51
352.9884176
0
ARC
8
DEFAULT_255_1_234
10
13.1464923
20
-0.17653
40
0.4966642
50
322.8578092
51
342.1527901
0
ARC
8
DEFAULT_255_1_234
10
13.2328879
20
-0.2354616
40
0.3922466
50
319.334325
51
322.0998941
0
ARC
8
DEFAULT_255_1_234
10
13.2019216
20
-0.2043791
40
0.4360033
50
285.9541367
51
318.8878087
0
ARC
8
DEFAULT_255_1_234
10
13.1292477
20
0.02666
40
0.678149
50
272.9281676
51
286.4922826
0
ARC
8
DEFAULT_255_1_234
10
13.1102595
20
0.2517587
40
0.9039547
50
270.8207226
51
273.4012994
0
ARC
8
DEFAULT_255_1_234
10
13.1191446
20
0.0698666
40
0.5967098
50
270.6214993
51
281.4062806
0
ARC
8
DEFAULT_255_1_234
10
13.1621426
20
-0.1357167
40
0.3866861
50
281.1852553
51
299.0621114
0
ARC
8
DEFAULT_255_1_234
10
13.1994998
20
-0.2078202
40
0.3055236
50
299.5067782
51
313.1200873
0
ARC
8
DEFAULT_255_1_234
10
13.2016965
20
-0.2157446
40
0.2982623
50
313.8526205
51
338.5989322
0
ARC
8
DEFAULT_255_1_234
10
13.0393039
20
-0.1490219
40
0.4738131
50
338.2523585
51
351.2430902
0
ARC
8
DEFAULT_255_1_234
10
12.7982335
20
-0.1080553
40
0.7183203
50
350.9409515
51
357.6691871
0
ARC
8
DEFAULT_255_1_234
10
13.2872765
20
0.0921764
40
0.2294452
50
269.9447023
51
306.8248917
0
ARC
8
DEFAULT_255_1_234
10
13.263568
20
0.1344898
40
0.2775994
50
305.5072438
51
327.0773448
0
ARC
8
DEFAULT_255_1_234
10
13.2754121
20
0.1250025
40
0.2625056
50
327.4104943
51
336.840169
0
ARC
8
DEFAULT_255_1_234
10
12.9660186
20
0.0844302
40
0.5507537
50
359.6633817
51
10.117533
0
ARC
8
DEFAULT_255_1_234
10
13.1413984
20
0.1168777
40
0.372403
50
9.9430141
51
26.7700076
0
ARC
8
DEFAULT_255_1_234
10
13.2011196
20
0.1444187
40
0.3066865
50
27.2015464
51
34.6829435
0
ARC
8
DEFAULT_255_1_234
10
13.2500676
20
0.1811977
40
0.245519
50
34.1250343
51
50.3070065
0
ARC
8
DEFAULT_255_1_234
10
13.2947356
20
0.2346385
40
0.1758693
50
50.3851167
51
90.6705993
0
ARC
8
DEFAULT_255_1_234
10
13.2900589
20
0.2041799
40
0.2063326
50
89.272901
51
111.9140407
0
ARC
8
DEFAULT_255_1_234
10
13.2881117
20
0.218244
40
0.1925887
50
112.9382311
51
142.5320782
0
ARC
8
DEFAULT_255_1_234
10
13.3427297
20
0.1738969
40
0.2629232
50
142.1021256
51
166.3835592
0
ARC
8
DEFAULT_255_1_234
10
13.4608602
20
0.1433915
40
0.3849193
50
166.1100289
51
178.665427
0
ARC
8
DEFAULT_255_1_234
10
13.5656191
20
0.1375117
40
0.4897989
50
178.2632126
51
180.0111093
0
ARC
8
DEFAULT_255_1_234
10
13.4854312
20
0.1346728
40
0.40962
50
179.6161962
51
191.8787166
0
ARC
8
DEFAULT_255_1_234
10
13.3634151
20
0.1076896
40
0.2846655
50
191.6191692
51
215.2972286
0
ARC
8
DEFAULT_255_1_234
10
13.3437342
20
0.0961918
40
0.2619665
50
215.7320102
51
216.5355409
0
ARC
8
DEFAULT_255_1_234
10
13.2898428
20
0.0529647
40
0.1929497
50
215.7486685
51
239.9727502
0
ARC
8
DEFAULT_255_1_234
10
13.2828344
20
0.0478894
40
0.1850822
50
241.0650169
51
269.2810483
0
ARC
8
DEFAULT_255_1_234
10
13.2870259
20
0.0969371
40
0.2342059
50
268.4062526
51
270.0071348
0
LINE
8
DEFAULT_255_1_234
10
14.3584889
20
0.5237433
11
14.3584889
21
-0.6513
0
LINE
8
DEFAULT_255_1_234
10
14.3584889
20
-0.6513
11
14.2090986
21
-0.6513
0
LINE
8
DEFAULT_255_1_234
10
14.2090986
20
-0.6513
11
14.2090986
21
0.3390133
0
LINE
8
DEFAULT_255_1_234
10
14.2090986
20
0.3390133
11
13.9095147
21
0.2289785
0
LINE
8
DEFAULT_255_1_234
10
13.9095147
20
0.2289785
11
13.9095147
21
0.3639117
0
LINE
8
DEFAULT_255_1_234
10
13.9095147
20
0.3639117
11
14.3351969
21
0.5237433
0
LINE
8
DEFAULT_255_1_234
10
14.3351969
20
0.5237433
11
14.3584889
21
0.5237433
0
LINE
8
DEFAULT_255_1_234
10
15.1182914
20
-0.0938974
11
15.1182914
21
-0.2151766
0
LINE
8
DEFAULT_255_1_234
10
15.1182914
20
-0.2151766
11
14.7263425
21
-0.2151766
0
LINE
8
DEFAULT_255_1_234
10
14.7263425
20
-0.2151766
11
14.7263425
21
-0.0938974
0
LINE
8
DEFAULT_255_1_234
10
14.7263425
20
-0.0938974
11
15.1182914
21
-0.0938974
0
LINE
8
DEFAULT_255_1_234
10
15.3407705
20
0.5181211
11
15.6732845
21
-0.4464907
0
LINE
8
DEFAULT_255_1_234
10
15.6732845
20
-0.4464907
11
16.0074048
21
0.5181211
0
LINE
8
DEFAULT_255_1_234
10
16.0074048
20
0.5181211
11
16.1760713
21
0.5181211
0
LINE
8
DEFAULT_255_1_234
10
16.1760713
20
0.5181211
11
15.7423574
21
-0.6513
0
LINE
8
DEFAULT_255_1_234
10
15.7423574
20
-0.6513
11
15.6058179
21
-0.6513
0
LINE
8
DEFAULT_255_1_234
10
15.6058179
20
-0.6513
11
15.1729072
21
0.5181211
0
LINE
8
DEFAULT_255_1_234
10
15.1729072
20
0.5181211
11
15.3407705
21
0.5181211
0
LINE
8
DEFAULT_255_1_234
10
16.7824675
20
0.5237433
11
16.7824675
21
-0.6513
0
LINE
8
DEFAULT_255_1_234
10
16.7824675
20
-0.6513
11
16.6330772
21
-0.6513
0
LINE
8
DEFAULT_255_1_234
10
16.6330772
20
-0.6513
11
16.6330772
21
0.3390133
0
LINE
8
DEFAULT_255_1_234
10
16.6330772
20
0.3390133
11
16.3334934
21
0.2289785
0
LINE
8
DEFAULT_255_1_234
10
16.3334934
20
0.2289785
11
16.3334934
21
0.3639117
0
LINE
8
DEFAULT_255_1_234
10
16.3334934
20
0.3639117
11
16.7591755
21
0.5237433
0
LINE
8
DEFAULT_255_1_234
10
16.7591755
20
0.5237433
11
16.7824675
21
0.5237433
0
LINE
8
DEFAULT_255_1_234
10
17.8450665
20
0.5181211
11
17.8450665
21
-0.258548
0
LINE
8
DEFAULT_255_1_234
10
17.8450665
20
-0.258548
11
18.0073076
21
-0.258548
0
LINE
8
DEFAULT_255_1_234
10
18.0073076
20
-0.258548
11
18.0073076
21
-0.3798272
0
LINE
8
DEFAULT_255_1_234
10
18.0073076
20
-0.3798272
11
17.8450665
21
-0.3798272
0
LINE
8
DEFAULT_255_1_234
10
17.8450665
20
-0.3798272
11
17.8450665
21
-0.6513
0
LINE
8
DEFAULT_255_1_234
10
17.8450665
20
-0.6513
11
17.6956762
21
-0.6513
0
LINE
8
DEFAULT_255_1_234
10
17.6956762
20
-0.6513
11
17.6956762
21
-0.3798272
0
LINE
8
DEFAULT_255_1_234
10
17.6956762
20
-0.3798272
11
17.1631719
21
-0.3798272
0
LINE
8
DEFAULT_255_1_234
10
17.1631719
20
-0.3798272
11
17.1631719
21
-0.2922813
0
LINE
8
DEFAULT_255_1_234
10
17.1631719
20
-0.2922813
11
17.6868413
21
0.5181211
0
LINE
8
DEFAULT_255_1_234
10
17.6868413
20
0.5181211
11
17.8450665
21
0.5181211
0
LINE
8
DEFAULT_255_1_234
10
17.6780063
20
0.2827912
11
17.3318384
21
-0.258548
0
LINE
8
DEFAULT_255_1_234
10
17.3318384
20
-0.258548
11
17.6956762
21
-0.258548
0
LINE
8
DEFAULT_255_1_234
10
17.6956762
20
-0.258548
11
17.6956762
21
0.3149181
0
LINE
8
DEFAULT_255_1_234
10
17.6956762
20
0.3149181
11
17.6780063
21
0.2827912
0
LINE
8
DEFAULT_255_1_234
10
18.2578979
20
0.2177341
11
18.44825
21
-0.0995196
0
LINE
8
DEFAULT_255_1_234
10
18.44825
20
-0.0995196
11
18.6410118
21
0.2177341
0
LINE
8
DEFAULT_255_1_234
10
18.6410118
20
0.2177341
11
18.8144973
21
0.2177341
0
LINE
8
DEFAULT_255_1_234
10
18.8144973
20
0.2177341
11
18.5301738
21
-0.2119639
0
LINE
8
DEFAULT_255_1_234
10
18.5301738
20
-0.2119639
11
18.8233322
21
-0.6513
0
LINE
8
DEFAULT_255_1_234
10
18.8233322
20
-0.6513
11
18.651453
21
-0.6513
0
LINE
8
DEFAULT_255_1_234
10
18.651453
20
-0.6513
11
18.4506596
21
-0.3260146
0
LINE
8
DEFAULT_255_1_234
10
18.4506596
20
-0.3260146
11
18.2498661
21
-0.6513
0
LINE
8
DEFAULT_255_1_234
10
18.2498661
20
-0.6513
11
18.0771837
21
-0.6513
0
LINE
8
DEFAULT_255_1_234
10
18.0771837
20
-0.6513
11
18.3703422
21
-0.2119639
0
LINE
8
DEFAULT_255_1_234
10
18.3703422
20
-0.2119639
11
18.0860187
21
0.2177341
0
LINE
8
DEFAULT_255_1_234
10
18.0860187
20
0.2177341
11
18.2578979
21
0.2177341
0
LINE
8
DEFAULT_255_1_234
10
12.5957293
20
38.3747
11
12.4840881
21
38.6799061
0
LINE
8
DEFAULT_255_1_234
10
12.4840881
20
38.6799061
11
11.9941521
21
38.6799061
0
LINE
8
DEFAULT_255_1_234
10
11.9941521
20
38.6799061
11
11.8841173
21
38.3747
0
LINE
8
DEFAULT_255_1_234
10
11.8841173
20
38.3747
11
11.7250889
21
38.3747
0
LINE
8
DEFAULT_255_1_234
10
11.7250889
20
38.3747
11
12.1716535
21
39.5441211
0
LINE
8
DEFAULT_255_1_234
10
12.1716535
20
39.5441211
11
12.3065867
21
39.5441211
0
LINE
8
DEFAULT_255_1_234
10
12.3065867
20
39.5441211
11
12.7539545
21
38.3747
0
LINE
8
DEFAULT_255_1_234
10
12.7539545
20
38.3747
11
12.5957293
21
38.3747
0
LINE
8
DEFAULT_255_1_234
10
12.2391201
20
39.3537689
11
12.0407362
21
38.8068075
0
LINE
8
DEFAULT_255_1_234
10
12.0407362
20
38.8068075
11
12.4383072
21
38.8068075
0
LINE
8
DEFAULT_255_1_234
10
12.4383072
20
38.8068075
11
12.2391201
21
39.3537689
0
LINE
8
DEFAULT_255_1_234
10
13.6077283
20
38.7457663
11
13.7627409
21
38.7457663
0
LINE
8
DEFAULT_255_1_234
10
12.862383
20
38.9047947
11
12.862383
21
39.0172391
0
LINE
8
DEFAULT_255_1_234
10
13.7627409
20
39.1682357
11
13.6077283
21
39.1682357
0
LINE
8
DEFAULT_255_1_234
10
13.0173956
20
39.0132232
11
13.0173956
21
38.8999757
0
ARC
8
DEFAULT_255_1_234
10
13.2146796
20
38.8054846
40
0.5513052
50
340.1774281
51
353.7814284
0
ARC
8
DEFAULT_255_1_234
10
13.3718148
20
38.7469582
40
0.3836379
50
311.4558989
51
340.4421614
0
ARC
8
DEFAULT_255_1_234
10
13.3684816
20
38.7580528
40
0.3941894
50
282.4333181
51
310.7513653
0
ARC
8
DEFAULT_255_1_234
10
13.3245555
20
38.9395679
40
0.5809175
50
269.9358511
51
282.809604
0
ARC
8
DEFAULT_255_1_234
10
13.3193622
20
39.0853212
40
0.7266847
50
270.0021091
51
270.3581957
0
ARC
8
DEFAULT_255_1_234
10
13.3141039
20
38.8252585
40
0.4666519
50
250.7884749
51
270.6489167
0
ARC
8
DEFAULT_255_1_234
10
13.2972873
20
38.7615319
40
0.4009729
50
219.3627325
51
250.0611886
0
ARC
8
DEFAULT_255_1_234
10
13.3802084
20
38.8320042
40
0.5097822
50
193.5479632
51
219.5756669
0
ARC
8
DEFAULT_255_1_234
10
13.6173705
20
38.8935919
40
0.7547848
50
181.1218675
51
193.87563
0
ARC
8
DEFAULT_255_1_234
10
13.8243886
20
38.904658
40
0.9620055
50
179.9918545
51
181.5394234
0
ARC
8
DEFAULT_255_1_234
10
13.6392988
20
39.0209788
40
0.7769248
50
169.5837241
51
180.2757934
0
ARC
8
DEFAULT_255_1_234
10
13.4555926
20
39.0549229
40
0.590109
50
155.0365899
51
169.6003176
0
ARC
8
DEFAULT_255_1_234
10
13.342039
20
39.1096677
40
0.4640625
50
136.783148
51
155.2472683
0
ARC
8
DEFAULT_255_1_234
10
13.3030867
20
39.1427562
40
0.4130255
50
121.7633186
51
136.428115
0
ARC
8
DEFAULT_255_1_234
10
13.3165829
20
39.1178227
40
0.4413323
50
95.6459699
51
121.5490577
0
ARC
8
DEFAULT_255_1_234
10
13.3323111
20
39.0069949
40
0.55319
50
89.924208
51
96.1377933
0
ARC
8
DEFAULT_255_1_234
10
13.3373544
20
39.0188542
40
0.5413475
50
76.6779277
51
90.4563316
0
ARC
8
DEFAULT_255_1_234
10
13.3767167
20
39.1779114
40
0.3775041
50
47.485847
51
76.9287264
0
ARC
8
DEFAULT_255_1_234
10
13.362014
20
39.1679159
40
0.3948286
50
16.5424086
51
46.8933463
0
ARC
8
DEFAULT_255_1_234
10
13.2012297
20
39.1150861
40
0.564021
50
5.4072051
51
17.0365086
0
ARC
8
DEFAULT_255_1_234
10
13.0573314
20
39.0919679
40
0.5556559
50
7.8891745
51
15.9239216
0
ARC
8
DEFAULT_255_1_234
10
13.2560328
20
39.1496631
40
0.3487515
50
15.7653144
51
27.9410532
0
ARC
8
DEFAULT_255_1_234
10
13.3664546
20
39.208779
40
0.2235026
50
27.8166557
51
46.4008329
0
ARC
8
DEFAULT_255_1_234
10
13.3714188
20
39.2082082
40
0.2205286
50
47.4371857
51
75.0698205
0
ARC
8
DEFAULT_255_1_234
10
13.3405583
20
39.1007765
40
0.3322915
50
74.7008593
51
87.8124495
0
ARC
8
DEFAULT_255_1_234
10
13.333227
20
38.9951844
40
0.4380987
50
87.3814673
51
90.0240855
0
ARC
8
DEFAULT_255_1_234
10
13.3293814
20
39.1129291
40
0.3203749
50
89.3451631
51
108.5745436
0
ARC
8
DEFAULT_255_1_234
10
13.3156919
20
39.1642908
40
0.2673494
50
109.2998449
51
143.3037509
0
ARC
8
DEFAULT_255_1_234
10
13.3918992
20
39.1056881
40
0.3634757
50
143.0753173
51
163.1916937
0
ARC
8
DEFAULT_255_1_234
10
13.5870719
20
39.0440967
40
0.5681262
50
162.9373603
51
174.6208611
0
ARC
8
DEFAULT_255_1_234
10
13.8496761
20
39.015301
40
0.8322832
50
174.3419979
51
180.1430411
0
ARC
8
DEFAULT_255_1_234
10
13.7565918
20
38.8958698
40
0.7392076
50
179.6817502
51
189.150529
0
ARC
8
DEFAULT_255_1_234
10
13.5065166
20
38.854219
40
0.4856932
50
188.9910863
51
203.5773039
0
ARC
8
DEFAULT_255_1_234
10
13.3985498
20
38.8094211
40
0.3688271
50
203.9077269
51
215.1312379
0
ARC
8
DEFAULT_255_1_234
10
13.3062592
20
38.7378941
40
0.2522457
50
213.9071664
51
263.8849284
0
ARC
8
DEFAULT_255_1_234
10
13.3187921
20
38.8163518
40
0.3316174
50
263.1758525
51
270.1031083
0
ARC
8
DEFAULT_255_1_234
10
13.3220013
20
38.9410365
40
0.4563091
50
269.6719807
51
279.0609165
0
ARC
8
DEFAULT_255_1_234
10
13.3486781
20
38.7797907
40
0.2928759
50
278.8750225
51
293.6346586
0
ARC
8
DEFAULT_255_1_234
10
13.3806989
20
38.70459
40
0.2111472
50
293.8553404
51
310.0518804
0
ARC
8
DEFAULT_255_1_234
10
13.3811843
20
38.6983516
40
0.2060917
50
311.0646779
51
332.0108348
0
ARC
8
DEFAULT_255_1_234
10
13.261957
20
38.7640978
40
0.3422352
50
331.6588543
51
343.2878891
0
ARC
8
DEFAULT_255_1_234
10
13.0557085
20
38.8274798
40
0.5580003
50
343.1446044
51
351.010618
0
ARC
8
DEFAULT_255_1_234
10
12.9015731
20
38.8555871
40
0.7146438
50
350.7157277
51
351.1602153
0
LINE
8
DEFAULT_255_1_234
10
14.1217596
20
38.9304963
11
14.0028898
21
38.9610169
0
LINE
8
DEFAULT_255_1_234
10
14.0028898
20
38.9610169
11
14.0623247
21
39.5441211
0
LINE
8
DEFAULT_255_1_234
10
14.0623247
20
39.5441211
11
14.6614924
21
39.5441211
0
LINE
8
DEFAULT_255_1_234
10
14.6614924
20
39.5441211
11
14.6614924
21
39.4067784
0
LINE
8
DEFAULT_255_1_234
10
14.6614924
20
39.4067784
11
14.188423
21
39.4067784
0
LINE
8
DEFAULT_255_1_234
10
14.188423
20
39.4067784
11
14.1530833
21
39.0879184
0
LINE
8
DEFAULT_255_1_234
10
13.9611248
20
38.6823156
11
14.1016802
21
38.6823156
0
LINE
8
DEFAULT_255_1_234
10
14.1611151
20
38.9626232
11
14.1217596
21
38.9304963
0
ARC
8
DEFAULT_255_1_234
10
14.3385617
20
38.769923
40
0.3681349
50
93.7182161
51
120.2538958
0
ARC
8
DEFAULT_255_1_234
10
14.347988
20
38.6891394
40
0.449379
50
89.9660152
51
94.2496022
0
ARC
8
DEFAULT_255_1_234
10
14.3520614
20
38.7480549
40
0.390482
50
73.8043271
51
90.5585896
0
ARC
8
DEFAULT_255_1_234
10
14.3755511
20
38.8338602
40
0.3015334
50
41.3071453
51
73.5430202
0
ARC
8
DEFAULT_255_1_234
10
14.3339339
20
38.7980324
40
0.3564457
50
13.5075983
51
41.2174222
0
ARC
8
DEFAULT_255_1_234
10
14.1697542
20
38.7550486
40
0.5261351
50
1.1331335
51
13.8829381
0
ARC
8
DEFAULT_255_1_234
10
14.0285911
20
38.7474665
40
0.6674378
50
359.9919444
51
1.544251
0
ARC
8
DEFAULT_255_1_234
10
14.1562738
20
38.743328
40
0.5397702
50
347.8572367
51
0.4293338
0
ARC
8
DEFAULT_255_1_234
10
14.3313055
20
38.7036736
40
0.3603188
50
323.673004
51
348.1672506
0
ARC
8
DEFAULT_255_1_234
10
14.3607563
20
38.6857168
40
0.3259678
50
316.8171152
51
323.1492751
0
ARC
8
DEFAULT_255_1_234
10
14.3668752
20
38.682046
40
0.3189975
50
281.8396411
51
316.5457803
0
ARC
8
DEFAULT_255_1_234
10
14.3293016
20
38.8375762
40
0.4789527
50
269.5770101
51
282.4214771
0
ARC
8
DEFAULT_255_1_234
10
14.3221828
20
38.8162125
40
0.45759
50
256.2427136
51
270.4486331
0
ARC
8
DEFAULT_255_1_234
10
14.292273
20
38.6962229
40
0.3339303
50
228.9023911
51
256.3314342
0
ARC
8
DEFAULT_255_1_234
10
14.2848963
20
38.6845746
40
0.32031
50
193.753695
51
228.5271154
0
ARC
8
DEFAULT_255_1_234
10
14.4086917
20
38.72088
40
0.4492253
50
184.924711
51
194.497588
0
ARC
8
DEFAULT_255_1_234
10
14.4279483
20
38.7244591
40
0.3289787
50
187.3600538
51
198.6732863
0
ARC
8
DEFAULT_255_1_234
10
14.3229777
20
38.6880674
40
0.217884
50
198.4451669
51
217.794479
0
ARC
8
DEFAULT_255_1_234
10
14.2933953
20
38.6671085
40
0.1816698
50
218.2887171
51
228.5612368
0
ARC
8
DEFAULT_255_1_234
10
14.303174
20
38.6802963
40
0.1980329
50
228.9654866
51
258.1234728
0
ARC
8
DEFAULT_255_1_234
10
14.323745
20
38.7683833
40
0.2884748
50
257.7258293
51
270.401361
0
ARC
8
DEFAULT_255_1_234
10
14.3282336
20
38.7238821
40
0.2439788
50
269.4204404
51
286.4209037
0
ARC
8
DEFAULT_255_1_234
10
14.3430823
20
38.6699657
40
0.1880666
50
286.7251356
51
320.600362
0
ARC
8
DEFAULT_255_1_234
10
14.3047648
20
38.7010595
40
0.2374121
50
320.6712579
51
344.5441685
0
ARC
8
DEFAULT_255_1_234
10
14.1890975
20
38.7350045
40
0.3579479
50
344.2412205
51
356.7357071
0
ARC
8
DEFAULT_255_1_234
10
14.0642123
20
38.7453444
40
0.4832297
50
356.3548756
51
0.0500261
0
ARC
8
DEFAULT_255_1_234
10
14.1978632
20
38.748465
40
0.3495889
50
359.5576869
51
12.953486
0
ARC
8
DEFAULT_255_1_234
10
14.303353
20
38.7740434
40
0.2410532
50
12.6490276
51
41.6081334
0
ARC
8
DEFAULT_255_1_234
10
14.3263901
20
38.7936321
40
0.2108218
50
41.7850273
51
85.9892764
0
ARC
8
DEFAULT_255_1_234
10
14.3140637
20
38.7123462
40
0.2928454
50
84.6957577
51
90.0676183
0
ARC
8
DEFAULT_255_1_234
10
14.3117121
20
38.6454716
40
0.3597255
50
89.6804936
51
99.1614436
0
ARC
8
DEFAULT_255_1_234
10
14.2911753
20
38.7682131
40
0.235281
50
98.9830931
51
113.8908934
0
ARC
8
DEFAULT_255_1_234
10
14.2682163
20
38.8223587
40
0.176479
50
114.1950727
51
127.3641004
0
LINE
8
DEFAULT_255_1_234
10
15.5915677
20
39.0662327
11
15.5915677
21
38.8734709
0
LINE
8
DEFAULT_255_1_234
10
14.8534509
20
38.8533916
11
14.8534509
21
39.0517755
0
LINE
8
DEFAULT_255_1_234
10
15.4429805
20
38.8333123
11
15.4429805
21
39.0766739
0
LINE
8
DEFAULT_255_1_234
10
15.0020381
20
39.0879184
11
15.0020381
21
38.8501789
0
ARC
8
DEFAULT_255_1_234
10
14.3668566
20
38.8685805
40
1.2247208
50
353.8441951
51
0.2287902
0
ARC
8
DEFAULT_255_1_234
10
14.830807
20
38.8167806
40
0.7578929
50
344.4934747
51
353.9765454
0
ARC
8
DEFAULT_255_1_234
10
15.130066
20
38.7316981
40
0.4467846
50
329.2803592
51
344.7472793
0
ARC
8
DEFAULT_255_1_234
10
15.2293485
20
38.6772018
40
0.3336173
50
324.9352394
51
328.6160465
0
ARC
8
DEFAULT_255_1_234
10
15.2670594
20
38.6508427
40
0.2876076
50
280.580143
51
324.9173126
0
ARC
8
DEFAULT_255_1_234
10
15.2269386
20
38.8179099
40
0.4592847
50
269.5977311
51
281.6734359
0
ARC
8
DEFAULT_255_1_234
10
15.2197292
20
38.8059173
40
0.4472986
50
256.6228859
51
270.51044
0
ARC
8
DEFAULT_255_1_234
10
15.179527
20
38.6510877
40
0.2873874
50
215.8618325
51
257.2788573
0
ARC
8
DEFAULT_255_1_234
10
15.2816301
20
38.7195977
40
0.4102928
50
197.9693508
51
215.2623606
0
ARC
8
DEFAULT_255_1_234
10
15.5301417
20
38.8034709
40
0.6725652
50
187.8816417
51
198.2346507
0
ARC
8
DEFAULT_255_1_234
10
15.9259625
20
38.8606079
40
1.0724845
50
180.8976217
51
188.0055519
0
ARC
8
DEFAULT_255_1_234
10
16.2059813
20
38.8709777
40
1.3526448
50
180.7449369
51
181.1510016
0
ARC
8
DEFAULT_255_1_234
10
16.0482542
20
39.0566042
40
1.1948131
50
173.7675579
51
180.231553
0
ARC
8
DEFAULT_255_1_234
10
15.5964689
20
39.1076666
40
0.7401564
50
164.3058563
51
173.9002247
0
ARC
8
DEFAULT_255_1_234
10
15.3052758
20
39.1915656
40
0.4371288
50
148.7922025
51
164.568378
0
ARC
8
DEFAULT_255_1_234
10
15.210121
20
39.2446929
40
0.3282386
50
144.5883898
51
148.1176286
0
ARC
8
DEFAULT_255_1_234
10
15.1758108
20
39.2686315
40
0.2864044
50
101.6440918
51
144.514236
0
ARC
8
DEFAULT_255_1_234
10
15.2183175
20
39.0997069
40
0.4604934
50
89.5284041
51
102.5819763
0
ARC
8
DEFAULT_255_1_234
10
15.2262263
20
39.0958018
40
0.464401
50
77.0437873
51
90.5081339
0
ARC
8
DEFAULT_255_1_234
10
15.2664264
20
39.2600615
40
0.2953195
50
48.2778575
51
77.4994676
0
ARC
8
DEFAULT_255_1_234
10
15.2736896
20
39.2729746
40
0.2808655
50
36.3142134
51
47.6305865
0
ARC
8
DEFAULT_255_1_234
10
15.1868203
20
39.2144515
40
0.3855453
50
18.2931786
51
35.6769206
0
ARC
8
DEFAULT_255_1_234
10
14.9324961
20
39.1271593
40
0.654423
50
8.024666
51
18.5605216
0
ARC
8
DEFAULT_255_1_234
10
14.5161881
20
39.0656792
40
1.0752407
50
1.1274072
51
8.1718305
0
ARC
8
DEFAULT_255_1_234
10
14.1926072
20
39.0529885
40
1.3990231
50
0.5424119
51
1.3863029
0
ARC
8
DEFAULT_255_1_234
10
14.374745
20
39.0802342
40
1.0682415
50
359.8090433
51
4.9407866
0
ARC
8
DEFAULT_255_1_234
10
14.7957464
20
39.1178113
40
0.6455691
50
4.8362157
51
12.2904523
0
ARC
8
DEFAULT_255_1_234
10
15.0712579
20
39.1791965
40
0.3633074
50
12.0805627
51
23.8173984
0
ARC
8
DEFAULT_255_1_234
10
15.1886284
20
39.2288919
40
0.2358723
50
24.2871213
51
31.3935614
0
ARC
8
DEFAULT_255_1_234
10
15.2410981
20
39.2632233
40
0.1732111
50
30.7407893
51
82.4657128
0
ARC
8
DEFAULT_255_1_234
10
15.2231115
20
39.1748691
40
0.263235
50
81.1060089
51
90.2184952
0
ARC
8
DEFAULT_255_1_234
10
15.2195414
20
39.2006924
40
0.2374236
50
89.3806855
51
105.6762551
0
ARC
8
DEFAULT_255_1_234
10
15.2012045
20
39.2673567
40
0.1682847
50
105.7981136
51
149.7388061
0
ARC
8
DEFAULT_255_1_234
10
15.3076123
20
39.203395
40
0.2924306
50
149.4208916
51
163.6286378
0
ARC
8
DEFAULT_255_1_234
10
15.5167011
20
39.139625
40
0.5110213
50
163.3763315
51
172.1410975
0
ARC
8
DEFAULT_255_1_234
10
15.846773
20
39.0923518
40
0.8444586
50
172.0259487
51
178.0703232
0
ARC
8
DEFAULT_255_1_234
10
16.149782
20
39.0779906
40
1.1477868
50
177.8631668
51
179.5044149
0
ARC
8
DEFAULT_255_1_234
10
16.0425224
20
38.8465389
40
1.0404907
50
179.7995573
51
185.2460446
0
ARC
8
DEFAULT_255_1_234
10
15.6382264
20
38.8082513
40
0.6343885
50
185.1411642
51
193.0079639
0
ARC
8
DEFAULT_255_1_234
10
15.3738736
20
38.7457641
40
0.3627568
50
192.7897626
51
205.2507664
0
ARC
8
DEFAULT_255_1_234
10
15.2692283
20
38.6990415
40
0.2481908
50
205.8005384
51
211.2537509
0
ARC
8
DEFAULT_255_1_234
10
15.2168724
20
38.663958
40
0.1852521
50
210.3789793
51
238.4008143
0
ARC
8
DEFAULT_255_1_234
10
15.2149245
20
38.6686376
40
0.1882621
50
239.6520629
51
265.9793761
0
ARC
8
DEFAULT_255_1_234
10
15.2234446
20
38.7358427
40
0.2559272
50
265.1315437
51
270.060332
0
ARC
8
DEFAULT_255_1_234
10
15.2263224
20
38.7034534
40
0.2235528
50
269.3314664
51
287.2178029
0
ARC
8
DEFAULT_255_1_234
10
15.2401076
20
38.6531279
40
0.1714108
50
287.7958004
51
329.080874
0
ARC
8
DEFAULT_255_1_234
10
15.1443533
20
38.712893
40
0.2842745
50
328.6634704
51
343.3325132
0
ARC
8
DEFAULT_255_1_234
10
14.9270553
20
38.7805863
40
0.5118644
50
343.0499468
51
351.9393422
0
ARC
8
DEFAULT_255_1_234
10
14.5803853
20
38.8316949
40
0.8622784
50
351.8069023
51
357.7959224
0
ARC
8
DEFAULT_255_1_234
10
14.2568409
20
38.8484721
40
1.1862365
50
357.5871873
51
359.2677531
0
LINE
8
DEFAULT_255_1_234
10
16.5152176
20
39.0662327
11
16.5152176
21
38.8734709
0
LINE
8
DEFAULT_255_1_234
10
15.7771008
20
38.8533916
11
15.7771008
21
39.0517755
0
LINE
8
DEFAULT_255_1_234
10
16.3666304
20
38.8333123
11
16.3666304
21
39.0766739
0
LINE
8
DEFAULT_255_1_234
10
15.925688
20
39.0879184
11
15.925688
21
38.8501789
0
ARC
8
DEFAULT_255_1_234
10
15.2905065
20
38.8685805
40
1.2247208
50
353.8441951
51
0.2287902
0
ARC
8
DEFAULT_255_1_234
10
15.7544569
20
38.8167806
40
0.7578929
50
344.4934747
51
353.9765454
0
ARC
8
DEFAULT_255_1_234
10
16.0537159
20
38.7316981
40
0.4467846
50
329.2803592
51
344.7472793
0
ARC
8
DEFAULT_255_1_234
10
16.1529984
20
38.6772018
40
0.3336173
50
324.9352394
51
328.6160465
0
ARC
8
DEFAULT_255_1_234
10
16.1907093
20
38.6508427
40
0.2876076
50
280.580143
51
324.9173126
0
ARC
8
DEFAULT_255_1_234
10
16.1505885
20
38.8179099
40
0.4592847
50
269.5977311
51
281.6734359
0
ARC
8
DEFAULT_255_1_234
10
16.1433791
20
38.8059173
40
0.4472986
50
256.6228859
51
270.51044
0
ARC
8
DEFAULT_255_1_234
10
16.1031769
20
38.6510877
40
0.2873874
50
215.8618325
51
257.2788573
0
ARC
8
DEFAULT_255_1_234
10
16.20528
20
38.7195977
40
0.4102928
50
197.9693508
51
215.2623606
0
ARC
8
DEFAULT_255_1_234
10
16.4537916
20
38.8034709
40
0.6725652
50
187.8816417
51
198.2346507
0
ARC
8
DEFAULT_255_1_234
10
16.8496124
20
38.8606079
40
1.0724845
50
180.8976217
51
188.0055519
0
ARC
8
DEFAULT_255_1_234
10
17.1296312
20
38.8709777
40
1.3526448
50
180.7449369
51
181.1510016
0
ARC
8
DEFAULT_255_1_234
10
16.9719042
20
39.0566042
40
1.1948131
50
173.7675579
51
180.231553
0
ARC
8
DEFAULT_255_1_234
10
16.5201188
20
39.1076666
40
0.7401564
50
164.3058563
51
173.9002247
0
ARC
8
DEFAULT_255_1_234
10
16.2289257
20
39.1915656
40
0.4371288
50
148.7922025
51
164.568378
0
ARC
8
DEFAULT_255_1_234
10
16.1337709
20
39.2446929
40
0.3282386
50
144.5883898
51
148.1176286
0
ARC
8
DEFAULT_255_1_234
10
16.0994607
20
39.2686315
40
0.2864044
50
101.6440918
51
144.514236
0
ARC
8
DEFAULT_255_1_234
10
16.1419674
20
39.0997069
40
0.4604934
50
89.5284041
51
102.5819763
0
ARC
8
DEFAULT_255_1_234
10
16.1498762
20
39.0958018
40
0.464401
50
77.0437873
51
90.5081339
0
ARC
8
DEFAULT_255_1_234
10
16.1900763
20
39.2600615
40
0.2953195
50
48.2778575
51
77.4994676
0
ARC
8
DEFAULT_255_1_234
10
16.1973395
20
39.2729746
40
0.2808655
50
36.3142134
51
47.6305865
0
ARC
8
DEFAULT_255_1_234
10
16.1104702
20
39.2144515
40
0.3855453
50
18.2931786
51
35.6769206
0
ARC
8
DEFAULT_255_1_234
10
15.856146
20
39.1271593
40
0.654423
50
8.024666
51
18.5605216
0
ARC
8
DEFAULT_255_1_234
10
15.439838
20
39.0656792
40
1.0752407
50
1.1274072
51
8.1718305
0
ARC
8
DEFAULT_255_1_234
10
15.1162571
20
39.0529885
40
1.3990231
50
0.5424119
51
1.3863029
0
ARC
8
DEFAULT_255_1_234
10
15.2983949
20
39.0802342
40
1.0682415
50
359.8090433
51
4.9407866
0
ARC
8
DEFAULT_255_1_234
10
15.7193963
20
39.1178113
40
0.6455691
50
4.8362157
51
12.2904523
0
ARC
8
DEFAULT_255_1_234
10
15.9949078
20
39.1791965
40
0.3633074
50
12.0805627
51
23.8173984
0
ARC
8
DEFAULT_255_1_234
10
16.1122783
20
39.2288919
40
0.2358723
50
24.2871213
51
31.3935614
0
ARC
8
DEFAULT_255_1_234
10
16.164748
20
39.2632233
40
0.1732111
50
30.7407893
51
82.4657128
0
ARC
8
DEFAULT_255_1_234
10
16.1467615
20
39.1748691
40
0.263235
50
81.1060089
51
90.2184952
0
ARC
8
DEFAULT_255_1_234
10
16.1431913
20
39.2006924
40
0.2374236
50
89.3806855
51
105.6762551
0
ARC
8
DEFAULT_255_1_234
10
16.1248544
20
39.2673567
40
0.1682847
50
105.7981136
51
149.7388061
0
ARC
8
DEFAULT_255_1_234
10
16.2312622
20
39.203395
40
0.2924306
50
149.4208916
51
163.6286378
0
ARC
8
DEFAULT_255_1_234
10
16.440351
20
39.139625
40
0.5110213
50
163.3763315
51
172.1410975
0
ARC
8
DEFAULT_255_1_234
10
16.7704229
20
39.0923518
40
0.8444586
50
172.0259487
51
178.0703232
0
ARC
8
DEFAULT_255_1_234
10
17.0734319
20
39.0779906
40
1.1477868
50
177.8631668
51
179.5044149
0
ARC
8
DEFAULT_255_1_234
10
16.9661723
20
38.8465389
40
1.0404907
50
179.7995573
51
185.2460446
0
ARC
8
DEFAULT_255_1_234
10
16.5618763
20
38.8082513
40
0.6343885
50
185.1411642
51
193.0079639
0
ARC
8
DEFAULT_255_1_234
10
16.2975235
20
38.7457641
40
0.3627568
50
192.7897626
51
205.2507664
0
ARC
8
DEFAULT_255_1_234
10
16.1928782
20
38.6990415
40
0.2481908
50
205.8005384
51
211.2537509
0
ARC
8
DEFAULT_255_1_234
10
16.1405223
20
38.663958
40
0.1852521
50
210.3789793
51
238.4008143
0
ARC
8
DEFAULT_255_1_234
10
16.1385744
20
38.6686376
40
0.1882621
50
239.6520629
51
265.9793761
0
ARC
8
DEFAULT_255_1_234
10
16.1470945
20
38.7358427
40
0.2559272
50
265.1315437
51
270.060332
0
ARC
8
DEFAULT_255_1_234
10
16.1499723
20
38.7034534
40
0.2235528
50
269.3314664
51
287.2178029
0
ARC
8
DEFAULT_255_1_234
10
16.1637575
20
38.6531279
40
0.1714108
50
287.7958004
51
329.080874
0
ARC
8
DEFAULT_255_1_234
10
16.0680032
20
38.712893
40
0.2842745
50
328.6634704
51
343.3325132
0
ARC
8
DEFAULT_255_1_234
10
15.8507052
20
38.7805863
40
0.5118644
50
343.0499468
51
351.9393422
0
ARC
8
DEFAULT_255_1_234
10
15.5040352
20
38.8316949
40
0.8622784
50
351.8069023
51
357.7959224
0
ARC
8
DEFAULT_255_1_234
10
15.1804908
20
38.8484721
40
1.1862365
50
357.5871873
51
359.2677531
0
ARC
8
DEFAULT_255_2_778
10
17.2795513
20
41.7015655
40
0.9032652
50
36.6636783
51
62.8800292
0
ARC
8
DEFAULT_255_2_778
10
17.362048
20
42.9705795
40
0.5698185
50
305.2984654
51
359.1896208
0
ARC
8
DEFAULT_255_2_778
10
17.3634372
20
42.9659256
40
0.5683825
50
359.6567283
51
359.9965559
0
ARC
8
DEFAULT_255_2_778
10
17.3738628
20
42.9657968
40
0.5579568
50
0.0097156
51
44.9837975
0
ARC
8
DEFAULT_255_2_778
10
17.3736736
20
42.9659297
40
0.5579968
50
44.9604089
51
90.0139948
0
ARC
8
DEFAULT_255_2_778
10
17.3735813
20
42.9483846
40
0.5755419
50
90.0043846
51
90.2659864
0
ARC
8
DEFAULT_255_2_778
10
17.3015142
20
41.7552344
40
0.8779024
50
272.428255
51
302.0472027
0
ARC
8
DEFAULT_255_2_778
10
17.3149911
20
41.7207487
40
0.841549
50
302.5153244
51
0.4882776
0
ARC
8
DEFAULT_255_2_778
10
17.3237108
20
41.7487449
40
0.833059
50
358.5675863
51
29.0157619
0
ARC
8
DEFAULT_255_2_778
10
15.115709
20
41.7026166
40
0.90203
50
36.6388615
51
62.8867752
0
ARC
8
DEFAULT_255_2_778
10
15.1980877
20
42.9702954
40
0.5692748
50
305.2706468
51
359.2174393
0
ARC
8
DEFAULT_255_2_778
10
15.2034234
20
42.9655241
40
0.563894
50
359.6947901
51
359.9999584
0
ARC
8
DEFAULT_255_2_778
10
15.2087973
20
42.9655658
40
0.5585202
50
359.9956834
51
44.9740581
0
ARC
8
DEFAULT_255_2_778
10
15.2091182
20
42.9658026
40
0.5581257
50
44.9801433
51
90.0010632
0
ARC
8
DEFAULT_255_2_778
10
15.2091083
20
42.9618714
40
0.562057
50
90.0000416
51
90.3056982
0
ARC
8
DEFAULT_255_2_778
10
15.1365968
20
41.7553822
40
0.8780507
50
272.42898
51
302.0445025
0
ARC
8
DEFAULT_255_2_778
10
15.1501929
20
41.7207943
40
0.8415468
50
302.5093151
51
0.4851764
0
ARC
8
DEFAULT_255_2_778
10
15.1579024
20
41.7484974
40
0.8340609
50
358.5863171
51
28.9970314
0
LINE
8
DEFAULT_255_2_778
10
13.4101095
20
42.2409203
11
12.9532095
21
43.5239203
0
LINE
8
DEFAULT_255_2_778
10
12.9532095
20
43.5239203
11
12.6084095
21
43.5239203
0
LINE
8
DEFAULT_255_2_778
10
12.6084095
20
43.5239203
11
12.6084095
21
42.2409203
0
LINE
8
DEFAULT_255_2_778
10
12.6084095
20
42.2409203
11
13.4101095
21
42.2409203
0
LINE
8
DEFAULT_255_2_778
10
12.6084095
20
41.4392203
11
13.0334095
21
41.4392203
0
LINE
8
DEFAULT_255_2_778
10
13.0334095
20
41.4392203
11
13.2257095
21
40.8781203
0
LINE
8
DEFAULT_255_2_778
10
13.2257095
20
40.8781203
11
13.8911095
21
40.8781203
0
LINE
8
DEFAULT_255_2_778
10
13.8911095
20
40.8781203
11
13.4342095
21
42.1608203
0
LINE
8
DEFAULT_255_2_778
10
13.4342095
20
42.1608203
11
12.6084095
21
42.1608203
0
LINE
8
DEFAULT_255_2_778
10
12.6084095
20
42.1608203
11
12.6084095
21
41.4392203
0
LINE
8
DEFAULT_255_2_778
10
12.5283095
20
43.5239203
11
12.1835095
21
43.5239203
0
LINE
8
DEFAULT_255_2_778
10
12.1835095
20
43.5239203
11
11.7266095
21
42.2409203
0
LINE
8
DEFAULT_255_2_778
10
11.7266095
20
42.2409203
11
12.5283095
21
42.2409203
0
LINE
8
DEFAULT_255_2_778
10
12.5283095
20
42.2409203
11
12.5283095
21
43.5239203
0
LINE
8
DEFAULT_255_2_778
10
11.7025095
20
42.1608203
11
11.2453095
21
40.8781203
0
LINE
8
DEFAULT_255_2_778
10
11.2453095
20
40.8781203
11
11.9107095
21
40.8781203
0
LINE
8
DEFAULT_255_2_778
10
11.9107095
20
40.8781203
11
12.1031095
21
41.4392203
0
LINE
8
DEFAULT_255_2_778
10
12.1031095
20
41.4392203
11
12.5280095
21
41.4392203
0
LINE
8
DEFAULT_255_2_778
10
12.5280095
20
41.4392203
11
12.5280095
21
42.1608203
0
LINE
8
DEFAULT_255_2_778
10
12.5280095
20
42.1608203
11
11.7025095
21
42.1608203
0
LINE
8
DEFAULT_255_2_778
10
16.2965095
20
43.5239203
11
17.0981095
21
43.5239203
0
LINE
8
DEFAULT_255_2_778
10
17.0981095
20
43.5239203
11
17.0981095
21
42.2409203
0
LINE
8
DEFAULT_255_2_778
10
17.0981095
20
42.2409203
11
16.2965095
21
42.2409203
0
LINE
8
DEFAULT_255_2_778
10
16.2965095
20
42.2409203
11
16.2965095
21
43.5239203
0
LINE
8
DEFAULT_255_2_778
10
17.3709095
20
43.5239203
11
17.1786095
21
43.5239203
0
LINE
8
DEFAULT_255_2_778
10
17.1786095
20
43.5239203
11
17.1786095
21
42.2409203
0
LINE
8
DEFAULT_255_2_778
10
17.1786095
20
42.2409203
11
18.0043095
21
42.2409203
0
LINE
8
DEFAULT_255_2_778
10
18.0043095
20
42.2409203
11
18.0041095
21
42.2409203
0
LINE
8
DEFAULT_255_2_778
10
16.2965095
20
42.1608203
11
17.0981095
21
42.1608203
0
LINE
8
DEFAULT_255_2_778
10
17.0981095
20
42.1608203
11
17.0981095
21
40.8781203
0
LINE
8
DEFAULT_255_2_778
10
17.0981095
20
40.8781203
11
16.2965095
21
40.8781203
0
LINE
8
DEFAULT_255_2_778
10
16.2965095
20
40.8781203
11
16.2965095
21
42.1608203
0
LINE
8
DEFAULT_255_2_778
10
17.1783095
20
40.8781203
11
17.3387095
21
40.8781203
0
LINE
8
DEFAULT_255_2_778
10
18.0522095
20
42.1528203
11
17.1783095
21
42.1528203
0
LINE
8
DEFAULT_255_2_778
10
17.1783095
20
42.1528203
11
17.1783095
21
40.8781203
0
LINE
8
DEFAULT_255_2_778
10
17.1783095
20
40.8781203
11
17.1783095
21
40.8781203
0
LINE
8
DEFAULT_255_2_778
10
14.1316095
20
43.5239203
11
14.9333095
21
43.5239203
0
LINE
8
DEFAULT_255_2_778
10
14.9333095
20
43.5239203
11
14.9333095
21
42.2409203
0
LINE
8
DEFAULT_255_2_778
10
14.9333095
20
42.2409203
11
14.1316095
21
42.2409203
0
LINE
8
DEFAULT_255_2_778
10
14.1316095
20
42.2409203
11
14.1316095
21
43.5239203
0
LINE
8
DEFAULT_255_2_778
10
15.2061095
20
43.5239203
11
15.0138095
21
43.5239203
0
LINE
8
DEFAULT_255_2_778
10
15.0138095
20
43.5239203
11
15.0138095
21
42.2409203
0
LINE
8
DEFAULT_255_2_778
10
15.0138095
20
42.2409203
11
15.8395095
21
42.2409203
0
LINE
8
DEFAULT_255_2_778
10
15.8395095
20
42.2409203
11
15.8395095
21
42.2409203
0
LINE
8
DEFAULT_255_2_778
10
14.1316095
20
42.1608203
11
14.9333095
21
42.1608203
0
LINE
8
DEFAULT_255_2_778
10
14.9333095
20
42.1608203
11
14.9333095
21
40.8781203
0
LINE
8
DEFAULT_255_2_778
10
14.9333095
20
40.8781203
11
14.1316095
21
40.8781203
0
LINE
8
DEFAULT_255_2_778
10
14.1316095
20
40.8781203
11
14.1316095
21
42.1608203
0
LINE
8
DEFAULT_255_2_778
10
15.0135095
20
40.8781203
11
15.1738095
21
40.8781203
0
LINE
8
DEFAULT_255_2_778
10
15.8874095
20
42.1528203
11
15.0135095
21
42.1528203
0
LINE
8
DEFAULT_255_2_778
10
15.0135095
20
42.1528203
11
15.0135095
21
40.8781203
0
LINE
8
DEFAULT_255_2_778
10
15.0135095
20
40.8781203
11
15.0135095
21
40.8781203
0
LINE
8
DEFAULT_255_1_234
10
4.2454489
20
37.5598211
11
4.2454489
21
36.5164983
0
LINE
8
DEFAULT_255_1_234
10
4.2454489
20
36.5164983
11
4.7996389
21
36.5164983
0
LINE
8
DEFAULT_255_1_234
10
4.7996389
20
36.5164983
11
4.7996389
21
36.3904
0
LINE
8
DEFAULT_255_1_234
10
4.7996389
20
36.3904
11
4.0904364
21
36.3904
0
LINE
8
DEFAULT_255_1_234
10
4.0904364
20
36.3904
11
4.0904364
21
37.5598211
0
LINE
8
DEFAULT_255_1_234
10
4.0904364
20
37.5598211
11
4.2454489
21
37.5598211
0
LINE
8
DEFAULT_255_1_234
10
5.377924
20
37.3590276
11
5.377924
21
37.0176788
0
LINE
8
DEFAULT_255_1_234
10
5.377924
20
37.0176788
11
5.7040126
21
37.0176788
0
LINE
8
DEFAULT_255_1_234
10
5.7040126
20
37.0176788
11
5.7040126
21
36.8771233
0
LINE
8
DEFAULT_255_1_234
10
5.7040126
20
36.8771233
11
5.377924
21
36.8771233
0
LINE
8
DEFAULT_255_1_234
10
5.377924
20
36.8771233
11
5.377924
21
36.5076634
0
LINE
8
DEFAULT_255_1_234
10
5.377924
20
36.5076634
11
5.2285337
21
36.5076634
0
LINE
8
DEFAULT_255_1_234
10
5.2285337
20
36.5076634
11
5.2285337
21
36.8771233
0
LINE
8
DEFAULT_255_1_234
10
5.2285337
20
36.8771233
11
4.9024451
21
36.8771233
0
LINE
8
DEFAULT_255_1_234
10
4.9024451
20
36.8771233
11
4.9024451
21
37.0176788
0
LINE
8
DEFAULT_255_1_234
10
4.9024451
20
37.0176788
11
5.2285337
21
37.0176788
0
LINE
8
DEFAULT_255_1_234
10
5.2285337
20
37.0176788
11
5.2285337
21
37.3590276
0
LINE
8
DEFAULT_255_1_234
10
5.2285337
20
37.3590276
11
5.377924
21
37.3590276
0
LINE
8
DEFAULT_255_1_234
10
4.964623
20
5.0114663
11
5.1196355
21
5.0114663
0
LINE
8
DEFAULT_255_1_234
10
4.2192777
20
5.1704947
11
4.2192777
21
5.2829391
0
LINE
8
DEFAULT_255_1_234
10
5.1196355
20
5.4339357
11
4.964623
21
5.4339357
0
LINE
8
DEFAULT_255_1_234
10
4.3742902
20
5.2789232
11
4.3742902
21
5.1656757
0
ARC
8
DEFAULT_255_1_234
10
4.5715742
20
5.0711846
40
0.5513052
50
340.1774281
51
353.7814284
0
ARC
8
DEFAULT_255_1_234
10
4.7287095
20
5.0126582
40
0.3836379
50
311.4558989
51
340.4421614
0
ARC
8
DEFAULT_255_1_234
10
4.7253763
20
5.0237528
40
0.3941894
50
282.4333181
51
310.7513653
0
ARC
8
DEFAULT_255_1_234
10
4.6814502
20
5.2052679
40
0.5809175
50
269.9358511
51
282.809604
0
ARC
8
DEFAULT_255_1_234
10
4.6762568
20
5.3510212
40
0.7266847
50
270.0021091
51
270.3581957
0
ARC
8
DEFAULT_255_1_234
10
4.6709985
20
5.0909585
40
0.4666519
50
250.7884749
51
270.6489167
0
ARC
8
DEFAULT_255_1_234
10
4.654182
20
5.0272319
40
0.4009729
50
219.3627325
51
250.0611886
0
ARC
8
DEFAULT_255_1_234
10
4.7371031
20
5.0977042
40
0.5097822
50
193.5479632
51
219.5756669
0
ARC
8
DEFAULT_255_1_234
10
4.9742652
20
5.1592919
40
0.7547848
50
181.1218675
51
193.87563
0
ARC
8
DEFAULT_255_1_234
10
5.1812833
20
5.170358
40
0.9620055
50
179.9918545
51
181.5394234
0
ARC
8
DEFAULT_255_1_234
10
4.9961935
20
5.2866788
40
0.7769248
50
169.5837241
51
180.2757934
0
ARC
8
DEFAULT_255_1_234
10
4.8124873
20
5.3206229
40
0.590109
50
155.0365899
51
169.6003176
0
ARC
8
DEFAULT_255_1_234
10
4.6989337
20
5.3753677
40
0.4640625
50
136.783148
51
155.2472683
0
ARC
8
DEFAULT_255_1_234
10
4.6599814
20
5.4084562
40
0.4130255
50
121.7633186
51
136.428115
0
ARC
8
DEFAULT_255_1_234
10
4.6734776
20
5.3835227
40
0.4413323
50
95.6459699
51
121.5490577
0
ARC
8
DEFAULT_255_1_234
10
4.6892058
20
5.2726949
40
0.55319
50
89.924208
51
96.1377933
0
ARC
8
DEFAULT_255_1_234
10
4.6942491
20
5.2845542
40
0.5413475
50
76.6779277
51
90.4563316
0
ARC
8
DEFAULT_255_1_234
10
4.7336114
20
5.4436114
40
0.3775041
50
47.485847
51
76.9287264
0
ARC
8
DEFAULT_255_1_234
10
4.7189087
20
5.4336159
40
0.3948286
50
16.5424086
51
46.8933463
0
ARC
8
DEFAULT_255_1_234
10
4.5581244
20
5.3807861
40
0.564021
50
5.4072051
51
17.0365086
0
ARC
8
DEFAULT_255_1_234
10
4.4142261
20
5.3576679
40
0.5556559
50
7.8891745
51
15.9239216
0
ARC
8
DEFAULT_255_1_234
10
4.6129274
20
5.4153631
40
0.3487515
50
15.7653144
51
27.9410532
0
ARC
8
DEFAULT_255_1_234
10
4.7233492
20
5.474479
40
0.2235026
50
27.8166557
51
46.4008329
0
ARC
8
DEFAULT_255_1_234
10
4.7283135
20
5.4739082
40
0.2205286
50
47.4371857
51
75.0698205
0
ARC
8
DEFAULT_255_1_234
10
4.6974529
20
5.3664765
40
0.3322915
50
74.7008593
51
87.8124495
0
ARC
8
DEFAULT_255_1_234
10
4.6901217
20
5.2608844
40
0.4380987
50
87.3814673
51
90.0240855
0
ARC
8
DEFAULT_255_1_234
10
4.686276
20
5.3786291
40
0.3203749
50
89.3451631
51
108.5745436
0
ARC
8
DEFAULT_255_1_234
10
4.6725865
20
5.4299908
40
0.2673494
50
109.2998449
51
143.3037509
0
ARC
8
DEFAULT_255_1_234
10
4.7487938
20
5.3713881
40
0.3634757
50
143.0753173
51
163.1916937
0
ARC
8
DEFAULT_255_1_234
10
4.9439666
20
5.3097967
40
0.5681262
50
162.9373603
51
174.6208611
0
ARC
8
DEFAULT_255_1_234
10
5.2065708
20
5.281001
40
0.8322832
50
174.3419979
51
180.1430411
0
ARC
8
DEFAULT_255_1_234
10
5.1134864
20
5.1615698
40
0.7392076
50
179.6817502
51
189.150529
0
ARC
8
DEFAULT_255_1_234
10
4.8634112
20
5.119919
40
0.4856932
50
188.9910863
51
203.5773039
0
ARC
8
DEFAULT_255_1_234
10
4.7554445
20
5.0751211
40
0.3688271
50
203.9077269
51
215.1312379
0
ARC
8
DEFAULT_255_1_234
10
4.6631539
20
5.0035941
40
0.2522457
50
213.9071664
51
263.8849284
0
ARC
8
DEFAULT_255_1_234
10
4.6756868
20
5.0820518
40
0.3316174
50
263.1758525
51
270.1031083
0
ARC
8
DEFAULT_255_1_234
10
4.678896
20
5.2067365
40
0.4563091
50
269.6719807
51
279.0609165
0
ARC
8
DEFAULT_255_1_234
10
4.7055728
20
5.0454907
40
0.2928759
50
278.8750225
51
293.6346586
0
ARC
8
DEFAULT_255_1_234
10
4.7375936
20
4.97029
40
0.2111472
50
293.8553404
51
310.0518804
0
ARC
8
DEFAULT_255_1_234
10
4.738079
20
4.9640516
40
0.2060917
50
311.0646779
51
332.0108348
0
ARC
8
DEFAULT_255_1_234
10
4.6188517
20
5.0297978
40
0.3422352
50
331.6588543
51
343.2878891
0
ARC
8
DEFAULT_255_1_234
10
4.4126032
20
5.0931798
40
0.5580003
50
343.1446044
51
351.010618
0
ARC
8
DEFAULT_255_1_234
10
4.2584678
20
5.1212871
40
0.7146438
50
350.7157277
51
351.1602153
0
LINE
8
DEFAULT_255_1_234
10
6.2296218
20
5.2612534
11
6.2296218
21
5.1873614
0
LINE
8
DEFAULT_255_1_234
10
5.2891052
20
5.1769201
11
5.2891052
21
5.2612534
0
LINE
8
DEFAULT_255_1_234
10
6.0762156
20
5.1761169
11
6.0762156
21
5.2628597
0
LINE
8
DEFAULT_255_1_234
10
5.4425114
20
5.273301
11
5.4425114
21
5.1873614
0
ARC
8
DEFAULT_255_1_234
10
5.3654244
20
5.1834015
40
0.8642064
50
350.487711
51
0.2625388
0
ARC
8
DEFAULT_255_1_234
10
5.5947486
20
5.1439578
40
0.631518
50
336.0277639
51
350.5787438
0
ARC
8
DEFAULT_255_1_234
10
5.7292309
20
5.0831892
40
0.4839466
50
319.8877444
51
336.1328423
0
ARC
8
DEFAULT_255_1_234
10
5.789495
20
5.034958
40
0.4067874
50
302.4806467
51
319.6143626
0
ARC
8
DEFAULT_255_1_234
10
5.777996
20
5.0571202
40
0.4316636
50
275.8195682
51
302.1884709
0
ARC
8
DEFAULT_255_1_234
10
5.7613593
20
5.1713665
40
0.5470306
50
269.9171439
51
276.3397983
0
ARC
8
DEFAULT_255_1_234
10
5.7568803
20
5.1027681
40
0.4784458
50
252.5219675
51
270.4416499
0
ARC
8
DEFAULT_255_1_234
10
5.7425062
20
5.0488592
40
0.422716
50
237.5352116
51
252.1857531
0
ARC
8
DEFAULT_255_1_234
10
5.7514258
20
5.0602363
40
0.4371052
50
209.063312
51
237.3492538
0
ARC
8
DEFAULT_255_1_234
10
5.8384106
20
5.1148685
40
0.5397041
50
205.1183774
51
209.6470015
0
ARC
8
DEFAULT_255_1_234
10
5.9181143
20
5.148683
40
0.6262326
50
188.7215458
51
204.8240747
0
ARC
8
DEFAULT_255_1_234
10
6.1178671
20
5.1823067
40
0.8287794
50
180.3723947
51
188.9252049
0
ARC
8
DEFAULT_255_1_234
10
6.1151423
20
5.2652402
40
0.8260467
50
169.5253763
51
180.2765336
0
ARC
8
DEFAULT_255_1_234
10
5.9248871
20
5.3002309
40
0.6326007
50
155.8315255
51
169.5089989
0
ARC
8
DEFAULT_255_1_234
10
5.7968373
20
5.3596348
40
0.4914567
50
139.6258461
51
156.0379525
0
ARC
8
DEFAULT_255_1_234
10
5.7378706
20
5.4070799
40
0.4158054
50
122.6416387
51
139.3430715
0
ARC
8
DEFAULT_255_1_234
10
5.7479326
20
5.3887451
40
0.4366739
50
93.0223692
51
122.455762
0
ARC
8
DEFAULT_255_1_234
10
5.7587323
20
5.2922709
40
0.5336137
50
89.975342
51
93.6341897
0
ARC
8
DEFAULT_255_1_234
10
5.7626102
20
5.3321242
40
0.4937738
50
73.746375
51
90.4233405
0
ARC
8
DEFAULT_255_1_234
10
5.7801681
20
5.4001287
40
0.4235786
50
57.662753
51
73.4518111
0
ARC
8
DEFAULT_255_1_234
10
5.7793687
20
5.4022832
40
0.4221899
50
29.1440151
51
57.414694
0
ARC
8
DEFAULT_255_1_234
10
5.6858882
20
5.3439005
40
0.5322966
50
24.0982783
51
29.7323517
0
ARC
8
DEFAULT_255_1_234
10
5.5825157
20
5.3010399
40
0.6441673
50
8.6655297
51
23.8241346
0
ARC
8
DEFAULT_255_1_234
10
5.3590895
20
5.2645854
40
0.8705386
50
359.7806941
51
8.8218784
0
ARC
8
DEFAULT_255_1_234
10
5.2443893
20
5.2671345
40
0.8318373
50
359.7055579
51
8.036044
0
ARC
8
DEFAULT_255_1_234
10
5.5443899
20
5.3108239
40
0.5286768
50
7.8928306
51
20.2962107
0
ARC
8
DEFAULT_255_1_234
10
5.707147
20
5.3708395
40
0.3552073
50
20.3231126
51
36.4992797
0
ARC
8
DEFAULT_255_1_234
10
5.7757016
20
5.4236402
40
0.2686974
50
36.1437156
51
85.6627023
0
ARC
8
DEFAULT_255_1_234
10
5.7594562
20
5.3196221
40
0.373739
50
84.3852322
51
90.0757696
0
ARC
8
DEFAULT_255_1_234
10
5.7552234
20
5.3856839
40
0.3076997
50
89.3038458
51
109.9045693
0
ARC
8
DEFAULT_255_1_234
10
5.7459625
20
5.4239062
40
0.2686424
50
110.8228367
51
143.9179474
0
ARC
8
DEFAULT_255_1_234
10
5.8393285
20
5.3526236
40
0.3860887
50
143.5289163
51
163.2980757
0
ARC
8
DEFAULT_255_1_234
10
6.0301106
20
5.2926433
40
0.5860659
50
163.0418846
51
174.3140048
0
ARC
8
DEFAULT_255_1_234
10
6.2705218
20
5.2648854
40
0.8280531
50
174.0509143
51
179.4176892
0
ARC
8
DEFAULT_255_1_234
10
6.2200957
20
5.1831954
40
0.7775954
50
179.6930361
51
188.7906598
0
ARC
8
DEFAULT_255_1_234
10
5.9537436
20
5.1405935
40
0.5078633
50
188.6331305
51
202.5629587
0
ARC
8
DEFAULT_255_1_234
10
5.8283028
20
5.0901996
40
0.3726913
50
202.8081362
51
216.1193925
0
ARC
8
DEFAULT_255_1_234
10
5.7473598
20
5.0250676
40
0.2689577
50
215.0755913
51
264.6379694
0
ARC
8
DEFAULT_255_1_234
10
5.7600548
20
5.1081513
40
0.3528978
50
263.846392
51
270.0833719
0
ARC
8
DEFAULT_255_1_234
10
5.7641938
20
5.0823374
40
0.3271036
50
269.3649385
51
287.5152008
0
ARC
8
DEFAULT_255_1_234
10
5.7820096
20
5.0176238
40
0.2600406
50
288.0630309
51
323.8113348
0
ARC
8
DEFAULT_255_1_234
10
5.6948937
20
5.0826049
40
0.3687189
50
323.6547608
51
342.6590488
0
ARC
8
DEFAULT_255_1_234
10
5.4917552
20
5.1486952
40
0.5823286
50
342.4091907
51
353.6451149
0
ARC
8
DEFAULT_255_1_234
10
5.2086063
20
5.183919
40
0.8676442
50
353.4029884
51
359.4847795
0
LINE
8
DEFAULT_255_1_234
10
6.4609358
20
5.8098211
11
6.6601229
21
5.8098211
0
LINE
8
DEFAULT_255_1_234
10
6.6601229
20
5.8098211
11
7.0424337
21
4.8556506
0
LINE
8
DEFAULT_255_1_234
10
7.0424337
20
4.8556506
11
7.4247444
21
5.8098211
0
LINE
8
DEFAULT_255_1_234
10
7.4247444
20
5.8098211
11
7.6247347
21
5.8098211
0
LINE
8
DEFAULT_255_1_234
10
7.6247347
20
5.8098211
11
7.6247347
21
4.6404
0
LINE
8
DEFAULT_255_1_234
10
7.6247347
20
4.6404
11
7.4705253
21
4.6404
0
LINE
8
DEFAULT_255_1_234
10
7.4705253
20
4.6404
11
7.4705253
21
5.0957996
0
LINE
8
DEFAULT_255_1_234
10
7.4705253
20
5.0957996
11
7.4849825
21
5.5873419
0
LINE
8
DEFAULT_255_1_234
10
7.4849825
20
5.5873419
11
7.1010654
21
4.6404
0
LINE
8
DEFAULT_255_1_234
10
7.1010654
20
4.6404
11
6.9829988
21
4.6404
0
LINE
8
DEFAULT_255_1_234
10
6.9829988
20
4.6404
11
6.5998849
21
5.5849324
0
LINE
8
DEFAULT_255_1_234
10
6.5998849
20
5.5849324
11
6.6151452
21
5.0957996
0
LINE
8
DEFAULT_255_1_234
10
6.6151452
20
5.0957996
11
6.6151452
21
4.6404
0
LINE
8
DEFAULT_255_1_234
10
6.6151452
20
4.6404
11
6.4609358
21
4.6404
0
LINE
8
DEFAULT_255_1_234
10
6.4609358
20
4.6404
11
6.4609358
21
5.8098211
0
LINE
8
DEFAULT_255_1_234
10
8.346788
20
5.8154433
11
8.346788
21
4.6404
0
LINE
8
DEFAULT_255_1_234
10
8.346788
20
4.6404
11
8.1973977
21
4.6404
0
LINE
8
DEFAULT_255_1_234
10
8.1973977
20
4.6404
11
8.1973977
21
5.6307133
0
LINE
8
DEFAULT_255_1_234
10
8.1973977
20
5.6307133
11
7.8978138
21
5.5206785
0
LINE
8
DEFAULT_255_1_234
10
7.8978138
20
5.5206785
11
7.8978138
21
5.6556117
0
LINE
8
DEFAULT_255_1_234
10
7.8978138
20
5.6556117
11
8.3234959
21
5.8154433
0
LINE
8
DEFAULT_255_1_234
10
8.3234959
20
5.8154433
11
8.346788
21
5.8154433
0
LINE
8
DEFAULT_255_1_234
10
4.8957484
20
13.2445343
11
4.8957484
21
13.118436
0
LINE
8
DEFAULT_255_1_234
10
4.8957484
20
13.118436
11
4.3889458
21
13.118436
0
LINE
8
DEFAULT_255_1_234
10
4.3889458
20
13.118436
11
4.3889458
21
12.7039983
0
LINE
8
DEFAULT_255_1_234
10
4.3889458
20
12.7039983
11
4.9776722
21
12.7039983
0
LINE
8
DEFAULT_255_1_234
10
4.9776722
20
12.7039983
11
4.9776722
21
12.5779
0
LINE
8
DEFAULT_255_1_234
10
4.9776722
20
12.5779
11
4.2347364
21
12.5779
0
LINE
8
DEFAULT_255_1_234
10
4.2347364
20
12.5779
11
4.2347364
21
13.7473211
0
LINE
8
DEFAULT_255_1_234
10
4.2347364
20
13.7473211
11
4.9696404
21
13.7473211
0
LINE
8
DEFAULT_255_1_234
10
4.9696404
20
13.7473211
11
4.9696404
21
13.6204196
0
LINE
8
DEFAULT_255_1_234
10
4.9696404
20
13.6204196
11
4.3889458
21
13.6204196
0
LINE
8
DEFAULT_255_1_234
10
4.3889458
20
13.6204196
11
4.3889458
21
13.2445343
0
LINE
8
DEFAULT_255_1_234
10
4.3889458
20
13.2445343
11
4.8957484
21
13.2445343
0
LINE
8
DEFAULT_255_1_234
10
5.9936871
20
13.7473211
11
5.9936871
21
13.6204196
0
LINE
8
DEFAULT_255_1_234
10
5.9936871
20
13.6204196
11
5.6178017
21
13.6204196
0
LINE
8
DEFAULT_255_1_234
10
5.6178017
20
13.6204196
11
5.6178017
21
12.5779
0
LINE
8
DEFAULT_255_1_234
10
5.6178017
20
12.5779
11
5.4643955
21
12.5779
0
LINE
8
DEFAULT_255_1_234
10
5.4643955
20
12.5779
11
5.4643955
21
13.6204196
0
LINE
8
DEFAULT_255_1_234
10
5.4643955
20
13.6204196
11
5.0893133
21
13.6204196
0
LINE
8
DEFAULT_255_1_234
10
5.0893133
20
13.6204196
11
5.0893133
21
13.7473211
0
LINE
8
DEFAULT_255_1_234
10
5.0893133
20
13.7473211
11
5.9936871
21
13.7473211
0
LINE
8
DEFAULT_255_1_234
10
7.0659241
20
13.7473211
11
7.0659241
21
12.5779
0
LINE
8
DEFAULT_255_1_234
10
7.0659241
20
12.5779
11
6.9109116
21
12.5779
0
LINE
8
DEFAULT_255_1_234
10
6.9109116
20
12.5779
11
6.9109116
21
13.118436
0
LINE
8
DEFAULT_255_1_234
10
6.9109116
20
13.118436
11
6.321382
21
13.118436
0
LINE
8
DEFAULT_255_1_234
10
6.321382
20
13.118436
11
6.321382
21
12.5779
0
LINE
8
DEFAULT_255_1_234
10
6.321382
20
12.5779
11
6.1671726
21
12.5779
0
LINE
8
DEFAULT_255_1_234
10
6.1671726
20
12.5779
11
6.1671726
21
13.7473211
0
LINE
8
DEFAULT_255_1_234
10
6.1671726
20
13.7473211
11
6.321382
21
13.7473211
0
LINE
8
DEFAULT_255_1_234
10
6.321382
20
13.7473211
11
6.321382
21
13.2445343
0
LINE
8
DEFAULT_255_1_234
10
6.321382
20
13.2445343
11
6.9109116
21
13.2445343
0
LINE
8
DEFAULT_255_1_234
10
6.9109116
20
13.2445343
11
6.9109116
21
13.7473211
0
LINE
8
DEFAULT_255_1_234
10
6.9109116
20
13.7473211
11
7.0659241
21
13.7473211
0
LINE
8
DEFAULT_255_1_234
10
8.0674819
20
12.6991792
11
8.0674819
21
12.5779
0
LINE
8
DEFAULT_255_1_234
10
8.0674819
20
12.5779
11
7.3012541
21
12.5779
0
LINE
8
DEFAULT_255_1_234
10
7.3012541
20
12.5779
11
7.3012541
21
12.6847221
0
LINE
8
DEFAULT_255_1_234
10
7.3012541
20
12.6847221
11
7.7060537
21
13.1344995
0
LINE
8
DEFAULT_255_1_234
10
7.4273523
20
13.4027595
11
7.2787652
21
13.4027595
0
LINE
8
DEFAULT_255_1_234
10
7.7935996
20
13.0389218
11
7.4803618
21
12.6991792
0
LINE
8
DEFAULT_255_1_234
10
7.4803618
20
12.6991792
11
8.0674819
21
12.6991792
0
ARC
8
DEFAULT_255_1_234
10
6.357037
20
14.3274527
40
1.8008286
50
318.5132453
51
320.7828378
0
ARC
8
DEFAULT_255_1_234
10
6.8857344
20
13.8971426
40
1.1191493
50
320.7372736
51
323.9737074
0
ARC
8
DEFAULT_255_1_234
10
7.2777201
20
13.6131361
40
0.6350923
50
323.8961724
51
328.6421089
0
ARC
8
DEFAULT_255_1_234
10
7.4823796
20
13.4869031
40
0.3946393
50
328.8299013
51
331.789948
0
ARC
8
DEFAULT_255_1_234
10
7.5820975
20
13.4354509
40
0.2824501
50
331.4255242
51
352.9364833
0
ARC
8
DEFAULT_255_1_234
10
7.5957475
20
13.4323976
40
0.2685315
50
353.2248685
51
0.0169286
0
ARC
8
DEFAULT_255_1_234
10
7.6167352
20
13.434695
40
0.2475536
50
359.4866256
51
15.9339782
0
ARC
8
DEFAULT_255_1_234
10
7.6674337
20
13.4483286
40
0.1950618
50
16.1714718
51
43.5284424
0
ARC
8
DEFAULT_255_1_234
10
7.6751646
20
13.4560573
40
0.184134
50
43.4415429
51
83.1661404
0
ARC
8
DEFAULT_255_1_234
10
7.6617564
20
13.3823771
40
0.258926
50
82.160215
51
90.1505798
0
ARC
8
DEFAULT_255_1_234
10
7.6585992
20
13.3286865
40
0.3126255
50
89.5460705
51
102.5418777
0
ARC
8
DEFAULT_255_1_234
10
7.6343078
20
13.4317665
40
0.2067346
50
102.1739365
51
129.2061916
0
ARC
8
DEFAULT_255_1_234
10
7.6264149
20
13.4442094
40
0.1921118
50
129.7279328
51
135.7542026
0
ARC
8
DEFAULT_255_1_234
10
7.6385677
20
13.4345045
40
0.2075944
50
136.175737
51
166.3674722
0
ARC
8
DEFAULT_255_1_234
10
7.7392596
20
13.4075182
40
0.3118201
50
165.9092917
51
178.8683903
0
ARC
8
DEFAULT_255_1_234
10
7.8257458
20
13.4028179
40
0.3983935
50
178.438168
51
180.0083905
0
ARC
8
DEFAULT_255_1_234
10
7.685606
20
13.4067231
40
0.4068601
50
163.2878735
51
180.5581814
0
ARC
8
DEFAULT_255_1_234
10
7.6054321
20
13.428784
40
0.3237344
50
133.454115
51
162.9470031
0
ARC
8
DEFAULT_255_1_234
10
7.6232863
20
13.4098
40
0.349795
50
100.7869394
51
133.4384016
0
ARC
8
DEFAULT_255_1_234
10
7.6580634
20
13.2549319
40
0.5084616
50
89.6605301
51
101.3704185
0
ARC
8
DEFAULT_255_1_234
10
7.6646973
20
13.2610496
40
0.502348
50
78.2171172
51
90.4130393
0
ARC
8
DEFAULT_255_1_234
10
7.7002051
20
13.4234637
40
0.3361092
50
55.9268222
51
78.4888551
0
ARC
8
DEFAULT_255_1_234
10
7.7198491
20
13.4573324
40
0.2970617
50
47.9292255
51
55.4054003
0
ARC
8
DEFAULT_255_1_234
10
7.7300052
20
13.4676502
40
0.2825983
50
4.3347696
51
48.0560701
0
ARC
8
DEFAULT_255_1_234
10
7.6204446
20
13.4506601
40
0.393225
50
359.925209
51
5.5967654
0
ARC
8
DEFAULT_255_1_234
10
7.6633337
20
13.4562816
40
0.3503892
50
337.8914096
51
358.9967724
0
ARC
8
DEFAULT_255_1_234
10
7.3919749
20
13.5609706
40
0.6412172
50
326.9135351
51
338.3505194
0
ARC
8
DEFAULT_255_1_234
10
6.9934053
20
13.8164284
40
1.1146189
50
319.6472867
51
327.095818
0
ARC
8
DEFAULT_255_1_234
10
6.6101056
20
14.1326
40
1.6114559
50
317.2586784
51
319.9046139
0
LINE
8
DEFAULT_255_1_234
10
4.8873484
20
21.1820343
11
4.8873484
21
21.055936
0
LINE
8
DEFAULT_255_1_234
10
4.8873484
20
21.055936
11
4.3805458
21
21.055936
0
LINE
8
DEFAULT_255_1_234
10
4.3805458
20
21.055936
11
4.3805458
21
20.6414983
0
LINE
8
DEFAULT_255_1_234
10
4.3805458
20
20.6414983
11
4.9692722
21
20.6414983
0
LINE
8
DEFAULT_255_1_234
10
4.9692722
20
20.6414983
11
4.9692722
21
20.5154
0
LINE
8
DEFAULT_255_1_234
10
4.9692722
20
20.5154
11
4.2263364
21
20.5154
0
LINE
8
DEFAULT_255_1_234
10
4.2263364
20
20.5154
11
4.2263364
21
21.6848211
0
LINE
8
DEFAULT_255_1_234
10
4.2263364
20
21.6848211
11
4.9612404
21
21.6848211
0
LINE
8
DEFAULT_255_1_234
10
4.9612404
20
21.6848211
11
4.9612404
21
21.5579196
0
LINE
8
DEFAULT_255_1_234
10
4.9612404
20
21.5579196
11
4.3805458
21
21.5579196
0
LINE
8
DEFAULT_255_1_234
10
4.3805458
20
21.5579196
11
4.3805458
21
21.1820343
0
LINE
8
DEFAULT_255_1_234
10
4.3805458
20
21.1820343
11
4.8873484
21
21.1820343
0
LINE
8
DEFAULT_255_1_234
10
5.9852871
20
21.6848211
11
5.9852871
21
21.5579196
0
LINE
8
DEFAULT_255_1_234
10
5.9852871
20
21.5579196
11
5.6094017
21
21.5579196
0
LINE
8
DEFAULT_255_1_234
10
5.6094017
20
21.5579196
11
5.6094017
21
20.5154
0
LINE
8
DEFAULT_255_1_234
10
5.6094017
20
20.5154
11
5.4559955
21
20.5154
0
LINE
8
DEFAULT_255_1_234
10
5.4559955
20
20.5154
11
5.4559955
21
21.5579196
0
LINE
8
DEFAULT_255_1_234
10
5.4559955
20
21.5579196
11
5.0809133
21
21.5579196
0
LINE
8
DEFAULT_255_1_234
10
5.0809133
20
21.5579196
11
5.0809133
21
21.6848211
0
LINE
8
DEFAULT_255_1_234
10
5.0809133
20
21.6848211
11
5.9852871
21
21.6848211
0
LINE
8
DEFAULT_255_1_234
10
7.0575241
20
21.6848211
11
7.0575241
21
20.5154
0
LINE
8
DEFAULT_255_1_234
10
7.0575241
20
20.5154
11
6.9025116
21
20.5154
0
LINE
8
DEFAULT_255_1_234
10
6.9025116
20
20.5154
11
6.9025116
21
21.055936
0
LINE
8
DEFAULT_255_1_234
10
6.9025116
20
21.055936
11
6.312982
21
21.055936
0
LINE
8
DEFAULT_255_1_234
10
6.312982
20
21.055936
11
6.312982
21
20.5154
0
LINE
8
DEFAULT_255_1_234
10
6.312982
20
20.5154
11
6.1587726
21
20.5154
0
LINE
8
DEFAULT_255_1_234
10
6.1587726
20
20.5154
11
6.1587726
21
21.6848211
0
LINE
8
DEFAULT_255_1_234
10
6.1587726
20
21.6848211
11
6.312982
21
21.6848211
0
LINE
8
DEFAULT_255_1_234
10
6.312982
20
21.6848211
11
6.312982
21
21.1820343
0
LINE
8
DEFAULT_255_1_234
10
6.312982
20
21.1820343
11
6.9025116
21
21.1820343
0
LINE
8
DEFAULT_255_1_234
10
6.9025116
20
21.1820343
11
6.9025116
21
21.6848211
0
LINE
8
DEFAULT_255_1_234
10
6.9025116
20
21.6848211
11
7.0575241
21
21.6848211
0
LINE
8
DEFAULT_255_1_234
10
7.7811837
20
21.6904433
11
7.7811837
21
20.5154
0
LINE
8
DEFAULT_255_1_234
10
7.7811837
20
20.5154
11
7.6317934
21
20.5154
0
LINE
8
DEFAULT_255_1_234
10
7.6317934
20
20.5154
11
7.6317934
21
21.5057133
0
LINE
8
DEFAULT_255_1_234
10
7.6317934
20
21.5057133
11
7.3322096
21
21.3956785
0
LINE
8
DEFAULT_255_1_234
10
7.3322096
20
21.3956785
11
7.3322096
21
21.5306117
0
LINE
8
DEFAULT_255_1_234
10
7.3322096
20
21.5306117
11
7.7578917
21
21.6904433
0
LINE
8
DEFAULT_255_1_234
10
7.7578917
20
21.6904433
11
7.7811837
21
21.6904433
0
LINE
8
DEFAULT_255_1_234
10
4.2454489
20
29.6223211
11
4.2454489
21
28.5789983
0
LINE
8
DEFAULT_255_1_234
10
4.2454489
20
28.5789983
11
4.7996389
21
28.5789983
0
LINE
8
DEFAULT_255_1_234
10
4.7996389
20
28.5789983
11
4.7996389
21
28.4529
0
LINE
8
DEFAULT_255_1_234
10
4.7996389
20
28.4529
11
4.0904364
21
28.4529
0
LINE
8
DEFAULT_255_1_234
10
4.0904364
20
28.4529
11
4.0904364
21
29.6223211
0
LINE
8
DEFAULT_255_1_234
10
4.0904364
20
29.6223211
11
4.2454489
21
29.6223211
0
LINE
8
DEFAULT_255_1_234
10
5.377924
20
29.4215276
11
5.377924
21
29.0801788
0
LINE
8
DEFAULT_255_1_234
10
5.377924
20
29.0801788
11
5.7040126
21
29.0801788
0
LINE
8
DEFAULT_255_1_234
10
5.7040126
20
29.0801788
11
5.7040126
21
28.9396233
0
LINE
8
DEFAULT_255_1_234
10
5.7040126
20
28.9396233
11
5.377924
21
28.9396233
0
LINE
8
DEFAULT_255_1_234
10
5.377924
20
28.9396233
11
5.377924
21
28.5701634
0
LINE
8
DEFAULT_255_1_234
10
5.377924
20
28.5701634
11
5.2285337
21
28.5701634
0
LINE
8
DEFAULT_255_1_234
10
5.2285337
20
28.5701634
11
5.2285337
21
28.9396233
0
LINE
8
DEFAULT_255_1_234
10
5.2285337
20
28.9396233
11
4.9024451
21
28.9396233
0
LINE
8
DEFAULT_255_1_234
10
4.9024451
20
28.9396233
11
4.9024451
21
29.0801788
0
LINE
8
DEFAULT_255_1_234
10
4.9024451
20
29.0801788
11
5.2285337
21
29.0801788
0
LINE
8
DEFAULT_255_1_234
10
5.2285337
20
29.0801788
11
5.2285337
21
29.4215276
0
LINE
8
DEFAULT_255_1_234
10
5.2285337
20
29.4215276
11
5.377924
21
29.4215276
0
LINE
8
DEFAULT_255_1_234
10
23.1654817
20
37.0819327
11
23.1654817
21
36.8891709
0
LINE
8
DEFAULT_255_1_234
10
22.427365
20
36.8690916
11
22.427365
21
37.0674755
0
LINE
8
DEFAULT_255_1_234
10
23.0168946
20
36.8490123
11
23.0168946
21
37.0923739
0
LINE
8
DEFAULT_255_1_234
10
22.5759521
20
37.1036184
11
22.5759521
21
36.8658789
0
ARC
8
DEFAULT_255_1_234
10
21.9407707
20
36.8842805
40
1.2247208
50
353.8441951
51
0.2287902
0
ARC
8
DEFAULT_255_1_234
10
22.4047211
20
36.8324806
40
0.7578929
50
344.4934747
51
353.9765454
0
ARC
8
DEFAULT_255_1_234
10
22.7039801
20
36.7473981
40
0.4467846
50
329.2803592
51
344.7472793
0
ARC
8
DEFAULT_255_1_234
10
22.8032626
20
36.6929018
40
0.3336173
50
324.9352394
51
328.6160465
0
ARC
8
DEFAULT_255_1_234
10
22.8409734
20
36.6665427
40
0.2876076
50
280.580143
51
324.9173126
0
ARC
8
DEFAULT_255_1_234
10
22.8008527
20
36.8336099
40
0.4592847
50
269.5977311
51
281.6734359
0
ARC
8
DEFAULT_255_1_234
10
22.7936433
20
36.8216173
40
0.4472986
50
256.6228859
51
270.51044
0
ARC
8
DEFAULT_255_1_234
10
22.753441
20
36.6667877
40
0.2873874
50
215.8618325
51
257.2788573
0
ARC
8
DEFAULT_255_1_234
10
22.8555442
20
36.7352977
40
0.4102928
50
197.9693508
51
215.2623606
0
ARC
8
DEFAULT_255_1_234
10
23.1040558
20
36.8191709
40
0.6725652
50
187.8816417
51
198.2346507
0
ARC
8
DEFAULT_255_1_234
10
23.4998766
20
36.8763079
40
1.0724845
50
180.8976217
51
188.0055519
0
ARC
8
DEFAULT_255_1_234
10
23.7798954
20
36.8866777
40
1.3526448
50
180.7449369
51
181.1510016
0
ARC
8
DEFAULT_255_1_234
10
23.6221683
20
37.0723042
40
1.1948131
50
173.7675579
51
180.231553
0
ARC
8
DEFAULT_255_1_234
10
23.170383
20
37.1233666
40
0.7401564
50
164.3058563
51
173.9002247
0
ARC
8
DEFAULT_255_1_234
10
22.8791899
20
37.2072656
40
0.4371288
50
148.7922025
51
164.568378
0
ARC
8
DEFAULT_255_1_234
10
22.7840351
20
37.2603929
40
0.3282386
50
144.5883898
51
148.1176286
0
ARC
8
DEFAULT_255_1_234
10
22.7497249
20
37.2843315
40
0.2864044
50
101.6440918
51
144.514236
0
ARC
8
DEFAULT_255_1_234
10
22.7922315
20
37.1154069
40
0.4604934
50
89.5284041
51
102.5819763
0
ARC
8
DEFAULT_255_1_234
10
22.8001403
20
37.1115018
40
0.464401
50
77.0437873
51
90.5081339
0
ARC
8
DEFAULT_255_1_234
10
22.8403405
20
37.2757615
40
0.2953195
50
48.2778575
51
77.4994676
0
ARC
8
DEFAULT_255_1_234
10
22.8476036
20
37.2886746
40
0.2808655
50
36.3142134
51
47.6305865
0
ARC
8
DEFAULT_255_1_234
10
22.7607343
20
37.2301515
40
0.3855453
50
18.2931786
51
35.6769206
0
ARC
8
DEFAULT_255_1_234
10
22.5064102
20
37.1428593
40
0.654423
50
8.024666
51
18.5605216
0
ARC
8
DEFAULT_255_1_234
10
22.0901022
20
37.0813792
40
1.0752407
50
1.1274072
51
8.1718305
0
ARC
8
DEFAULT_255_1_234
10
21.7665213
20
37.0686885
40
1.3990231
50
0.5424119
51
1.3863029
0
ARC
8
DEFAULT_255_1_234
10
21.948659
20
37.0959342
40
1.0682415
50
359.8090433
51
4.9407866
0
ARC
8
DEFAULT_255_1_234
10
22.3696604
20
37.1335113
40
0.6455691
50
4.8362157
51
12.2904523
0
ARC
8
DEFAULT_255_1_234
10
22.6451719
20
37.1948965
40
0.3633074
50
12.0805627
51
23.8173984
0
ARC
8
DEFAULT_255_1_234
10
22.7625425
20
37.2445919
40
0.2358723
50
24.2871213
51
31.3935614
0
ARC
8
DEFAULT_255_1_234
10
22.8150122
20
37.2789233
40
0.1732111
50
30.7407893
51
82.4657128
0
ARC
8
DEFAULT_255_1_234
10
22.7970256
20
37.1905691
40
0.263235
50
81.1060089
51
90.2184952
0
ARC
8
DEFAULT_255_1_234
10
22.7934555
20
37.2163924
40
0.2374236
50
89.3806855
51
105.6762551
0
ARC
8
DEFAULT_255_1_234
10
22.7751186
20
37.2830567
40
0.1682847
50
105.7981136
51
149.7388061
0
ARC
8
DEFAULT_255_1_234
10
22.8815264
20
37.219095
40
0.2924306
50
149.4208916
51
163.6286378
0
ARC
8
DEFAULT_255_1_234
10
23.0906152
20
37.155325
40
0.5110213
50
163.3763315
51
172.1410975
0
ARC
8
DEFAULT_255_1_234
10
23.4206871
20
37.1080518
40
0.8444586
50
172.0259487
51
178.0703232
0
ARC
8
DEFAULT_255_1_234
10
23.723696
20
37.0936906
40
1.1477868
50
177.8631668
51
179.5044149
0
ARC
8
DEFAULT_255_1_234
10
23.6164365
20
36.8622389
40
1.0404907
50
179.7995573
51
185.2460446
0
ARC
8
DEFAULT_255_1_234
10
23.2121404
20
36.8239513
40
0.6343885
50
185.1411642
51
193.0079639
0
ARC
8
DEFAULT_255_1_234
10
22.9477877
20
36.7614641
40
0.3627568
50
192.7897626
51
205.2507664
0
ARC
8
DEFAULT_255_1_234
10
22.8431424
20
36.7147415
40
0.2481908
50
205.8005384
51
211.2537509
0
ARC
8
DEFAULT_255_1_234
10
22.7907864
20
36.679658
40
0.1852521
50
210.3789793
51
238.4008143
0
ARC
8
DEFAULT_255_1_234
10
22.7888386
20
36.6843376
40
0.1882621
50
239.6520629
51
265.9793761
0
ARC
8
DEFAULT_255_1_234
10
22.7973586
20
36.7515427
40
0.2559272
50
265.1315437
51
270.060332
0
ARC
8
DEFAULT_255_1_234
10
22.8002365
20
36.7191534
40
0.2235528
50
269.3314664
51
287.2178029
0
ARC
8
DEFAULT_255_1_234
10
22.8140217
20
36.6688279
40
0.1714108
50
287.7958004
51
329.080874
0
ARC
8
DEFAULT_255_1_234
10
22.7182674
20
36.728593
40
0.2842745
50
328.6634704
51
343.3325132
0
ARC
8
DEFAULT_255_1_234
10
22.5009694
20
36.7962863
40
0.5118644
50
343.0499468
51
351.9393422
0
ARC
8
DEFAULT_255_1_234
10
22.1542994
20
36.8473949
40
0.8622784
50
351.8069023
51
357.7959224
0
ARC
8
DEFAULT_255_1_234
10
21.830755
20
36.8641721
40
1.1862365
50
357.5871873
51
359.2677531
0
LINE
8
DEFAULT_255_1_234
10
23.4490021
20
37.5598211
11
23.7815161
21
36.5952093
0
LINE
8
DEFAULT_255_1_234
10
23.7815161
20
36.5952093
11
24.1156364
21
37.5598211
0
LINE
8
DEFAULT_255_1_234
10
24.1156364
20
37.5598211
11
24.2843029
21
37.5598211
0
LINE
8
DEFAULT_255_1_234
10
24.2843029
20
37.5598211
11
23.850589
21
36.3904
0
LINE
8
DEFAULT_255_1_234
10
23.850589
20
36.3904
11
23.7140495
21
36.3904
0
LINE
8
DEFAULT_255_1_234
10
23.7140495
20
36.3904
11
23.2811388
21
37.5598211
0
LINE
8
DEFAULT_255_1_234
10
23.2811388
20
37.5598211
11
23.4490021
21
37.5598211
0
ENDSEC
0
EOF