0
SECTION
2
HEADER
9
$MEASUREMENT
70
1
0
ENDSEC
0
SECTION
2
TABLES
0
TABLE
2
LTYPE
0
LTYPE
72
65
70
64
2
CONTINUOUS
3
______
73
0
40
0
0
ENDTAB
0
TABLE
2
LAYER
0
LAYER
2
DEFAULT_255_2_778
70
0
62
255
6
CONTINUOUS
0
LAYER
2
DEFAULT_255_1_234
70
0
62
255
6
CONTINUOUS
0
ENDTAB
0
ENDSEC
0
SECTION
2
ENTITIES
0
ARC
8
DEFAULT_255_2_778
10
3.5700693
20
51.9926534
40
0.7914215
50
129.1312896
51
180.1450914
0
ARC
8
DEFAULT_255_2_778
10
3.5703345
20
51.9931405
40
0.7912112
50
89.854026
51
129.1684493
0
ARC
8
DEFAULT_255_2_778
10
25.7993937
20
51.992827
40
0.7915249
50
39.4792447
51
90.147911
0
ARC
8
DEFAULT_255_2_778
10
25.7999935
20
51.9926737
40
0.7911595
50
359.8533901
51
39.5154338
0
ARC
8
DEFAULT_255_2_778
10
25.7996693
20
-1.9863989
40
0.7914836
50
309.4761667
51
0.1482649
0
ARC
8
DEFAULT_255_2_778
10
25.799398
20
-1.98683
40
0.7913235
50
269.8517415
51
309.511178
0
ARC
8
DEFAULT_255_2_778
10
3.570342
20
-1.9867718
40
0.7913815
50
219.1282118
51
270.1454017
0
ARC
8
DEFAULT_255_2_778
10
3.5700247
20
-1.9863893
40
0.7913769
50
179.8524075
51
219.1641908
0
LINE
8
DEFAULT_255_2_778
10
3.5723503
20
52.7843492
11
25.7973503
21
52.7843492
0
LINE
8
DEFAULT_255_2_778
10
26.5911503
20
51.9906492
11
26.5911503
21
-1.9843508
0
LINE
8
DEFAULT_255_2_778
10
25.7973503
20
-2.7781508
11
3.5723503
21
-2.7781508
0
LINE
8
DEFAULT_255_2_778
10
2.7786503
20
-1.9843508
11
2.7786503
21
51.9906492
0
LINE
8
DEFAULT_255_1_234
10
10.0186344
20
-0.1934909
11
9.7431458
21
-0.1934909
0
LINE
8
DEFAULT_255_1_234
10
9.7431458
20
-0.1934909
11
9.7431458
21
-0.6513
0
LINE
8
DEFAULT_255_1_234
10
9.7431458
20
-0.6513
11
9.5889364
21
-0.6513
0
LINE
8
DEFAULT_255_1_234
10
9.5889364
20
-0.6513
11
9.5889364
21
0.5181211
0
LINE
8
DEFAULT_255_1_234
10
9.5889364
20
0.5181211
11
10.0202407
21
0.5181211
0
LINE
8
DEFAULT_255_1_234
10
9.7431458
20
0.3912196
11
9.7431458
21
-0.0673926
0
LINE
8
DEFAULT_255_1_234
10
9.7431458
20
-0.0673926
11
10.0202407
21
-0.0673926
0
LINE
8
DEFAULT_255_1_234
10
10.0290756
20
0.3912196
11
9.7431458
21
0.3912196
0
ARC
8
DEFAULT_255_1_234
10
10.0244534
20
-0.0877805
40
0.6059162
50
78.8378113
51
90.3983573
0
ARC
8
DEFAULT_255_1_234
10
10.0660548
20
0.1142879
40
0.3996205
50
58.9632738
51
79.0810598
0
ARC
8
DEFAULT_255_1_234
10
10.096209
20
0.1702721
40
0.3361177
50
48.0197965
51
58.447194
0
ARC
8
DEFAULT_255_1_234
10
10.1050951
20
0.1788225
40
0.3238191
50
3.3375044
51
48.1766626
0
ARC
8
DEFAULT_255_1_234
10
9.982079
20
0.1611171
40
0.4477806
50
359.9477528
51
4.6829065
0
ARC
8
DEFAULT_255_1_234
10
9.9944107
20
0.1568628
40
0.4354656
50
346.1877825
51
0.5060252
0
ARC
8
DEFAULT_255_1_234
10
10.1302975
20
0.1215731
40
0.295089
50
310.8831995
51
346.5426355
0
ARC
8
DEFAULT_255_1_234
10
10.0994395
20
0.1632695
40
0.3468331
50
286.6925341
51
310.2288297
0
ARC
8
DEFAULT_255_1_234
10
10.0425226
20
0.3422882
40
0.5346654
50
274.6850312
51
287.0245141
0
ARC
8
DEFAULT_255_1_234
10
10.0199949
20
0.5631932
40
0.7566852
50
269.8969846
51
275.018904
0
ARC
8
DEFAULT_255_1_234
10
10.022754
20
0.3552707
40
0.4226708
50
269.6593078
51
279.4153575
0
ARC
8
DEFAULT_255_1_234
10
10.0484815
20
0.2062133
40
0.2714146
50
279.2049762
51
294.9900808
0
ARC
8
DEFAULT_255_1_234
10
10.0775141
20
0.1414508
40
0.2004525
50
295.2888114
51
311.2911209
0
ARC
8
DEFAULT_255_1_234
10
10.0846035
20
0.130922
40
0.1878703
50
311.7854996
51
347.2861051
0
ARC
8
DEFAULT_255_1_234
10
9.9862194
20
0.1562092
40
0.2894234
50
346.6893224
51
0.1059443
0
ARC
8
DEFAULT_255_1_234
10
9.9107089
20
0.1590685
40
0.3649409
50
359.6350983
51
0.0053152
0
ARC
8
DEFAULT_255_1_234
10
10.0077417
20
0.1615937
40
0.2679199
50
359.4672059
51
15.5933957
0
ARC
8
DEFAULT_255_1_234
10
10.0702306
20
0.1784779
40
0.2031932
50
15.7442113
51
46.6203375
0
ARC
8
DEFAULT_255_1_234
10
10.0554527
20
0.1614484
40
0.2257226
50
46.8628658
51
75.6676503
0
ARC
8
DEFAULT_255_1_234
10
10.0260347
20
0.0555718
40
0.3355939
50
75.276167
51
88.2915297
0
ARC
8
DEFAULT_255_1_234
10
10.0202054
20
-0.0322476
40
0.4235602
50
87.8575022
51
88.8000139
0
LINE
8
DEFAULT_255_1_234
10
10.626637
20
0.5181211
11
10.8258241
21
0.5181211
0
LINE
8
DEFAULT_255_1_234
10
10.8258241
20
0.5181211
11
11.2081348
21
-0.4360494
0
LINE
8
DEFAULT_255_1_234
10
11.2081348
20
-0.4360494
11
11.5904456
21
0.5181211
0
LINE
8
DEFAULT_255_1_234
10
11.5904456
20
0.5181211
11
11.7904358
21
0.5181211
0
LINE
8
DEFAULT_255_1_234
10
11.7904358
20
0.5181211
11
11.7904358
21
-0.6513
0
LINE
8
DEFAULT_255_1_234
10
11.7904358
20
-0.6513
11
11.6362265
21
-0.6513
0
LINE
8
DEFAULT_255_1_234
10
11.6362265
20
-0.6513
11
11.6362265
21
-0.1959004
0
LINE
8
DEFAULT_255_1_234
10
11.6362265
20
-0.1959004
11
11.6506836
21
0.2956419
0
LINE
8
DEFAULT_255_1_234
10
11.6506836
20
0.2956419
11
11.2667665
21
-0.6513
0
LINE
8
DEFAULT_255_1_234
10
11.2667665
20
-0.6513
11
11.1487
21
-0.6513
0
LINE
8
DEFAULT_255_1_234
10
11.1487
20
-0.6513
11
10.765586
21
0.2932324
0
LINE
8
DEFAULT_255_1_234
10
10.765586
20
0.2932324
11
10.7808463
21
-0.1959004
0
LINE
8
DEFAULT_255_1_234
10
10.7808463
20
-0.1959004
11
10.7808463
21
-0.6513
0
LINE
8
DEFAULT_255_1_234
10
10.7808463
20
-0.6513
11
10.626637
21
-0.6513
0
LINE
8
DEFAULT_255_1_234
10
10.626637
20
-0.6513
11
10.626637
21
0.5181211
0
LINE
8
DEFAULT_255_1_234
10
12.2112989
20
-0.0955037
11
12.0924292
21
-0.0649831
0
LINE
8
DEFAULT_255_1_234
10
12.0924292
20
-0.0649831
11
12.1518641
21
0.5181211
0
LINE
8
DEFAULT_255_1_234
10
12.1518641
20
0.5181211
11
12.7510317
21
0.5181211
0
LINE
8
DEFAULT_255_1_234
10
12.7510317
20
0.5181211
11
12.7510317
21
0.3807784
0
LINE
8
DEFAULT_255_1_234
10
12.7510317
20
0.3807784
11
12.2779624
21
0.3807784
0
LINE
8
DEFAULT_255_1_234
10
12.2779624
20
0.3807784
11
12.2426227
21
0.0619184
0
LINE
8
DEFAULT_255_1_234
10
12.0506642
20
-0.3436844
11
12.1912196
21
-0.3436844
0
LINE
8
DEFAULT_255_1_234
10
12.2506544
20
-0.0633768
11
12.2112989
21
-0.0955037
0
ARC
8
DEFAULT_255_1_234
10
12.4281011
20
-0.256077
40
0.3681349
50
93.7182161
51
120.2538958
0
ARC
8
DEFAULT_255_1_234
10
12.4375274
20
-0.3368606
40
0.449379
50
89.9660152
51
94.2496022
0
ARC
8
DEFAULT_255_1_234
10
12.4416008
20
-0.2779451
40
0.390482
50
73.8043271
51
90.5585896
0
ARC
8
DEFAULT_255_1_234
10
12.4650905
20
-0.1921398
40
0.3015334
50
41.3071453
51
73.5430202
0
ARC
8
DEFAULT_255_1_234
10
12.4234732
20
-0.2279676
40
0.3564457
50
13.5075983
51
41.2174222
0
ARC
8
DEFAULT_255_1_234
10
12.2592936
20
-0.2709514
40
0.5261351
50
1.1331335
51
13.8829381
0
ARC
8
DEFAULT_255_1_234
10
12.1181305
20
-0.2785335
40
0.6674378
50
359.9919444
51
1.544251
0
ARC
8
DEFAULT_255_1_234
10
12.2458131
20
-0.282672
40
0.5397702
50
347.8572367
51
0.4293338
0
ARC
8
DEFAULT_255_1_234
10
12.4208449
20
-0.3223264
40
0.3603188
50
323.673004
51
348.1672506
0
ARC
8
DEFAULT_255_1_234
10
12.4502957
20
-0.3402832
40
0.3259678
50
316.8171152
51
323.1492751
0
ARC
8
DEFAULT_255_1_234
10
12.4564146
20
-0.343954
40
0.3189975
50
281.8396411
51
316.5457803
0
ARC
8
DEFAULT_255_1_234
10
12.4188409
20
-0.1884238
40
0.4789527
50
269.5770101
51
282.4214771
0
ARC
8
DEFAULT_255_1_234
10
12.4117221
20
-0.2097875
40
0.45759
50
256.2427136
51
270.4486331
0
ARC
8
DEFAULT_255_1_234
10
12.3818123
20
-0.3297771
40
0.3339303
50
228.9023911
51
256.3314342
0
ARC
8
DEFAULT_255_1_234
10
12.3744356
20
-0.3414254
40
0.32031
50
193.753695
51
228.5271154
0
ARC
8
DEFAULT_255_1_234
10
12.498231
20
-0.30512
40
0.4492253
50
184.924711
51
194.497588
0
ARC
8
DEFAULT_255_1_234
10
12.5174877
20
-0.3015409
40
0.3289787
50
187.3600538
51
198.6732863
0
ARC
8
DEFAULT_255_1_234
10
12.4125171
20
-0.3379326
40
0.217884
50
198.4451669
51
217.794479
0
ARC
8
DEFAULT_255_1_234
10
12.3829346
20
-0.3588915
40
0.1816698
50
218.2887171
51
228.5612368
0
ARC
8
DEFAULT_255_1_234
10
12.3927133
20
-0.3457037
40
0.1980329
50
228.9654866
51
258.1234728
0
ARC
8
DEFAULT_255_1_234
10
12.4132843
20
-0.2576167
40
0.2884748
50
257.7258293
51
270.401361
0
ARC
8
DEFAULT_255_1_234
10
12.4177729
20
-0.3021179
40
0.2439788
50
269.4204404
51
286.4209037
0
ARC
8
DEFAULT_255_1_234
10
12.4326217
20
-0.3560343
40
0.1880666
50
286.7251356
51
320.600362
0
ARC
8
DEFAULT_255_1_234
10
12.3943042
20
-0.3249405
40
0.2374121
50
320.6712579
51
344.5441685
0
ARC
8
DEFAULT_255_1_234
10
12.2786368
20
-0.2909955
40
0.3579479
50
344.2412205
51
356.7357071
0
ARC
8
DEFAULT_255_1_234
10
12.1537517
20
-0.2806556
40
0.4832297
50
356.3548756
51
0.0500261
0
ARC
8
DEFAULT_255_1_234
10
12.2874026
20
-0.277535
40
0.3495889
50
359.5576869
51
12.953486
0
ARC
8
DEFAULT_255_1_234
10
12.3928923
20
-0.2519566
40
0.2410532
50
12.6490276
51
41.6081334
0
ARC
8
DEFAULT_255_1_234
10
12.4159294
20
-0.2323679
40
0.2108218
50
41.7850273
51
85.9892764
0
ARC
8
DEFAULT_255_1_234
10
12.4036031
20
-0.3136538
40
0.2928454
50
84.6957577
51
90.0676183
0
ARC
8
DEFAULT_255_1_234
10
12.4012515
20
-0.3805284
40
0.3597255
50
89.6804936
51
99.1614436
0
ARC
8
DEFAULT_255_1_234
10
12.3807146
20
-0.2577869
40
0.235281
50
98.9830931
51
113.8908934
0
ARC
8
DEFAULT_255_1_234
10
12.3577556
20
-0.2036413
40
0.176479
50
114.1950727
51
127.3641004
0
ARC
8
DEFAULT_255_1_234
10
13.3747877
20
0.2103703
40
0.2822356
50
338.8763615
51
0.5166041
0
ARC
8
DEFAULT_255_1_234
10
13.3916531
20
0.2058208
40
0.2648703
50
325.8412414
51
338.4795939
0
ARC
8
DEFAULT_255_1_234
10
13.3525899
20
0.2329042
40
0.3124019
50
296.7586019
51
325.753654
0
ARC
8
DEFAULT_255_1_234
10
13.3238007
20
0.2813789
40
0.368668
50
296.0902311
51
297.3618122
0
ARC
8
DEFAULT_255_1_234
10
13.3495465
20
-0.3740959
40
0.3518806
50
47.9009248
51
67.1946869
0
ARC
8
DEFAULT_255_1_234
10
13.3691707
20
-0.3494605
40
0.320451
50
35.236241
51
47.551371
0
ARC
8
DEFAULT_255_1_234
10
13.3953325
20
-0.3320007
40
0.2890103
50
359.2759738
51
35.4014081
0
ARC
8
DEFAULT_255_1_234
10
13.3208356
20
-0.3393174
40
0.3635026
50
343.1294516
51
0.5776525
0
ARC
8
DEFAULT_255_1_234
10
13.3932901
20
-0.359267
40
0.2883832
50
310.8497458
51
342.744803
0
ARC
8
DEFAULT_255_1_234
10
13.3515014
20
-0.3115706
40
0.3517954
50
281.5473923
51
310.9169905
0
ARC
8
DEFAULT_255_1_234
10
13.3158463
20
-0.1562916
40
0.5110832
50
269.6192722
51
281.9789957
0
ARC
8
DEFAULT_255_1_234
10
13.3086253
20
-0.1562172
40
0.5111606
50
257.4584469
51
270.4287458
0
ARC
8
DEFAULT_255_1_234
10
13.2705395
20
-0.3165656
40
0.3463762
50
228.7553743
51
257.8484423
0
ARC
8
DEFAULT_255_1_234
10
13.2395594
20
-0.3538558
40
0.297916
50
184.0104442
51
228.5071787
0
ARC
8
DEFAULT_255_1_234
10
13.3558538
20
-0.3361488
40
0.4152734
50
179.9315461
51
185.3254504
0
ARC
8
DEFAULT_255_1_234
10
13.2382183
20
-0.3324008
40
0.2976554
50
145.6795913
51
180.6259649
0
ARC
8
DEFAULT_255_1_234
10
13.2545533
20
-0.3438071
40
0.3175776
50
115.5537925
51
145.6416199
0
ARC
8
DEFAULT_255_1_234
10
13.2886463
20
-0.4048972
40
0.3874232
50
113.2437915
51
116.2054627
0
ARC
8
DEFAULT_255_1_234
10
13.2733676
20
0.234958
40
0.3154751
50
222.9548379
51
244.1372485
0
ARC
8
DEFAULT_255_1_234
10
13.2611751
20
0.2212834
40
0.2972382
50
213.3439227
51
222.6271327
0
ARC
8
DEFAULT_255_1_234
10
13.2419685
20
0.2082308
40
0.274019
50
180.4316517
51
213.2713999
0
ARC
8
DEFAULT_255_1_234
10
13.2994687
20
0.212911
40
0.33158
50
179.9992944
51
181.1655061
0
ARC
8
DEFAULT_255_1_234
10
13.3404104
20
0.2163561
40
0.3725376
50
164.6186108
51
180.5292368
0
ARC
8
DEFAULT_255_1_234
10
13.2505967
20
0.2405101
40
0.2795349
50
132.2454369
51
164.5092287
0
ARC
8
DEFAULT_255_1_234
10
13.2793071
20
0.2080028
40
0.3229019
50
100.7052766
51
132.1387266
0
ARC
8
DEFAULT_255_1_234
10
13.3098043
20
0.0702086
40
0.4639835
50
89.6732617
51
101.2449487
0
ARC
8
DEFAULT_255_1_234
10
13.3160241
20
0.087699
40
0.4464999
50
76.2876631
51
90.4586123
0
ARC
8
DEFAULT_255_1_234
10
13.3466473
20
0.209922
40
0.3205023
50
47.8240157
51
76.4266918
0
ARC
8
DEFAULT_255_1_234
10
13.3689023
20
0.235959
40
0.2862661
50
6.9168658
51
47.6261438
0
ARC
8
DEFAULT_255_1_234
10
13.2502426
20
0.214037
40
0.4067708
50
359.8419705
51
7.9694496
0
ARC
8
DEFAULT_255_1_234
10
13.2844323
20
-0.3300075
40
0.2513121
50
359.4454068
51
16.9256425
0
ARC
8
DEFAULT_255_1_234
10
13.3313134
20
-0.3170967
40
0.2027071
50
17.292259
51
45.462717
0
ARC
8
DEFAULT_255_1_234
10
13.325907
20
-0.3217566
40
0.2098212
50
45.3028762
51
83.1921472
0
ARC
8
DEFAULT_255_1_234
10
13.3115754
20
-0.4019105
40
0.2911472
50
82.2614531
51
90.143954
0
ARC
8
DEFAULT_255_1_234
10
13.3084874
20
-0.378605
40
0.2678513
50
89.4959189
51
104.8579811
0
ARC
8
DEFAULT_255_1_234
10
13.2908133
20
-0.311611
40
0.1985654
50
104.8855873
51
135.2448349
0
ARC
8
DEFAULT_255_1_234
10
13.2957906
20
-0.3160664
40
0.2052373
50
135.3398955
51
172.104394
0
ARC
8
DEFAULT_255_1_234
10
13.3764964
20
-0.3315075
40
0.2873299
50
171.2651929
51
180.1859362
0
ARC
8
DEFAULT_255_1_234
10
13.3595665
20
-0.3347267
40
0.2704083
50
179.515471
51
193.6466734
0
ARC
8
DEFAULT_255_1_234
10
13.2779434
20
-0.3555223
40
0.1861855
50
193.3540587
51
225.8256931
0
ARC
8
DEFAULT_255_1_234
10
13.2820191
20
-0.3484476
40
0.1941102
50
226.418029
51
255.8553723
0
ARC
8
DEFAULT_255_1_234
10
13.3076624
20
-0.2548002
40
0.2911917
50
255.4655572
51
268.7985967
0
ARC
8
DEFAULT_255_1_234
10
13.3123816
20
-0.1709509
40
0.3751331
50
268.3464808
51
270.0104874
0
ARC
8
DEFAULT_255_1_234
10
13.3147204
20
-0.2393862
40
0.3067064
50
269.575914
51
282.0823146
0
ARC
8
DEFAULT_255_1_234
10
13.3372113
20
-0.3388197
40
0.2047712
50
281.7522535
51
306.6056425
0
ARC
8
DEFAULT_255_1_234
10
13.3470539
20
-0.3549513
40
0.1859604
50
307.1350025
51
314.0277951
0
ARC
8
DEFAULT_255_1_234
10
13.3434623
20
-0.3523234
40
0.1903475
50
314.2553419
51
350.169324
0
ARC
8
DEFAULT_255_1_234
10
13.2583092
20
-0.3338591
40
0.2774269
50
349.4145679
51
0.2930737
0
ARC
8
DEFAULT_255_1_234
10
13.3103525
20
0.1820353
40
0.2300764
50
89.477591
51
105.729794
0
ARC
8
DEFAULT_255_1_234
10
13.2967438
20
0.2325637
40
0.1777519
50
105.922966
51
135.1662921
0
ARC
8
DEFAULT_255_1_234
10
13.2987941
20
0.2311419
40
0.1802087
50
135.3053131
51
168.9882338
0
ARC
8
DEFAULT_255_1_234
10
13.3815513
20
0.2121721
40
0.2650806
50
168.3802067
51
180.3602358
0
ARC
8
DEFAULT_255_1_234
10
13.3587092
20
0.2084041
40
0.2422425
50
179.5029707
51
194.9126783
0
ARC
8
DEFAULT_255_1_234
10
13.3001754
20
0.193011
40
0.1817188
50
194.9722181
51
224.1943972
0
ARC
8
DEFAULT_255_1_234
10
13.2973621
20
0.1907169
40
0.1781027
50
224.2961434
51
262.0157375
0
ARC
8
DEFAULT_255_1_234
10
13.3115864
20
0.2638661
40
0.2525492
50
261.1250369
51
270.1959853
0
ARC
8
DEFAULT_255_1_234
10
13.3145619
20
0.2451339
40
0.233825
50
269.4825617
51
285.0988277
0
ARC
8
DEFAULT_255_1_234
10
13.3299778
20
0.187299
40
0.1739712
50
285.1585659
51
315.9484648
0
ARC
8
DEFAULT_255_1_234
10
13.321079
20
0.1954886
40
0.1860616
50
316.0412958
51
351.9162715
0
ARC
8
DEFAULT_255_1_234
10
13.2477745
20
0.2096245
40
0.2606517
50
351.1056823
51
0.1936567
0
ARC
8
DEFAULT_255_1_234
10
13.2740574
20
0.2126369
40
0.234377
50
359.4789506
51
16.0679113
0
ARC
8
DEFAULT_255_1_234
10
13.3216533
20
0.225481
40
0.1850875
50
16.3251951
51
44.791304
0
ARC
8
DEFAULT_255_1_234
10
13.3198814
20
0.2255339
40
0.186312
50
44.3958661
51
88.2498933
0
ARC
8
DEFAULT_255_1_234
10
13.3125368
20
0.1644154
40
0.2476868
50
86.9833827
51
90.0200148
0
LINE
8
DEFAULT_255_1_234
10
14.3597889
20
0.5237433
11
14.3597889
21
-0.6513
0
LINE
8
DEFAULT_255_1_234
10
14.3597889
20
-0.6513
11
14.2103986
21
-0.6513
0
LINE
8
DEFAULT_255_1_234
10
14.2103986
20
-0.6513
11
14.2103986
21
0.3390133
0
LINE
8
DEFAULT_255_1_234
10
14.2103986
20
0.3390133
11
13.9108147
21
0.2289785
0
LINE
8
DEFAULT_255_1_234
10
13.9108147
20
0.2289785
11
13.9108147
21
0.3639117
0
LINE
8
DEFAULT_255_1_234
10
13.9108147
20
0.3639117
11
14.3364969
21
0.5237433
0
LINE
8
DEFAULT_255_1_234
10
14.3364969
20
0.5237433
11
14.3597889
21
0.5237433
0
LINE
8
DEFAULT_255_1_234
10
15.1195914
20
-0.0938974
11
15.1195914
21
-0.2151766
0
LINE
8
DEFAULT_255_1_234
10
15.1195914
20
-0.2151766
11
14.7276425
21
-0.2151766
0
LINE
8
DEFAULT_255_1_234
10
14.7276425
20
-0.2151766
11
14.7276425
21
-0.0938974
0
LINE
8
DEFAULT_255_1_234
10
14.7276425
20
-0.0938974
11
15.1195914
21
-0.0938974
0
LINE
8
DEFAULT_255_1_234
10
15.3420705
20
0.5181211
11
15.6745845
21
-0.4464907
0
LINE
8
DEFAULT_255_1_234
10
15.6745845
20
-0.4464907
11
16.0087048
21
0.5181211
0
LINE
8
DEFAULT_255_1_234
10
16.0087048
20
0.5181211
11
16.1773713
21
0.5181211
0
LINE
8
DEFAULT_255_1_234
10
16.1773713
20
0.5181211
11
15.7436574
21
-0.6513
0
LINE
8
DEFAULT_255_1_234
10
15.7436574
20
-0.6513
11
15.6071179
21
-0.6513
0
LINE
8
DEFAULT_255_1_234
10
15.6071179
20
-0.6513
11
15.1742072
21
0.5181211
0
LINE
8
DEFAULT_255_1_234
10
15.1742072
20
0.5181211
11
15.3420705
21
0.5181211
0
LINE
8
DEFAULT_255_1_234
10
16.7837675
20
0.5237433
11
16.7837675
21
-0.6513
0
LINE
8
DEFAULT_255_1_234
10
16.7837675
20
-0.6513
11
16.6343772
21
-0.6513
0
LINE
8
DEFAULT_255_1_234
10
16.6343772
20
-0.6513
11
16.6343772
21
0.3390133
0
LINE
8
DEFAULT_255_1_234
10
16.6343772
20
0.3390133
11
16.3347934
21
0.2289785
0
LINE
8
DEFAULT_255_1_234
10
16.3347934
20
0.2289785
11
16.3347934
21
0.3639117
0
LINE
8
DEFAULT_255_1_234
10
16.3347934
20
0.3639117
11
16.7604755
21
0.5237433
0
LINE
8
DEFAULT_255_1_234
10
16.7604755
20
0.5237433
11
16.7837675
21
0.5237433
0
LINE
8
DEFAULT_255_1_234
10
17.8463665
20
0.5181211
11
17.8463665
21
-0.258548
0
LINE
8
DEFAULT_255_1_234
10
17.8463665
20
-0.258548
11
18.0086076
21
-0.258548
0
LINE
8
DEFAULT_255_1_234
10
18.0086076
20
-0.258548
11
18.0086076
21
-0.3798272
0
LINE
8
DEFAULT_255_1_234
10
18.0086076
20
-0.3798272
11
17.8463665
21
-0.3798272
0
LINE
8
DEFAULT_255_1_234
10
17.8463665
20
-0.3798272
11
17.8463665
21
-0.6513
0
LINE
8
DEFAULT_255_1_234
10
17.8463665
20
-0.6513
11
17.6969762
21
-0.6513
0
LINE
8
DEFAULT_255_1_234
10
17.6969762
20
-0.6513
11
17.6969762
21
-0.3798272
0
LINE
8
DEFAULT_255_1_234
10
17.6969762
20
-0.3798272
11
17.1644719
21
-0.3798272
0
LINE
8
DEFAULT_255_1_234
10
17.1644719
20
-0.3798272
11
17.1644719
21
-0.2922813
0
LINE
8
DEFAULT_255_1_234
10
17.1644719
20
-0.2922813
11
17.6881413
21
0.5181211
0
LINE
8
DEFAULT_255_1_234
10
17.6881413
20
0.5181211
11
17.8463665
21
0.5181211
0
LINE
8
DEFAULT_255_1_234
10
17.6793063
20
0.2827912
11
17.3331384
21
-0.258548
0
LINE
8
DEFAULT_255_1_234
10
17.3331384
20
-0.258548
11
17.6969762
21
-0.258548
0
LINE
8
DEFAULT_255_1_234
10
17.6969762
20
-0.258548
11
17.6969762
21
0.3149181
0
LINE
8
DEFAULT_255_1_234
10
17.6969762
20
0.3149181
11
17.6793063
21
0.2827912
0
LINE
8
DEFAULT_255_1_234
10
18.2591979
20
0.2177341
11
18.44955
21
-0.0995196
0
LINE
8
DEFAULT_255_1_234
10
18.44955
20
-0.0995196
11
18.6423118
21
0.2177341
0
LINE
8
DEFAULT_255_1_234
10
18.6423118
20
0.2177341
11
18.8157973
21
0.2177341
0
LINE
8
DEFAULT_255_1_234
10
18.8157973
20
0.2177341
11
18.5314738
21
-0.2119639
0
LINE
8
DEFAULT_255_1_234
10
18.5314738
20
-0.2119639
11
18.8246322
21
-0.6513
0
LINE
8
DEFAULT_255_1_234
10
18.8246322
20
-0.6513
11
18.652753
21
-0.6513
0
LINE
8
DEFAULT_255_1_234
10
18.652753
20
-0.6513
11
18.4519596
21
-0.3260146
0
LINE
8
DEFAULT_255_1_234
10
18.4519596
20
-0.3260146
11
18.2511661
21
-0.6513
0
LINE
8
DEFAULT_255_1_234
10
18.2511661
20
-0.6513
11
18.0784837
21
-0.6513
0
LINE
8
DEFAULT_255_1_234
10
18.0784837
20
-0.6513
11
18.3716422
21
-0.2119639
0
LINE
8
DEFAULT_255_1_234
10
18.3716422
20
-0.2119639
11
18.0873187
21
0.2177341
0
LINE
8
DEFAULT_255_1_234
10
18.0873187
20
0.2177341
11
18.2591979
21
0.2177341
0
LINE
8
DEFAULT_255_1_234
10
12.5963293
20
46.3122
11
12.4846881
21
46.6174061
0
LINE
8
DEFAULT_255_1_234
10
12.4846881
20
46.6174061
11
11.9947521
21
46.6174061
0
LINE
8
DEFAULT_255_1_234
10
11.9947521
20
46.6174061
11
11.8847173
21
46.3122
0
LINE
8
DEFAULT_255_1_234
10
11.8847173
20
46.3122
11
11.7256889
21
46.3122
0
LINE
8
DEFAULT_255_1_234
10
11.7256889
20
46.3122
11
12.1722535
21
47.4816211
0
LINE
8
DEFAULT_255_1_234
10
12.1722535
20
47.4816211
11
12.3071867
21
47.4816211
0
LINE
8
DEFAULT_255_1_234
10
12.3071867
20
47.4816211
11
12.7545545
21
46.3122
0
LINE
8
DEFAULT_255_1_234
10
12.7545545
20
46.3122
11
12.5963293
21
46.3122
0
LINE
8
DEFAULT_255_1_234
10
12.2397201
20
47.2912689
11
12.0413362
21
46.7443075
0
LINE
8
DEFAULT_255_1_234
10
12.0413362
20
46.7443075
11
12.4389072
21
46.7443075
0
LINE
8
DEFAULT_255_1_234
10
12.4389072
20
46.7443075
11
12.2397201
21
47.2912689
0
LINE
8
DEFAULT_255_1_234
10
13.6083283
20
46.6832663
11
13.7633409
21
46.6832663
0
LINE
8
DEFAULT_255_1_234
10
12.862983
20
46.8422947
11
12.862983
21
46.9547391
0
LINE
8
DEFAULT_255_1_234
10
13.7633409
20
47.1057357
11
13.6083283
21
47.1057357
0
LINE
8
DEFAULT_255_1_234
10
13.0179956
20
46.9507232
11
13.0179956
21
46.8374757
0
ARC
8
DEFAULT_255_1_234
10
13.2152796
20
46.7429846
40
0.5513052
50
340.1774281
51
353.7814284
0
ARC
8
DEFAULT_255_1_234
10
13.3724148
20
46.6844582
40
0.3836379
50
311.4558989
51
340.4421614
0
ARC
8
DEFAULT_255_1_234
10
13.3690816
20
46.6955528
40
0.3941894
50
282.4333181
51
310.7513653
0
ARC
8
DEFAULT_255_1_234
10
13.3251555
20
46.8770679
40
0.5809175
50
269.9358511
51
282.809604
0
ARC
8
DEFAULT_255_1_234
10
13.3199622
20
47.0228212
40
0.7266847
50
270.0021091
51
270.3581957
0
ARC
8
DEFAULT_255_1_234
10
13.3147039
20
46.7627585
40
0.4666519
50
250.7884749
51
270.6489167
0
ARC
8
DEFAULT_255_1_234
10
13.2978873
20
46.6990319
40
0.4009729
50
219.3627325
51
250.0611886
0
ARC
8
DEFAULT_255_1_234
10
13.3808084
20
46.7695042
40
0.5097822
50
193.5479632
51
219.5756669
0
ARC
8
DEFAULT_255_1_234
10
13.6179705
20
46.8310919
40
0.7547848
50
181.1218675
51
193.87563
0
ARC
8
DEFAULT_255_1_234
10
13.8249886
20
46.842158
40
0.9620055
50
179.9918545
51
181.5394234
0
ARC
8
DEFAULT_255_1_234
10
13.6398988
20
46.9584788
40
0.7769248
50
169.5837241
51
180.2757934
0
ARC
8
DEFAULT_255_1_234
10
13.4561926
20
46.9924229
40
0.590109
50
155.0365899
51
169.6003176
0
ARC
8
DEFAULT_255_1_234
10
13.342639
20
47.0471677
40
0.4640625
50
136.783148
51
155.2472683
0
ARC
8
DEFAULT_255_1_234
10
13.3036867
20
47.0802562
40
0.4130255
50
121.7633186
51
136.428115
0
ARC
8
DEFAULT_255_1_234
10
13.3171829
20
47.0553227
40
0.4413323
50
95.6459699
51
121.5490577
0
ARC
8
DEFAULT_255_1_234
10
13.3329111
20
46.9444949
40
0.55319
50
89.924208
51
96.1377933
0
ARC
8
DEFAULT_255_1_234
10
13.3379544
20
46.9563542
40
0.5413475
50
76.6779277
51
90.4563316
0
ARC
8
DEFAULT_255_1_234
10
13.3773167
20
47.1154114
40
0.3775041
50
47.485847
51
76.9287264
0
ARC
8
DEFAULT_255_1_234
10
13.362614
20
47.1054159
40
0.3948286
50
16.5424086
51
46.8933463
0
ARC
8
DEFAULT_255_1_234
10
13.2018297
20
47.0525861
40
0.564021
50
5.4072051
51
17.0365086
0
ARC
8
DEFAULT_255_1_234
10
13.0579314
20
47.0294679
40
0.5556559
50
7.8891745
51
15.9239216
0
ARC
8
DEFAULT_255_1_234
10
13.2566328
20
47.0871631
40
0.3487515
50
15.7653144
51
27.9410532
0
ARC
8
DEFAULT_255_1_234
10
13.3670546
20
47.146279
40
0.2235026
50
27.8166557
51
46.4008329
0
ARC
8
DEFAULT_255_1_234
10
13.3720188
20
47.1457082
40
0.2205286
50
47.4371857
51
75.0698205
0
ARC
8
DEFAULT_255_1_234
10
13.3411583
20
47.0382765
40
0.3322915
50
74.7008593
51
87.8124495
0
ARC
8
DEFAULT_255_1_234
10
13.333827
20
46.9326844
40
0.4380987
50
87.3814673
51
90.0240855
0
ARC
8
DEFAULT_255_1_234
10
13.3299814
20
47.0504291
40
0.3203749
50
89.3451631
51
108.5745436
0
ARC
8
DEFAULT_255_1_234
10
13.3162919
20
47.1017908
40
0.2673494
50
109.2998449
51
143.3037509
0
ARC
8
DEFAULT_255_1_234
10
13.3924992
20
47.0431881
40
0.3634757
50
143.0753173
51
163.1916937
0
ARC
8
DEFAULT_255_1_234
10
13.5876719
20
46.9815967
40
0.5681262
50
162.9373603
51
174.6208611
0
ARC
8
DEFAULT_255_1_234
10
13.8502761
20
46.952801
40
0.8322832
50
174.3419979
51
180.1430411
0
ARC
8
DEFAULT_255_1_234
10
13.7571918
20
46.8333698
40
0.7392076
50
179.6817502
51
189.150529
0
ARC
8
DEFAULT_255_1_234
10
13.5071166
20
46.791719
40
0.4856932
50
188.9910863
51
203.5773039
0
ARC
8
DEFAULT_255_1_234
10
13.3991498
20
46.7469211
40
0.3688271
50
203.9077269
51
215.1312379
0
ARC
8
DEFAULT_255_1_234
10
13.3068592
20
46.6753941
40
0.2522457
50
213.9071664
51
263.8849284
0
ARC
8
DEFAULT_255_1_234
10
13.3193921
20
46.7538518
40
0.3316174
50
263.1758525
51
270.1031083
0
ARC
8
DEFAULT_255_1_234
10
13.3226013
20
46.8785365
40
0.4563091
50
269.6719807
51
279.0609165
0
ARC
8
DEFAULT_255_1_234
10
13.3492781
20
46.7172907
40
0.2928759
50
278.8750225
51
293.6346586
0
ARC
8
DEFAULT_255_1_234
10
13.3812989
20
46.64209
40
0.2111472
50
293.8553404
51
310.0518804
0
ARC
8
DEFAULT_255_1_234
10
13.3817843
20
46.6358516
40
0.2060917
50
311.0646779
51
332.0108348
0
ARC
8
DEFAULT_255_1_234
10
13.262557
20
46.7015978
40
0.3422352
50
331.6588543
51
343.2878891
0
ARC
8
DEFAULT_255_1_234
10
13.0563085
20
46.7649798
40
0.5580003
50
343.1446044
51
351.010618
0
ARC
8
DEFAULT_255_1_234
10
12.9021731
20
46.7930871
40
0.7146438
50
350.7157277
51
351.1602153
0
LINE
8
DEFAULT_255_1_234
10
14.1223596
20
46.8679963
11
14.0034898
21
46.8985169
0
LINE
8
DEFAULT_255_1_234
10
14.0034898
20
46.8985169
11
14.0629247
21
47.4816211
0
LINE
8
DEFAULT_255_1_234
10
14.0629247
20
47.4816211
11
14.6620924
21
47.4816211
0
LINE
8
DEFAULT_255_1_234
10
14.6620924
20
47.4816211
11
14.6620924
21
47.3442784
0
LINE
8
DEFAULT_255_1_234
10
14.6620924
20
47.3442784
11
14.189023
21
47.3442784
0
LINE
8
DEFAULT_255_1_234
10
14.189023
20
47.3442784
11
14.1536833
21
47.0254184
0
LINE
8
DEFAULT_255_1_234
10
13.9617248
20
46.6198156
11
14.1022802
21
46.6198156
0
LINE
8
DEFAULT_255_1_234
10
14.1617151
20
46.9001232
11
14.1223596
21
46.8679963
0
ARC
8
DEFAULT_255_1_234
10
14.3391617
20
46.707423
40
0.3681349
50
93.7182161
51
120.2538958
0
ARC
8
DEFAULT_255_1_234
10
14.348588
20
46.6266394
40
0.449379
50
89.9660152
51
94.2496022
0
ARC
8
DEFAULT_255_1_234
10
14.3526614
20
46.6855549
40
0.390482
50
73.8043271
51
90.5585896
0
ARC
8
DEFAULT_255_1_234
10
14.3761511
20
46.7713602
40
0.3015334
50
41.3071453
51
73.5430202
0
ARC
8
DEFAULT_255_1_234
10
14.3345339
20
46.7355324
40
0.3564457
50
13.5075983
51
41.2174222
0
ARC
8
DEFAULT_255_1_234
10
14.1703542
20
46.6925486
40
0.5261351
50
1.1331335
51
13.8829381
0
ARC
8
DEFAULT_255_1_234
10
14.0291911
20
46.6849665
40
0.6674378
50
359.9919444
51
1.544251
0
ARC
8
DEFAULT_255_1_234
10
14.1568738
20
46.680828
40
0.5397702
50
347.8572367
51
0.4293338
0
ARC
8
DEFAULT_255_1_234
10
14.3319055
20
46.6411736
40
0.3603188
50
323.673004
51
348.1672506
0
ARC
8
DEFAULT_255_1_234
10
14.3613563
20
46.6232168
40
0.3259678
50
316.8171152
51
323.1492751
0
ARC
8
DEFAULT_255_1_234
10
14.3674752
20
46.619546
40
0.3189975
50
281.8396411
51
316.5457803
0
ARC
8
DEFAULT_255_1_234
10
14.3299016
20
46.7750762
40
0.4789527
50
269.5770101
51
282.4214771
0
ARC
8
DEFAULT_255_1_234
10
14.3227828
20
46.7537125
40
0.45759
50
256.2427136
51
270.4486331
0
ARC
8
DEFAULT_255_1_234
10
14.292873
20
46.6337229
40
0.3339303
50
228.9023911
51
256.3314342
0
ARC
8
DEFAULT_255_1_234
10
14.2854963
20
46.6220746
40
0.32031
50
193.753695
51
228.5271154
0
ARC
8
DEFAULT_255_1_234
10
14.4092917
20
46.65838
40
0.4492253
50
184.924711
51
194.497588
0
ARC
8
DEFAULT_255_1_234
10
14.4285483
20
46.6619591
40
0.3289787
50
187.3600538
51
198.6732863
0
ARC
8
DEFAULT_255_1_234
10
14.3235777
20
46.6255674
40
0.217884
50
198.4451669
51
217.794479
0
ARC
8
DEFAULT_255_1_234
10
14.2939953
20
46.6046085
40
0.1816698
50
218.2887171
51
228.5612368
0
ARC
8
DEFAULT_255_1_234
10
14.303774
20
46.6177963
40
0.1980329
50
228.9654866
51
258.1234728
0
ARC
8
DEFAULT_255_1_234
10
14.324345
20
46.7058833
40
0.2884748
50
257.7258293
51
270.401361
0
ARC
8
DEFAULT_255_1_234
10
14.3288336
20
46.6613821
40
0.2439788
50
269.4204404
51
286.4209037
0
ARC
8
DEFAULT_255_1_234
10
14.3436823
20
46.6074657
40
0.1880666
50
286.7251356
51
320.600362
0
ARC
8
DEFAULT_255_1_234
10
14.3053648
20
46.6385595
40
0.2374121
50
320.6712579
51
344.5441685
0
ARC
8
DEFAULT_255_1_234
10
14.1896975
20
46.6725045
40
0.3579479
50
344.2412205
51
356.7357071
0
ARC
8
DEFAULT_255_1_234
10
14.0648123
20
46.6828444
40
0.4832297
50
356.3548756
51
0.0500261
0
ARC
8
DEFAULT_255_1_234
10
14.1984632
20
46.685965
40
0.3495889
50
359.5576869
51
12.953486
0
ARC
8
DEFAULT_255_1_234
10
14.303953
20
46.7115434
40
0.2410532
50
12.6490276
51
41.6081334
0
ARC
8
DEFAULT_255_1_234
10
14.3269901
20
46.7311321
40
0.2108218
50
41.7850273
51
85.9892764
0
ARC
8
DEFAULT_255_1_234
10
14.3146637
20
46.6498462
40
0.2928454
50
84.6957577
51
90.0676183
0
ARC
8
DEFAULT_255_1_234
10
14.3123121
20
46.5829716
40
0.3597255
50
89.6804936
51
99.1614436
0
ARC
8
DEFAULT_255_1_234
10
14.2917753
20
46.7057131
40
0.235281
50
98.9830931
51
113.8908934
0
ARC
8
DEFAULT_255_1_234
10
14.2688163
20
46.7598587
40
0.176479
50
114.1950727
51
127.3641004
0
LINE
8
DEFAULT_255_1_234
10
15.5921677
20
47.0037327
11
15.5921677
21
46.8109709
0
LINE
8
DEFAULT_255_1_234
10
14.8540509
20
46.7908916
11
14.8540509
21
46.9892755
0
LINE
8
DEFAULT_255_1_234
10
15.4435805
20
46.7708123
11
15.4435805
21
47.0141739
0
LINE
8
DEFAULT_255_1_234
10
15.0026381
20
47.0254184
11
15.0026381
21
46.7876789
0
ARC
8
DEFAULT_255_1_234
10
14.3674566
20
46.8060805
40
1.2247208
50
353.8441951
51
0.2287902
0
ARC
8
DEFAULT_255_1_234
10
14.831407
20
46.7542806
40
0.7578929
50
344.4934747
51
353.9765454
0
ARC
8
DEFAULT_255_1_234
10
15.130666
20
46.6691981
40
0.4467846
50
329.2803592
51
344.7472793
0
ARC
8
DEFAULT_255_1_234
10
15.2299485
20
46.6147018
40
0.3336173
50
324.9352394
51
328.6160465
0
ARC
8
DEFAULT_255_1_234
10
15.2676594
20
46.5883427
40
0.2876076
50
280.580143
51
324.9173126
0
ARC
8
DEFAULT_255_1_234
10
15.2275386
20
46.7554099
40
0.4592847
50
269.5977311
51
281.6734359
0
ARC
8
DEFAULT_255_1_234
10
15.2203292
20
46.7434173
40
0.4472986
50
256.6228859
51
270.51044
0
ARC
8
DEFAULT_255_1_234
10
15.180127
20
46.5885877
40
0.2873874
50
215.8618325
51
257.2788573
0
ARC
8
DEFAULT_255_1_234
10
15.2822301
20
46.6570977
40
0.4102928
50
197.9693508
51
215.2623606
0
ARC
8
DEFAULT_255_1_234
10
15.5307417
20
46.7409709
40
0.6725652
50
187.8816417
51
198.2346507
0
ARC
8
DEFAULT_255_1_234
10
15.9265625
20
46.7981079
40
1.0724845
50
180.8976217
51
188.0055519
0
ARC
8
DEFAULT_255_1_234
10
16.2065813
20
46.8084777
40
1.3526448
50
180.7449369
51
181.1510016
0
ARC
8
DEFAULT_255_1_234
10
16.0488542
20
46.9941042
40
1.1948131
50
173.7675579
51
180.231553
0
ARC
8
DEFAULT_255_1_234
10
15.5970689
20
47.0451666
40
0.7401564
50
164.3058563
51
173.9002247
0
ARC
8
DEFAULT_255_1_234
10
15.3058758
20
47.1290656
40
0.4371288
50
148.7922025
51
164.568378
0
ARC
8
DEFAULT_255_1_234
10
15.210721
20
47.1821929
40
0.3282386
50
144.5883898
51
148.1176286
0
ARC
8
DEFAULT_255_1_234
10
15.1764108
20
47.2061315
40
0.2864044
50
101.6440918
51
144.514236
0
ARC
8
DEFAULT_255_1_234
10
15.2189175
20
47.0372069
40
0.4604934
50
89.5284041
51
102.5819763
0
ARC
8
DEFAULT_255_1_234
10
15.2268263
20
47.0333018
40
0.464401
50
77.0437873
51
90.5081339
0
ARC
8
DEFAULT_255_1_234
10
15.2670264
20
47.1975615
40
0.2953195
50
48.2778575
51
77.4994676
0
ARC
8
DEFAULT_255_1_234
10
15.2742896
20
47.2104746
40
0.2808655
50
36.3142134
51
47.6305865
0
ARC
8
DEFAULT_255_1_234
10
15.1874203
20
47.1519515
40
0.3855453
50
18.2931786
51
35.6769206
0
ARC
8
DEFAULT_255_1_234
10
14.9330961
20
47.0646593
40
0.654423
50
8.024666
51
18.5605216
0
ARC
8
DEFAULT_255_1_234
10
14.5167881
20
47.0031792
40
1.0752407
50
1.1274072
51
8.1718305
0
ARC
8
DEFAULT_255_1_234
10
14.1932072
20
46.9904885
40
1.3990231
50
0.5424119
51
1.3863029
0
ARC
8
DEFAULT_255_1_234
10
14.375345
20
47.0177342
40
1.0682415
50
359.8090433
51
4.9407866
0
ARC
8
DEFAULT_255_1_234
10
14.7963464
20
47.0553113
40
0.6455691
50
4.8362157
51
12.2904523
0
ARC
8
DEFAULT_255_1_234
10
15.0718579
20
47.1166965
40
0.3633074
50
12.0805627
51
23.8173984
0
ARC
8
DEFAULT_255_1_234
10
15.1892284
20
47.1663919
40
0.2358723
50
24.2871213
51
31.3935614
0
ARC
8
DEFAULT_255_1_234
10
15.2416981
20
47.2007233
40
0.1732111
50
30.7407893
51
82.4657128
0
ARC
8
DEFAULT_255_1_234
10
15.2237115
20
47.1123691
40
0.263235
50
81.1060089
51
90.2184952
0
ARC
8
DEFAULT_255_1_234
10
15.2201414
20
47.1381924
40
0.2374236
50
89.3806855
51
105.6762551
0
ARC
8
DEFAULT_255_1_234
10
15.2018045
20
47.2048567
40
0.1682847
50
105.7981136
51
149.7388061
0
ARC
8
DEFAULT_255_1_234
10
15.3082123
20
47.140895
40
0.2924306
50
149.4208916
51
163.6286378
0
ARC
8
DEFAULT_255_1_234
10
15.5173011
20
47.077125
40
0.5110213
50
163.3763315
51
172.1410975
0
ARC
8
DEFAULT_255_1_234
10
15.847373
20
47.0298518
40
0.8444586
50
172.0259487
51
178.0703232
0
ARC
8
DEFAULT_255_1_234
10
16.150382
20
47.0154906
40
1.1477868
50
177.8631668
51
179.5044149
0
ARC
8
DEFAULT_255_1_234
10
16.0431224
20
46.7840389
40
1.0404907
50
179.7995573
51
185.2460446
0
ARC
8
DEFAULT_255_1_234
10
15.6388264
20
46.7457513
40
0.6343885
50
185.1411642
51
193.0079639
0
ARC
8
DEFAULT_255_1_234
10
15.3744736
20
46.6832641
40
0.3627568
50
192.7897626
51
205.2507664
0
ARC
8
DEFAULT_255_1_234
10
15.2698283
20
46.6365415
40
0.2481908
50
205.8005384
51
211.2537509
0
ARC
8
DEFAULT_255_1_234
10
15.2174724
20
46.601458
40
0.1852521
50
210.3789793
51
238.4008143
0
ARC
8
DEFAULT_255_1_234
10
15.2155245
20
46.6061376
40
0.1882621
50
239.6520629
51
265.9793761
0
ARC
8
DEFAULT_255_1_234
10
15.2240446
20
46.6733427
40
0.2559272
50
265.1315437
51
270.060332
0
ARC
8
DEFAULT_255_1_234
10
15.2269224
20
46.6409534
40
0.2235528
50
269.3314664
51
287.2178029
0
ARC
8
DEFAULT_255_1_234
10
15.2407076
20
46.5906279
40
0.1714108
50
287.7958004
51
329.080874
0
ARC
8
DEFAULT_255_1_234
10
15.1449533
20
46.650393
40
0.2842745
50
328.6634704
51
343.3325132
0
ARC
8
DEFAULT_255_1_234
10
14.9276553
20
46.7180863
40
0.5118644
50
343.0499468
51
351.9393422
0
ARC
8
DEFAULT_255_1_234
10
14.5809853
20
46.7691949
40
0.8622784
50
351.8069023
51
357.7959224
0
ARC
8
DEFAULT_255_1_234
10
14.2574409
20
46.7859721
40
1.1862365
50
357.5871873
51
359.2677531
0
LINE
8
DEFAULT_255_1_234
10
16.5158176
20
47.0037327
11
16.5158176
21
46.8109709
0
LINE
8
DEFAULT_255_1_234
10
15.7777008
20
46.7908916
11
15.7777008
21
46.9892755
0
LINE
8
DEFAULT_255_1_234
10
16.3672304
20
46.7708123
11
16.3672304
21
47.0141739
0
LINE
8
DEFAULT_255_1_234
10
15.926288
20
47.0254184
11
15.926288
21
46.7876789
0
ARC
8
DEFAULT_255_1_234
10
15.2911065
20
46.8060805
40
1.2247208
50
353.8441951
51
0.2287902
0
ARC
8
DEFAULT_255_1_234
10
15.7550569
20
46.7542806
40
0.7578929
50
344.4934747
51
353.9765454
0
ARC
8
DEFAULT_255_1_234
10
16.0543159
20
46.6691981
40
0.4467846
50
329.2803592
51
344.7472793
0
ARC
8
DEFAULT_255_1_234
10
16.1535984
20
46.6147018
40
0.3336173
50
324.9352394
51
328.6160465
0
ARC
8
DEFAULT_255_1_234
10
16.1913093
20
46.5883427
40
0.2876076
50
280.580143
51
324.9173126
0
ARC
8
DEFAULT_255_1_234
10
16.1511885
20
46.7554099
40
0.4592847
50
269.5977311
51
281.6734359
0
ARC
8
DEFAULT_255_1_234
10
16.1439791
20
46.7434173
40
0.4472986
50
256.6228859
51
270.51044
0
ARC
8
DEFAULT_255_1_234
10
16.1037769
20
46.5885877
40
0.2873874
50
215.8618325
51
257.2788573
0
ARC
8
DEFAULT_255_1_234
10
16.20588
20
46.6570977
40
0.4102928
50
197.9693508
51
215.2623606
0
ARC
8
DEFAULT_255_1_234
10
16.4543916
20
46.7409709
40
0.6725652
50
187.8816417
51
198.2346507
0
ARC
8
DEFAULT_255_1_234
10
16.8502124
20
46.7981079
40
1.0724845
50
180.8976217
51
188.0055519
0
ARC
8
DEFAULT_255_1_234
10
17.1302312
20
46.8084777
40
1.3526448
50
180.7449369
51
181.1510016
0
ARC
8
DEFAULT_255_1_234
10
16.9725042
20
46.9941042
40
1.1948131
50
173.7675579
51
180.231553
0
ARC
8
DEFAULT_255_1_234
10
16.5207188
20
47.0451666
40
0.7401564
50
164.3058563
51
173.9002247
0
ARC
8
DEFAULT_255_1_234
10
16.2295257
20
47.1290656
40
0.4371288
50
148.7922025
51
164.568378
0
ARC
8
DEFAULT_255_1_234
10
16.1343709
20
47.1821929
40
0.3282386
50
144.5883898
51
148.1176286
0
ARC
8
DEFAULT_255_1_234
10
16.1000607
20
47.2061315
40
0.2864044
50
101.6440918
51
144.514236
0
ARC
8
DEFAULT_255_1_234
10
16.1425674
20
47.0372069
40
0.4604934
50
89.5284041
51
102.5819763
0
ARC
8
DEFAULT_255_1_234
10
16.1504762
20
47.0333018
40
0.464401
50
77.0437873
51
90.5081339
0
ARC
8
DEFAULT_255_1_234
10
16.1906763
20
47.1975615
40
0.2953195
50
48.2778575
51
77.4994676
0
ARC
8
DEFAULT_255_1_234
10
16.1979395
20
47.2104746
40
0.2808655
50
36.3142134
51
47.6305865
0
ARC
8
DEFAULT_255_1_234
10
16.1110702
20
47.1519515
40
0.3855453
50
18.2931786
51
35.6769206
0
ARC
8
DEFAULT_255_1_234
10
15.856746
20
47.0646593
40
0.654423
50
8.024666
51
18.5605216
0
ARC
8
DEFAULT_255_1_234
10
15.440438
20
47.0031792
40
1.0752407
50
1.1274072
51
8.1718305
0
ARC
8
DEFAULT_255_1_234
10
15.1168571
20
46.9904885
40
1.3990231
50
0.5424119
51
1.3863029
0
ARC
8
DEFAULT_255_1_234
10
15.2989949
20
47.0177342
40
1.0682415
50
359.8090433
51
4.9407866
0
ARC
8
DEFAULT_255_1_234
10
15.7199963
20
47.0553113
40
0.6455691
50
4.8362157
51
12.2904523
0
ARC
8
DEFAULT_255_1_234
10
15.9955078
20
47.1166965
40
0.3633074
50
12.0805627
51
23.8173984
0
ARC
8
DEFAULT_255_1_234
10
16.1128783
20
47.1663919
40
0.2358723
50
24.2871213
51
31.3935614
0
ARC
8
DEFAULT_255_1_234
10
16.165348
20
47.2007233
40
0.1732111
50
30.7407893
51
82.4657128
0
ARC
8
DEFAULT_255_1_234
10
16.1473615
20
47.1123691
40
0.263235
50
81.1060089
51
90.2184952
0
ARC
8
DEFAULT_255_1_234
10
16.1437913
20
47.1381924
40
0.2374236
50
89.3806855
51
105.6762551
0
ARC
8
DEFAULT_255_1_234
10
16.1254544
20
47.2048567
40
0.1682847
50
105.7981136
51
149.7388061
0
ARC
8
DEFAULT_255_1_234
10
16.2318622
20
47.140895
40
0.2924306
50
149.4208916
51
163.6286378
0
ARC
8
DEFAULT_255_1_234
10
16.440951
20
47.077125
40
0.5110213
50
163.3763315
51
172.1410975
0
ARC
8
DEFAULT_255_1_234
10
16.7710229
20
47.0298518
40
0.8444586
50
172.0259487
51
178.0703232
0
ARC
8
DEFAULT_255_1_234
10
17.0740319
20
47.0154906
40
1.1477868
50
177.8631668
51
179.5044149
0
ARC
8
DEFAULT_255_1_234
10
16.9667723
20
46.7840389
40
1.0404907
50
179.7995573
51
185.2460446
0
ARC
8
DEFAULT_255_1_234
10
16.5624763
20
46.7457513
40
0.6343885
50
185.1411642
51
193.0079639
0
ARC
8
DEFAULT_255_1_234
10
16.2981235
20
46.6832641
40
0.3627568
50
192.7897626
51
205.2507664
0
ARC
8
DEFAULT_255_1_234
10
16.1934782
20
46.6365415
40
0.2481908
50
205.8005384
51
211.2537509
0
ARC
8
DEFAULT_255_1_234
10
16.1411223
20
46.601458
40
0.1852521
50
210.3789793
51
238.4008143
0
ARC
8
DEFAULT_255_1_234
10
16.1391744
20
46.6061376
40
0.1882621
50
239.6520629
51
265.9793761
0
ARC
8
DEFAULT_255_1_234
10
16.1476945
20
46.6733427
40
0.2559272
50
265.1315437
51
270.060332
0
ARC
8
DEFAULT_255_1_234
10
16.1505723
20
46.6409534
40
0.2235528
50
269.3314664
51
287.2178029
0
ARC
8
DEFAULT_255_1_234
10
16.1643575
20
46.5906279
40
0.1714108
50
287.7958004
51
329.080874
0
ARC
8
DEFAULT_255_1_234
10
16.0686032
20
46.650393
40
0.2842745
50
328.6634704
51
343.3325132
0
ARC
8
DEFAULT_255_1_234
10
15.8513052
20
46.7180863
40
0.5118644
50
343.0499468
51
351.9393422
0
ARC
8
DEFAULT_255_1_234
10
15.5046352
20
46.7691949
40
0.8622784
50
351.8069023
51
357.7959224
0
ARC
8
DEFAULT_255_1_234
10
15.1810908
20
46.7859721
40
1.1862365
50
357.5871873
51
359.2677531
0
ARC
8
DEFAULT_255_2_778
10
17.2795513
20
49.6390655
40
0.9032652
50
36.6636783
51
62.8800292
0
ARC
8
DEFAULT_255_2_778
10
17.362048
20
50.9080795
40
0.5698185
50
305.2984654
51
359.1896208
0
ARC
8
DEFAULT_255_2_778
10
17.3634372
20
50.9034256
40
0.5683825
50
359.6567283
51
359.9965559
0
ARC
8
DEFAULT_255_2_778
10
17.3738628
20
50.9032968
40
0.5579568
50
0.0097156
51
44.9837975
0
ARC
8
DEFAULT_255_2_778
10
17.3736736
20
50.9034297
40
0.5579968
50
44.9604089
51
90.0139948
0
ARC
8
DEFAULT_255_2_778
10
17.3735813
20
50.8858846
40
0.5755419
50
90.0043846
51
90.2659864
0
ARC
8
DEFAULT_255_2_778
10
17.3015142
20
49.6927344
40
0.8779024
50
272.428255
51
302.0472027
0
ARC
8
DEFAULT_255_2_778
10
17.3149911
20
49.6582487
40
0.841549
50
302.5153244
51
0.4882776
0
ARC
8
DEFAULT_255_2_778
10
17.3237108
20
49.6862449
40
0.833059
50
358.5675863
51
29.0157619
0
ARC
8
DEFAULT_255_2_778
10
15.115709
20
49.6401166
40
0.90203
50
36.6388615
51
62.8867752
0
ARC
8
DEFAULT_255_2_778
10
15.1980877
20
50.9077954
40
0.5692748
50
305.2706468
51
359.2174393
0
ARC
8
DEFAULT_255_2_778
10
15.2034234
20
50.9030241
40
0.563894
50
359.6947901
51
359.9999584
0
ARC
8
DEFAULT_255_2_778
10
15.2087973
20
50.9030658
40
0.5585202
50
359.9956834
51
44.9740581
0
ARC
8
DEFAULT_255_2_778
10
15.2091182
20
50.9033026
40
0.5581257
50
44.9801433
51
90.0010632
0
ARC
8
DEFAULT_255_2_778
10
15.2091083
20
50.8993714
40
0.562057
50
90.0000416
51
90.3056982
0
ARC
8
DEFAULT_255_2_778
10
15.1365968
20
49.6928822
40
0.8780507
50
272.42898
51
302.0445025
0
ARC
8
DEFAULT_255_2_778
10
15.1501929
20
49.6582943
40
0.8415468
50
302.5093151
51
0.4851764
0
ARC
8
DEFAULT_255_2_778
10
15.1579024
20
49.6859974
40
0.8340609
50
358.5863171
51
28.9970314
0
LINE
8
DEFAULT_255_2_778
10
13.4101095
20
50.1784203
11
12.9532095
21
51.4614203
0
LINE
8
DEFAULT_255_2_778
10
12.9532095
20
51.4614203
11
12.6084095
21
51.4614203
0
LINE
8
DEFAULT_255_2_778
10
12.6084095
20
51.4614203
11
12.6084095
21
50.1784203
0
LINE
8
DEFAULT_255_2_778
10
12.6084095
20
50.1784203
11
13.4101095
21
50.1784203
0
LINE
8
DEFAULT_255_2_778
10
12.6084095
20
49.3767203
11
13.0334095
21
49.3767203
0
LINE
8
DEFAULT_255_2_778
10
13.0334095
20
49.3767203
11
13.2257095
21
48.8156203
0
LINE
8
DEFAULT_255_2_778
10
13.2257095
20
48.8156203
11
13.8911095
21
48.8156203
0
LINE
8
DEFAULT_255_2_778
10
13.8911095
20
48.8156203
11
13.4342095
21
50.0983203
0
LINE
8
DEFAULT_255_2_778
10
13.4342095
20
50.0983203
11
12.6084095
21
50.0983203
0
LINE
8
DEFAULT_255_2_778
10
12.6084095
20
50.0983203
11
12.6084095
21
49.3767203
0
LINE
8
DEFAULT_255_2_778
10
12.5283095
20
51.4614203
11
12.1835095
21
51.4614203
0
LINE
8
DEFAULT_255_2_778
10
12.1835095
20
51.4614203
11
11.7266095
21
50.1784203
0
LINE
8
DEFAULT_255_2_778
10
11.7266095
20
50.1784203
11
12.5283095
21
50.1784203
0
LINE
8
DEFAULT_255_2_778
10
12.5283095
20
50.1784203
11
12.5283095
21
51.4614203
0
LINE
8
DEFAULT_255_2_778
10
11.7025095
20
50.0983203
11
11.2453095
21
48.8156203
0
LINE
8
DEFAULT_255_2_778
10
11.2453095
20
48.8156203
11
11.9107095
21
48.8156203
0
LINE
8
DEFAULT_255_2_778
10
11.9107095
20
48.8156203
11
12.1031095
21
49.3767203
0
LINE
8
DEFAULT_255_2_778
10
12.1031095
20
49.3767203
11
12.5280095
21
49.3767203
0
LINE
8
DEFAULT_255_2_778
10
12.5280095
20
49.3767203
11
12.5280095
21
50.0983203
0
LINE
8
DEFAULT_255_2_778
10
12.5280095
20
50.0983203
11
11.7025095
21
50.0983203
0
LINE
8
DEFAULT_255_2_778
10
16.2965095
20
51.4614203
11
17.0981095
21
51.4614203
0
LINE
8
DEFAULT_255_2_778
10
17.0981095
20
51.4614203
11
17.0981095
21
50.1784203
0
LINE
8
DEFAULT_255_2_778
10
17.0981095
20
50.1784203
11
16.2965095
21
50.1784203
0
LINE
8
DEFAULT_255_2_778
10
16.2965095
20
50.1784203
11
16.2965095
21
51.4614203
0
LINE
8
DEFAULT_255_2_778
10
17.3709095
20
51.4614203
11
17.1786095
21
51.4614203
0
LINE
8
DEFAULT_255_2_778
10
17.1786095
20
51.4614203
11
17.1786095
21
50.1784203
0
LINE
8
DEFAULT_255_2_778
10
17.1786095
20
50.1784203
11
18.0043095
21
50.1784203
0
LINE
8
DEFAULT_255_2_778
10
18.0043095
20
50.1784203
11
18.0041095
21
50.1784203
0
LINE
8
DEFAULT_255_2_778
10
16.2965095
20
50.0983203
11
17.0981095
21
50.0983203
0
LINE
8
DEFAULT_255_2_778
10
17.0981095
20
50.0983203
11
17.0981095
21
48.8156203
0
LINE
8
DEFAULT_255_2_778
10
17.0981095
20
48.8156203
11
16.2965095
21
48.8156203
0
LINE
8
DEFAULT_255_2_778
10
16.2965095
20
48.8156203
11
16.2965095
21
50.0983203
0
LINE
8
DEFAULT_255_2_778
10
17.1783095
20
48.8156203
11
17.3387095
21
48.8156203
0
LINE
8
DEFAULT_255_2_778
10
18.0522095
20
50.0903203
11
17.1783095
21
50.0903203
0
LINE
8
DEFAULT_255_2_778
10
17.1783095
20
50.0903203
11
17.1783095
21
48.8156203
0
LINE
8
DEFAULT_255_2_778
10
17.1783095
20
48.8156203
11
17.1783095
21
48.8156203
0
LINE
8
DEFAULT_255_2_778
10
14.1316095
20
51.4614203
11
14.9333095
21
51.4614203
0
LINE
8
DEFAULT_255_2_778
10
14.9333095
20
51.4614203
11
14.9333095
21
50.1784203
0
LINE
8
DEFAULT_255_2_778
10
14.9333095
20
50.1784203
11
14.1316095
21
50.1784203
0
LINE
8
DEFAULT_255_2_778
10
14.1316095
20
50.1784203
11
14.1316095
21
51.4614203
0
LINE
8
DEFAULT_255_2_778
10
15.2061095
20
51.4614203
11
15.0138095
21
51.4614203
0
LINE
8
DEFAULT_255_2_778
10
15.0138095
20
51.4614203
11
15.0138095
21
50.1784203
0
LINE
8
DEFAULT_255_2_778
10
15.0138095
20
50.1784203
11
15.8395095
21
50.1784203
0
LINE
8
DEFAULT_255_2_778
10
15.8395095
20
50.1784203
11
15.8395095
21
50.1784203
0
LINE
8
DEFAULT_255_2_778
10
14.1316095
20
50.0983203
11
14.9333095
21
50.0983203
0
LINE
8
DEFAULT_255_2_778
10
14.9333095
20
50.0983203
11
14.9333095
21
48.8156203
0
LINE
8
DEFAULT_255_2_778
10
14.9333095
20
48.8156203
11
14.1316095
21
48.8156203
0
LINE
8
DEFAULT_255_2_778
10
14.1316095
20
48.8156203
11
14.1316095
21
50.0983203
0
LINE
8
DEFAULT_255_2_778
10
15.0135095
20
48.8156203
11
15.1738095
21
48.8156203
0
LINE
8
DEFAULT_255_2_778
10
15.8874095
20
50.0903203
11
15.0135095
21
50.0903203
0
LINE
8
DEFAULT_255_2_778
10
15.0135095
20
50.0903203
11
15.0135095
21
48.8156203
0
LINE
8
DEFAULT_255_2_778
10
15.0135095
20
48.8156203
11
15.0135095
21
48.8156203
0
LINE
8
DEFAULT_255_1_234
10
4.2446489
20
45.4973211
11
4.2446489
21
44.4539983
0
LINE
8
DEFAULT_255_1_234
10
4.2446489
20
44.4539983
11
4.7988389
21
44.4539983
0
LINE
8
DEFAULT_255_1_234
10
4.7988389
20
44.4539983
11
4.7988389
21
44.3279
0
LINE
8
DEFAULT_255_1_234
10
4.7988389
20
44.3279
11
4.0896364
21
44.3279
0
LINE
8
DEFAULT_255_1_234
10
4.0896364
20
44.3279
11
4.0896364
21
45.4973211
0
LINE
8
DEFAULT_255_1_234
10
4.0896364
20
45.4973211
11
4.2446489
21
45.4973211
0
LINE
8
DEFAULT_255_1_234
10
5.377124
20
45.2965276
11
5.377124
21
44.9551788
0
LINE
8
DEFAULT_255_1_234
10
5.377124
20
44.9551788
11
5.7032126
21
44.9551788
0
LINE
8
DEFAULT_255_1_234
10
5.7032126
20
44.9551788
11
5.7032126
21
44.8146233
0
LINE
8
DEFAULT_255_1_234
10
5.7032126
20
44.8146233
11
5.377124
21
44.8146233
0
LINE
8
DEFAULT_255_1_234
10
5.377124
20
44.8146233
11
5.377124
21
44.4451634
0
LINE
8
DEFAULT_255_1_234
10
5.377124
20
44.4451634
11
5.2277337
21
44.4451634
0
LINE
8
DEFAULT_255_1_234
10
5.2277337
20
44.4451634
11
5.2277337
21
44.8146233
0
LINE
8
DEFAULT_255_1_234
10
5.2277337
20
44.8146233
11
4.9016451
21
44.8146233
0
LINE
8
DEFAULT_255_1_234
10
4.9016451
20
44.8146233
11
4.9016451
21
44.9551788
0
LINE
8
DEFAULT_255_1_234
10
4.9016451
20
44.9551788
11
5.2277337
21
44.9551788
0
LINE
8
DEFAULT_255_1_234
10
5.2277337
20
44.9551788
11
5.2277337
21
45.2965276
0
LINE
8
DEFAULT_255_1_234
10
5.2277337
20
45.2965276
11
5.377124
21
45.2965276
0
LINE
8
DEFAULT_255_1_234
10
4.973923
20
5.0114663
11
5.1289355
21
5.0114663
0
LINE
8
DEFAULT_255_1_234
10
4.2285777
20
5.1704947
11
4.2285777
21
5.2829391
0
LINE
8
DEFAULT_255_1_234
10
5.1289355
20
5.4339357
11
4.973923
21
5.4339357
0
LINE
8
DEFAULT_255_1_234
10
4.3835902
20
5.2789232
11
4.3835902
21
5.1656757
0
ARC
8
DEFAULT_255_1_234
10
4.5808742
20
5.0711846
40
0.5513052
50
340.1774281
51
353.7814284
0
ARC
8
DEFAULT_255_1_234
10
4.7380095
20
5.0126582
40
0.3836379
50
311.4558989
51
340.4421614
0
ARC
8
DEFAULT_255_1_234
10
4.7346763
20
5.0237528
40
0.3941894
50
282.4333181
51
310.7513653
0
ARC
8
DEFAULT_255_1_234
10
4.6907502
20
5.2052679
40
0.5809175
50
269.9358511
51
282.809604
0
ARC
8
DEFAULT_255_1_234
10
4.6855568
20
5.3510212
40
0.7266847
50
270.0021091
51
270.3581957
0
ARC
8
DEFAULT_255_1_234
10
4.6802985
20
5.0909585
40
0.4666519
50
250.7884749
51
270.6489167
0
ARC
8
DEFAULT_255_1_234
10
4.663482
20
5.0272319
40
0.4009729
50
219.3627325
51
250.0611886
0
ARC
8
DEFAULT_255_1_234
10
4.7464031
20
5.0977042
40
0.5097822
50
193.5479632
51
219.5756669
0
ARC
8
DEFAULT_255_1_234
10
4.9835652
20
5.1592919
40
0.7547848
50
181.1218675
51
193.87563
0
ARC
8
DEFAULT_255_1_234
10
5.1905833
20
5.170358
40
0.9620055
50
179.9918545
51
181.5394234
0
ARC
8
DEFAULT_255_1_234
10
5.0054935
20
5.2866788
40
0.7769248
50
169.5837241
51
180.2757934
0
ARC
8
DEFAULT_255_1_234
10
4.8217873
20
5.3206229
40
0.590109
50
155.0365899
51
169.6003176
0
ARC
8
DEFAULT_255_1_234
10
4.7082337
20
5.3753677
40
0.4640625
50
136.783148
51
155.2472683
0
ARC
8
DEFAULT_255_1_234
10
4.6692814
20
5.4084562
40
0.4130255
50
121.7633186
51
136.428115
0
ARC
8
DEFAULT_255_1_234
10
4.6827776
20
5.3835227
40
0.4413323
50
95.6459699
51
121.5490577
0
ARC
8
DEFAULT_255_1_234
10
4.6985058
20
5.2726949
40
0.55319
50
89.924208
51
96.1377933
0
ARC
8
DEFAULT_255_1_234
10
4.7035491
20
5.2845542
40
0.5413475
50
76.6779277
51
90.4563316
0
ARC
8
DEFAULT_255_1_234
10
4.7429114
20
5.4436114
40
0.3775041
50
47.485847
51
76.9287264
0
ARC
8
DEFAULT_255_1_234
10
4.7282087
20
5.4336159
40
0.3948286
50
16.5424086
51
46.8933463
0
ARC
8
DEFAULT_255_1_234
10
4.5674244
20
5.3807861
40
0.564021
50
5.4072051
51
17.0365086
0
ARC
8
DEFAULT_255_1_234
10
4.4235261
20
5.3576679
40
0.5556559
50
7.8891745
51
15.9239216
0
ARC
8
DEFAULT_255_1_234
10
4.6222274
20
5.4153631
40
0.3487515
50
15.7653144
51
27.9410532
0
ARC
8
DEFAULT_255_1_234
10
4.7326492
20
5.474479
40
0.2235026
50
27.8166557
51
46.4008329
0
ARC
8
DEFAULT_255_1_234
10
4.7376135
20
5.4739082
40
0.2205286
50
47.4371857
51
75.0698205
0
ARC
8
DEFAULT_255_1_234
10
4.7067529
20
5.3664765
40
0.3322915
50
74.7008593
51
87.8124495
0
ARC
8
DEFAULT_255_1_234
10
4.6994217
20
5.2608844
40
0.4380987
50
87.3814673
51
90.0240855
0
ARC
8
DEFAULT_255_1_234
10
4.695576
20
5.3786291
40
0.3203749
50
89.3451631
51
108.5745436
0
ARC
8
DEFAULT_255_1_234
10
4.6818865
20
5.4299908
40
0.2673494
50
109.2998449
51
143.3037509
0
ARC
8
DEFAULT_255_1_234
10
4.7580938
20
5.3713881
40
0.3634757
50
143.0753173
51
163.1916937
0
ARC
8
DEFAULT_255_1_234
10
4.9532666
20
5.3097967
40
0.5681262
50
162.9373603
51
174.6208611
0
ARC
8
DEFAULT_255_1_234
10
5.2158708
20
5.281001
40
0.8322832
50
174.3419979
51
180.1430411
0
ARC
8
DEFAULT_255_1_234
10
5.1227864
20
5.1615698
40
0.7392076
50
179.6817502
51
189.150529
0
ARC
8
DEFAULT_255_1_234
10
4.8727112
20
5.119919
40
0.4856932
50
188.9910863
51
203.5773039
0
ARC
8
DEFAULT_255_1_234
10
4.7647445
20
5.0751211
40
0.3688271
50
203.9077269
51
215.1312379
0
ARC
8
DEFAULT_255_1_234
10
4.6724539
20
5.0035941
40
0.2522457
50
213.9071664
51
263.8849284
0
ARC
8
DEFAULT_255_1_234
10
4.6849868
20
5.0820518
40
0.3316174
50
263.1758525
51
270.1031083
0
ARC
8
DEFAULT_255_1_234
10
4.688196
20
5.2067365
40
0.4563091
50
269.6719807
51
279.0609165
0
ARC
8
DEFAULT_255_1_234
10
4.7148728
20
5.0454907
40
0.2928759
50
278.8750225
51
293.6346586
0
ARC
8
DEFAULT_255_1_234
10
4.7468936
20
4.97029
40
0.2111472
50
293.8553404
51
310.0518804
0
ARC
8
DEFAULT_255_1_234
10
4.747379
20
4.9640516
40
0.2060917
50
311.0646779
51
332.0108348
0
ARC
8
DEFAULT_255_1_234
10
4.6281517
20
5.0297978
40
0.3422352
50
331.6588543
51
343.2878891
0
ARC
8
DEFAULT_255_1_234
10
4.4219032
20
5.0931798
40
0.5580003
50
343.1446044
51
351.010618
0
ARC
8
DEFAULT_255_1_234
10
4.2677678
20
5.1212871
40
0.7146438
50
350.7157277
51
351.1602153
0
LINE
8
DEFAULT_255_1_234
10
6.2389218
20
5.2612534
11
6.2389218
21
5.1873614
0
LINE
8
DEFAULT_255_1_234
10
5.2984052
20
5.1769201
11
5.2984052
21
5.2612534
0
LINE
8
DEFAULT_255_1_234
10
6.0855156
20
5.1761169
11
6.0855156
21
5.2628597
0
LINE
8
DEFAULT_255_1_234
10
5.4518114
20
5.273301
11
5.4518114
21
5.1873614
0
ARC
8
DEFAULT_255_1_234
10
5.3747244
20
5.1834015
40
0.8642064
50
350.487711
51
0.2625388
0
ARC
8
DEFAULT_255_1_234
10
5.6040486
20
5.1439578
40
0.631518
50
336.0277639
51
350.5787438
0
ARC
8
DEFAULT_255_1_234
10
5.7385309
20
5.0831892
40
0.4839466
50
319.8877444
51
336.1328423
0
ARC
8
DEFAULT_255_1_234
10
5.798795
20
5.034958
40
0.4067874
50
302.4806467
51
319.6143626
0
ARC
8
DEFAULT_255_1_234
10
5.787296
20
5.0571202
40
0.4316636
50
275.8195682
51
302.1884709
0
ARC
8
DEFAULT_255_1_234
10
5.7706593
20
5.1713665
40
0.5470306
50
269.9171439
51
276.3397983
0
ARC
8
DEFAULT_255_1_234
10
5.7661803
20
5.1027681
40
0.4784458
50
252.5219675
51
270.4416499
0
ARC
8
DEFAULT_255_1_234
10
5.7518062
20
5.0488592
40
0.422716
50
237.5352116
51
252.1857531
0
ARC
8
DEFAULT_255_1_234
10
5.7607258
20
5.0602363
40
0.4371052
50
209.063312
51
237.3492538
0
ARC
8
DEFAULT_255_1_234
10
5.8477106
20
5.1148685
40
0.5397041
50
205.1183774
51
209.6470015
0
ARC
8
DEFAULT_255_1_234
10
5.9274143
20
5.148683
40
0.6262326
50
188.7215458
51
204.8240747
0
ARC
8
DEFAULT_255_1_234
10
6.1271671
20
5.1823067
40
0.8287794
50
180.3723947
51
188.9252049
0
ARC
8
DEFAULT_255_1_234
10
6.1244423
20
5.2652402
40
0.8260467
50
169.5253763
51
180.2765336
0
ARC
8
DEFAULT_255_1_234
10
5.9341871
20
5.3002309
40
0.6326007
50
155.8315255
51
169.5089989
0
ARC
8
DEFAULT_255_1_234
10
5.8061373
20
5.3596348
40
0.4914567
50
139.6258461
51
156.0379525
0
ARC
8
DEFAULT_255_1_234
10
5.7471706
20
5.4070799
40
0.4158054
50
122.6416387
51
139.3430715
0
ARC
8
DEFAULT_255_1_234
10
5.7572326
20
5.3887451
40
0.4366739
50
93.0223692
51
122.455762
0
ARC
8
DEFAULT_255_1_234
10
5.7680323
20
5.2922709
40
0.5336137
50
89.975342
51
93.6341897
0
ARC
8
DEFAULT_255_1_234
10
5.7719102
20
5.3321242
40
0.4937738
50
73.746375
51
90.4233405
0
ARC
8
DEFAULT_255_1_234
10
5.7894681
20
5.4001287
40
0.4235786
50
57.662753
51
73.4518111
0
ARC
8
DEFAULT_255_1_234
10
5.7886687
20
5.4022832
40
0.4221899
50
29.1440151
51
57.414694
0
ARC
8
DEFAULT_255_1_234
10
5.6951882
20
5.3439005
40
0.5322966
50
24.0982783
51
29.7323517
0
ARC
8
DEFAULT_255_1_234
10
5.5918157
20
5.3010399
40
0.6441673
50
8.6655297
51
23.8241346
0
ARC
8
DEFAULT_255_1_234
10
5.3683895
20
5.2645854
40
0.8705386
50
359.7806941
51
8.8218784
0
ARC
8
DEFAULT_255_1_234
10
5.2536893
20
5.2671345
40
0.8318373
50
359.7055579
51
8.036044
0
ARC
8
DEFAULT_255_1_234
10
5.5536899
20
5.3108239
40
0.5286768
50
7.8928306
51
20.2962107
0
ARC
8
DEFAULT_255_1_234
10
5.716447
20
5.3708395
40
0.3552073
50
20.3231126
51
36.4992797
0
ARC
8
DEFAULT_255_1_234
10
5.7850016
20
5.4236402
40
0.2686974
50
36.1437156
51
85.6627023
0
ARC
8
DEFAULT_255_1_234
10
5.7687562
20
5.3196221
40
0.373739
50
84.3852322
51
90.0757696
0
ARC
8
DEFAULT_255_1_234
10
5.7645234
20
5.3856839
40
0.3076997
50
89.3038458
51
109.9045693
0
ARC
8
DEFAULT_255_1_234
10
5.7552625
20
5.4239062
40
0.2686424
50
110.8228367
51
143.9179474
0
ARC
8
DEFAULT_255_1_234
10
5.8486285
20
5.3526236
40
0.3860887
50
143.5289163
51
163.2980757
0
ARC
8
DEFAULT_255_1_234
10
6.0394106
20
5.2926433
40
0.5860659
50
163.0418846
51
174.3140048
0
ARC
8
DEFAULT_255_1_234
10
6.2798218
20
5.2648854
40
0.8280531
50
174.0509143
51
179.4176892
0
ARC
8
DEFAULT_255_1_234
10
6.2293957
20
5.1831954
40
0.7775954
50
179.6930361
51
188.7906598
0
ARC
8
DEFAULT_255_1_234
10
5.9630436
20
5.1405935
40
0.5078633
50
188.6331305
51
202.5629587
0
ARC
8
DEFAULT_255_1_234
10
5.8376028
20
5.0901996
40
0.3726913
50
202.8081362
51
216.1193925
0
ARC
8
DEFAULT_255_1_234
10
5.7566598
20
5.0250676
40
0.2689577
50
215.0755913
51
264.6379694
0
ARC
8
DEFAULT_255_1_234
10
5.7693548
20
5.1081513
40
0.3528978
50
263.846392
51
270.0833719
0
ARC
8
DEFAULT_255_1_234
10
5.7734938
20
5.0823374
40
0.3271036
50
269.3649385
51
287.5152008
0
ARC
8
DEFAULT_255_1_234
10
5.7913096
20
5.0176238
40
0.2600406
50
288.0630309
51
323.8113348
0
ARC
8
DEFAULT_255_1_234
10
5.7041937
20
5.0826049
40
0.3687189
50
323.6547608
51
342.6590488
0
ARC
8
DEFAULT_255_1_234
10
5.5010552
20
5.1486952
40
0.5823286
50
342.4091907
51
353.6451149
0
ARC
8
DEFAULT_255_1_234
10
5.2179063
20
5.183919
40
0.8676442
50
353.4029884
51
359.4847795
0
LINE
8
DEFAULT_255_1_234
10
6.4702358
20
5.8098211
11
6.6694229
21
5.8098211
0
LINE
8
DEFAULT_255_1_234
10
6.6694229
20
5.8098211
11
7.0517337
21
4.8556506
0
LINE
8
DEFAULT_255_1_234
10
7.0517337
20
4.8556506
11
7.4340444
21
5.8098211
0
LINE
8
DEFAULT_255_1_234
10
7.4340444
20
5.8098211
11
7.6340347
21
5.8098211
0
LINE
8
DEFAULT_255_1_234
10
7.6340347
20
5.8098211
11
7.6340347
21
4.6404
0
LINE
8
DEFAULT_255_1_234
10
7.6340347
20
4.6404
11
7.4798253
21
4.6404
0
LINE
8
DEFAULT_255_1_234
10
7.4798253
20
4.6404
11
7.4798253
21
5.0957996
0
LINE
8
DEFAULT_255_1_234
10
7.4798253
20
5.0957996
11
7.4942825
21
5.5873419
0
LINE
8
DEFAULT_255_1_234
10
7.4942825
20
5.5873419
11
7.1103654
21
4.6404
0
LINE
8
DEFAULT_255_1_234
10
7.1103654
20
4.6404
11
6.9922988
21
4.6404
0
LINE
8
DEFAULT_255_1_234
10
6.9922988
20
4.6404
11
6.6091849
21
5.5849324
0
LINE
8
DEFAULT_255_1_234
10
6.6091849
20
5.5849324
11
6.6244452
21
5.0957996
0
LINE
8
DEFAULT_255_1_234
10
6.6244452
20
5.0957996
11
6.6244452
21
4.6404
0
LINE
8
DEFAULT_255_1_234
10
6.6244452
20
4.6404
11
6.4702358
21
4.6404
0
LINE
8
DEFAULT_255_1_234
10
6.4702358
20
4.6404
11
6.4702358
21
5.8098211
0
LINE
8
DEFAULT_255_1_234
10
8.6339861
20
4.7616792
11
8.6339861
21
4.6404
0
LINE
8
DEFAULT_255_1_234
10
8.6339861
20
4.6404
11
7.8677583
21
4.6404
0
LINE
8
DEFAULT_255_1_234
10
7.8677583
20
4.6404
11
7.8677583
21
4.7472221
0
LINE
8
DEFAULT_255_1_234
10
7.8677583
20
4.7472221
11
8.2725579
21
5.1969995
0
LINE
8
DEFAULT_255_1_234
10
7.9938566
20
5.4652595
11
7.8452694
21
5.4652595
0
LINE
8
DEFAULT_255_1_234
10
8.3601039
20
5.1014218
11
8.0468661
21
4.7616792
0
LINE
8
DEFAULT_255_1_234
10
8.0468661
20
4.7616792
11
8.6339861
21
4.7616792
0
ARC
8
DEFAULT_255_1_234
10
6.9235412
20
6.3899527
40
1.8008286
50
318.5132453
51
320.7828378
0
ARC
8
DEFAULT_255_1_234
10
7.4522387
20
5.9596426
40
1.1191493
50
320.7372736
51
323.9737074
0
ARC
8
DEFAULT_255_1_234
10
7.8442243
20
5.6756361
40
0.6350923
50
323.8961724
51
328.6421089
0
ARC
8
DEFAULT_255_1_234
10
8.0488839
20
5.5494031
40
0.3946393
50
328.8299013
51
331.789948
0
ARC
8
DEFAULT_255_1_234
10
8.1486017
20
5.4979509
40
0.2824501
50
331.4255242
51
352.9364833
0
ARC
8
DEFAULT_255_1_234
10
8.1622518
20
5.4948976
40
0.2685315
50
353.2248685
51
0.0169286
0
ARC
8
DEFAULT_255_1_234
10
8.1832394
20
5.497195
40
0.2475536
50
359.4866256
51
15.9339782
0
ARC
8
DEFAULT_255_1_234
10
8.233938
20
5.5108286
40
0.1950618
50
16.1714718
51
43.5284424
0
ARC
8
DEFAULT_255_1_234
10
8.2416688
20
5.5185573
40
0.184134
50
43.4415429
51
83.1661404
0
ARC
8
DEFAULT_255_1_234
10
8.2282607
20
5.4448771
40
0.258926
50
82.160215
51
90.1505798
0
ARC
8
DEFAULT_255_1_234
10
8.2251034
20
5.3911865
40
0.3126255
50
89.5460705
51
102.5418777
0
ARC
8
DEFAULT_255_1_234
10
8.200812
20
5.4942665
40
0.2067346
50
102.1739365
51
129.2061916
0
ARC
8
DEFAULT_255_1_234
10
8.1929192
20
5.5067094
40
0.1921118
50
129.7279328
51
135.7542026
0
ARC
8
DEFAULT_255_1_234
10
8.2050719
20
5.4970045
40
0.2075944
50
136.175737
51
166.3674722
0
ARC
8
DEFAULT_255_1_234
10
8.3057639
20
5.4700182
40
0.3118201
50
165.9092917
51
178.8683903
0
ARC
8
DEFAULT_255_1_234
10
8.39225
20
5.4653179
40
0.3983935
50
178.438168
51
180.0083905
0
ARC
8
DEFAULT_255_1_234
10
8.2521102
20
5.4692231
40
0.4068601
50
163.2878735
51
180.5581814
0
ARC
8
DEFAULT_255_1_234
10
8.1719363
20
5.491284
40
0.3237344
50
133.454115
51
162.9470031
0
ARC
8
DEFAULT_255_1_234
10
8.1897905
20
5.4723
40
0.349795
50
100.7869394
51
133.4384016
0
ARC
8
DEFAULT_255_1_234
10
8.2245676
20
5.3174319
40
0.5084616
50
89.6605301
51
101.3704185
0
ARC
8
DEFAULT_255_1_234
10
8.2312015
20
5.3235496
40
0.502348
50
78.2171172
51
90.4130393
0
ARC
8
DEFAULT_255_1_234
10
8.2667093
20
5.4859637
40
0.3361092
50
55.9268222
51
78.4888551
0
ARC
8
DEFAULT_255_1_234
10
8.2863534
20
5.5198324
40
0.2970617
50
47.9292255
51
55.4054003
0
ARC
8
DEFAULT_255_1_234
10
8.2965094
20
5.5301502
40
0.2825983
50
4.3347696
51
48.0560701
0
ARC
8
DEFAULT_255_1_234
10
8.1869488
20
5.5131601
40
0.393225
50
359.925209
51
5.5967654
0
ARC
8
DEFAULT_255_1_234
10
8.229838
20
5.5187816
40
0.3503892
50
337.8914096
51
358.9967724
0
ARC
8
DEFAULT_255_1_234
10
7.9584792
20
5.6234706
40
0.6412172
50
326.9135351
51
338.3505194
0
ARC
8
DEFAULT_255_1_234
10
7.5599095
20
5.8789284
40
1.1146189
50
319.6472867
51
327.095818
0
ARC
8
DEFAULT_255_1_234
10
7.1766099
20
6.1951
40
1.6114559
50
317.2586784
51
319.9046139
0
LINE
8
DEFAULT_255_1_234
10
4.965023
20
12.9489663
11
5.1200355
21
12.9489663
0
LINE
8
DEFAULT_255_1_234
10
4.2196777
20
13.1079947
11
4.2196777
21
13.2204391
0
LINE
8
DEFAULT_255_1_234
10
5.1200355
20
13.3714357
11
4.965023
21
13.3714357
0
LINE
8
DEFAULT_255_1_234
10
4.3746902
20
13.2164232
11
4.3746902
21
13.1031757
0
ARC
8
DEFAULT_255_1_234
10
4.5719742
20
13.0086846
40
0.5513052
50
340.1774281
51
353.7814284
0
ARC
8
DEFAULT_255_1_234
10
4.7291095
20
12.9501582
40
0.3836379
50
311.4558989
51
340.4421614
0
ARC
8
DEFAULT_255_1_234
10
4.7257763
20
12.9612528
40
0.3941894
50
282.4333181
51
310.7513653
0
ARC
8
DEFAULT_255_1_234
10
4.6818502
20
13.1427679
40
0.5809175
50
269.9358511
51
282.809604
0
ARC
8
DEFAULT_255_1_234
10
4.6766568
20
13.2885212
40
0.7266847
50
270.0021091
51
270.3581957
0
ARC
8
DEFAULT_255_1_234
10
4.6713985
20
13.0284585
40
0.4666519
50
250.7884749
51
270.6489167
0
ARC
8
DEFAULT_255_1_234
10
4.654582
20
12.9647319
40
0.4009729
50
219.3627325
51
250.0611886
0
ARC
8
DEFAULT_255_1_234
10
4.7375031
20
13.0352042
40
0.5097822
50
193.5479632
51
219.5756669
0
ARC
8
DEFAULT_255_1_234
10
4.9746652
20
13.0967919
40
0.7547848
50
181.1218675
51
193.87563
0
ARC
8
DEFAULT_255_1_234
10
5.1816833
20
13.107858
40
0.9620055
50
179.9918545
51
181.5394234
0
ARC
8
DEFAULT_255_1_234
10
4.9965935
20
13.2241788
40
0.7769248
50
169.5837241
51
180.2757934
0
ARC
8
DEFAULT_255_1_234
10
4.8128873
20
13.2581229
40
0.590109
50
155.0365899
51
169.6003176
0
ARC
8
DEFAULT_255_1_234
10
4.6993337
20
13.3128677
40
0.4640625
50
136.783148
51
155.2472683
0
ARC
8
DEFAULT_255_1_234
10
4.6603814
20
13.3459562
40
0.4130255
50
121.7633186
51
136.428115
0
ARC
8
DEFAULT_255_1_234
10
4.6738776
20
13.3210227
40
0.4413323
50
95.6459699
51
121.5490577
0
ARC
8
DEFAULT_255_1_234
10
4.6896058
20
13.2101949
40
0.55319
50
89.924208
51
96.1377933
0
ARC
8
DEFAULT_255_1_234
10
4.6946491
20
13.2220542
40
0.5413475
50
76.6779277
51
90.4563316
0
ARC
8
DEFAULT_255_1_234
10
4.7340114
20
13.3811114
40
0.3775041
50
47.485847
51
76.9287264
0
ARC
8
DEFAULT_255_1_234
10
4.7193087
20
13.3711159
40
0.3948286
50
16.5424086
51
46.8933463
0
ARC
8
DEFAULT_255_1_234
10
4.5585244
20
13.3182861
40
0.564021
50
5.4072051
51
17.0365086
0
ARC
8
DEFAULT_255_1_234
10
4.4146261
20
13.2951679
40
0.5556559
50
7.8891745
51
15.9239216
0
ARC
8
DEFAULT_255_1_234
10
4.6133274
20
13.3528631
40
0.3487515
50
15.7653144
51
27.9410532
0
ARC
8
DEFAULT_255_1_234
10
4.7237492
20
13.411979
40
0.2235026
50
27.8166557
51
46.4008329
0
ARC
8
DEFAULT_255_1_234
10
4.7287135
20
13.4114082
40
0.2205286
50
47.4371857
51
75.0698205
0
ARC
8
DEFAULT_255_1_234
10
4.6978529
20
13.3039765
40
0.3322915
50
74.7008593
51
87.8124495
0
ARC
8
DEFAULT_255_1_234
10
4.6905217
20
13.1983844
40
0.4380987
50
87.3814673
51
90.0240855
0
ARC
8
DEFAULT_255_1_234
10
4.686676
20
13.3161291
40
0.3203749
50
89.3451631
51
108.5745436
0
ARC
8
DEFAULT_255_1_234
10
4.6729865
20
13.3674908
40
0.2673494
50
109.2998449
51
143.3037509
0
ARC
8
DEFAULT_255_1_234
10
4.7491938
20
13.3088881
40
0.3634757
50
143.0753173
51
163.1916937
0
ARC
8
DEFAULT_255_1_234
10
4.9443666
20
13.2472967
40
0.5681262
50
162.9373603
51
174.6208611
0
ARC
8
DEFAULT_255_1_234
10
5.2069708
20
13.218501
40
0.8322832
50
174.3419979
51
180.1430411
0
ARC
8
DEFAULT_255_1_234
10
5.1138864
20
13.0990698
40
0.7392076
50
179.6817502
51
189.150529
0
ARC
8
DEFAULT_255_1_234
10
4.8638112
20
13.057419
40
0.4856932
50
188.9910863
51
203.5773039
0
ARC
8
DEFAULT_255_1_234
10
4.7558445
20
13.0126211
40
0.3688271
50
203.9077269
51
215.1312379
0
ARC
8
DEFAULT_255_1_234
10
4.6635539
20
12.9410941
40
0.2522457
50
213.9071664
51
263.8849284
0
ARC
8
DEFAULT_255_1_234
10
4.6760868
20
13.0195518
40
0.3316174
50
263.1758525
51
270.1031083
0
ARC
8
DEFAULT_255_1_234
10
4.679296
20
13.1442365
40
0.4563091
50
269.6719807
51
279.0609165
0
ARC
8
DEFAULT_255_1_234
10
4.7059728
20
12.9829907
40
0.2928759
50
278.8750225
51
293.6346586
0
ARC
8
DEFAULT_255_1_234
10
4.7379936
20
12.90779
40
0.2111472
50
293.8553404
51
310.0518804
0
ARC
8
DEFAULT_255_1_234
10
4.738479
20
12.9015516
40
0.2060917
50
311.0646779
51
332.0108348
0
ARC
8
DEFAULT_255_1_234
10
4.6192517
20
12.9672978
40
0.3422352
50
331.6588543
51
343.2878891
0
ARC
8
DEFAULT_255_1_234
10
4.4130032
20
13.0306798
40
0.5580003
50
343.1446044
51
351.010618
0
ARC
8
DEFAULT_255_1_234
10
4.2588678
20
13.0587871
40
0.7146438
50
350.7157277
51
351.1602153
0
LINE
8
DEFAULT_255_1_234
10
6.2300218
20
13.1987534
11
6.2300218
21
13.1248614
0
LINE
8
DEFAULT_255_1_234
10
5.2895052
20
13.1144201
11
5.2895052
21
13.1987534
0
LINE
8
DEFAULT_255_1_234
10
6.0766156
20
13.1136169
11
6.0766156
21
13.2003597
0
LINE
8
DEFAULT_255_1_234
10
5.4429114
20
13.210801
11
5.4429114
21
13.1248614
0
ARC
8
DEFAULT_255_1_234
10
5.3658244
20
13.1209015
40
0.8642064
50
350.487711
51
0.2625388
0
ARC
8
DEFAULT_255_1_234
10
5.5951486
20
13.0814578
40
0.631518
50
336.0277639
51
350.5787438
0
ARC
8
DEFAULT_255_1_234
10
5.7296309
20
13.0206892
40
0.4839466
50
319.8877444
51
336.1328423
0
ARC
8
DEFAULT_255_1_234
10
5.789895
20
12.972458
40
0.4067874
50
302.4806467
51
319.6143626
0
ARC
8
DEFAULT_255_1_234
10
5.778396
20
12.9946202
40
0.4316636
50
275.8195682
51
302.1884709
0
ARC
8
DEFAULT_255_1_234
10
5.7617593
20
13.1088665
40
0.5470306
50
269.9171439
51
276.3397983
0
ARC
8
DEFAULT_255_1_234
10
5.7572803
20
13.0402681
40
0.4784458
50
252.5219675
51
270.4416499
0
ARC
8
DEFAULT_255_1_234
10
5.7429062
20
12.9863592
40
0.422716
50
237.5352116
51
252.1857531
0
ARC
8
DEFAULT_255_1_234
10
5.7518258
20
12.9977363
40
0.4371052
50
209.063312
51
237.3492538
0
ARC
8
DEFAULT_255_1_234
10
5.8388106
20
13.0523685
40
0.5397041
50
205.1183774
51
209.6470015
0
ARC
8
DEFAULT_255_1_234
10
5.9185143
20
13.086183
40
0.6262326
50
188.7215458
51
204.8240747
0
ARC
8
DEFAULT_255_1_234
10
6.1182671
20
13.1198067
40
0.8287794
50
180.3723947
51
188.9252049
0
ARC
8
DEFAULT_255_1_234
10
6.1155423
20
13.2027402
40
0.8260467
50
169.5253763
51
180.2765336
0
ARC
8
DEFAULT_255_1_234
10
5.9252871
20
13.2377309
40
0.6326007
50
155.8315255
51
169.5089989
0
ARC
8
DEFAULT_255_1_234
10
5.7972373
20
13.2971348
40
0.4914567
50
139.6258461
51
156.0379525
0
ARC
8
DEFAULT_255_1_234
10
5.7382706
20
13.3445799
40
0.4158054
50
122.6416387
51
139.3430715
0
ARC
8
DEFAULT_255_1_234
10
5.7483326
20
13.3262451
40
0.4366739
50
93.0223692
51
122.455762
0
ARC
8
DEFAULT_255_1_234
10
5.7591323
20
13.2297709
40
0.5336137
50
89.975342
51
93.6341897
0
ARC
8
DEFAULT_255_1_234
10
5.7630102
20
13.2696242
40
0.4937738
50
73.746375
51
90.4233405
0
ARC
8
DEFAULT_255_1_234
10
5.7805681
20
13.3376287
40
0.4235786
50
57.662753
51
73.4518111
0
ARC
8
DEFAULT_255_1_234
10
5.7797687
20
13.3397832
40
0.4221899
50
29.1440151
51
57.414694
0
ARC
8
DEFAULT_255_1_234
10
5.6862882
20
13.2814005
40
0.5322966
50
24.0982783
51
29.7323517
0
ARC
8
DEFAULT_255_1_234
10
5.5829157
20
13.2385399
40
0.6441673
50
8.6655297
51
23.8241346
0
ARC
8
DEFAULT_255_1_234
10
5.3594895
20
13.2020854
40
0.8705386
50
359.7806941
51
8.8218784
0
ARC
8
DEFAULT_255_1_234
10
5.2447893
20
13.2046345
40
0.8318373
50
359.7055579
51
8.036044
0
ARC
8
DEFAULT_255_1_234
10
5.5447899
20
13.2483239
40
0.5286768
50
7.8928306
51
20.2962107
0
ARC
8
DEFAULT_255_1_234
10
5.707547
20
13.3083395
40
0.3552073
50
20.3231126
51
36.4992797
0
ARC
8
DEFAULT_255_1_234
10
5.7761016
20
13.3611402
40
0.2686974
50
36.1437156
51
85.6627023
0
ARC
8
DEFAULT_255_1_234
10
5.7598562
20
13.2571221
40
0.373739
50
84.3852322
51
90.0757696
0
ARC
8
DEFAULT_255_1_234
10
5.7556234
20
13.3231839
40
0.3076997
50
89.3038458
51
109.9045693
0
ARC
8
DEFAULT_255_1_234
10
5.7463625
20
13.3614062
40
0.2686424
50
110.8228367
51
143.9179474
0
ARC
8
DEFAULT_255_1_234
10
5.8397285
20
13.2901236
40
0.3860887
50
143.5289163
51
163.2980757
0
ARC
8
DEFAULT_255_1_234
10
6.0305106
20
13.2301433
40
0.5860659
50
163.0418846
51
174.3140048
0
ARC
8
DEFAULT_255_1_234
10
6.2709218
20
13.2023854
40
0.8280531
50
174.0509143
51
179.4176892
0
ARC
8
DEFAULT_255_1_234
10
6.2204957
20
13.1206954
40
0.7775954
50
179.6930361
51
188.7906598
0
ARC
8
DEFAULT_255_1_234
10
5.9541436
20
13.0780935
40
0.5078633
50
188.6331305
51
202.5629587
0
ARC
8
DEFAULT_255_1_234
10
5.8287028
20
13.0276996
40
0.3726913
50
202.8081362
51
216.1193925
0
ARC
8
DEFAULT_255_1_234
10
5.7477598
20
12.9625676
40
0.2689577
50
215.0755913
51
264.6379694
0
ARC
8
DEFAULT_255_1_234
10
5.7604548
20
13.0456513
40
0.3528978
50
263.846392
51
270.0833719
0
ARC
8
DEFAULT_255_1_234
10
5.7645938
20
13.0198374
40
0.3271036
50
269.3649385
51
287.5152008
0
ARC
8
DEFAULT_255_1_234
10
5.7824096
20
12.9551238
40
0.2600406
50
288.0630309
51
323.8113348
0
ARC
8
DEFAULT_255_1_234
10
5.6952937
20
13.0201049
40
0.3687189
50
323.6547608
51
342.6590488
0
ARC
8
DEFAULT_255_1_234
10
5.4921552
20
13.0861952
40
0.5823286
50
342.4091907
51
353.6451149
0
ARC
8
DEFAULT_255_1_234
10
5.2090063
20
13.121419
40
0.8676442
50
353.4029884
51
359.4847795
0
LINE
8
DEFAULT_255_1_234
10
6.4613358
20
13.7473211
11
6.6605229
21
13.7473211
0
LINE
8
DEFAULT_255_1_234
10
6.6605229
20
13.7473211
11
7.0428337
21
12.7931506
0
LINE
8
DEFAULT_255_1_234
10
7.0428337
20
12.7931506
11
7.4251444
21
13.7473211
0
LINE
8
DEFAULT_255_1_234
10
7.4251444
20
13.7473211
11
7.6251347
21
13.7473211
0
LINE
8
DEFAULT_255_1_234
10
7.6251347
20
13.7473211
11
7.6251347
21
12.5779
0
LINE
8
DEFAULT_255_1_234
10
7.6251347
20
12.5779
11
7.4709253
21
12.5779
0
LINE
8
DEFAULT_255_1_234
10
7.4709253
20
12.5779
11
7.4709253
21
13.0332996
0
LINE
8
DEFAULT_255_1_234
10
7.4709253
20
13.0332996
11
7.4853825
21
13.5248419
0
LINE
8
DEFAULT_255_1_234
10
7.4853825
20
13.5248419
11
7.1014654
21
12.5779
0
LINE
8
DEFAULT_255_1_234
10
7.1014654
20
12.5779
11
6.9833988
21
12.5779
0
LINE
8
DEFAULT_255_1_234
10
6.9833988
20
12.5779
11
6.6002849
21
13.5224324
0
LINE
8
DEFAULT_255_1_234
10
6.6002849
20
13.5224324
11
6.6155452
21
13.0332996
0
LINE
8
DEFAULT_255_1_234
10
6.6155452
20
13.0332996
11
6.6155452
21
12.5779
0
LINE
8
DEFAULT_255_1_234
10
6.6155452
20
12.5779
11
6.4613358
21
12.5779
0
LINE
8
DEFAULT_255_1_234
10
6.4613358
20
12.5779
11
6.4613358
21
13.7473211
0
LINE
8
DEFAULT_255_1_234
10
8.347188
20
13.7529433
11
8.347188
21
12.5779
0
LINE
8
DEFAULT_255_1_234
10
8.347188
20
12.5779
11
8.1977977
21
12.5779
0
LINE
8
DEFAULT_255_1_234
10
8.1977977
20
12.5779
11
8.1977977
21
13.5682133
0
LINE
8
DEFAULT_255_1_234
10
8.1977977
20
13.5682133
11
7.8982138
21
13.4581785
0
LINE
8
DEFAULT_255_1_234
10
7.8982138
20
13.4581785
11
7.8982138
21
13.5931117
0
LINE
8
DEFAULT_255_1_234
10
7.8982138
20
13.5931117
11
8.3238959
21
13.7529433
0
LINE
8
DEFAULT_255_1_234
10
8.3238959
20
13.7529433
11
8.347188
21
13.7529433
0
LINE
8
DEFAULT_255_1_234
10
4.9046023
20
21.3466849
11
4.7495897
21
21.3466849
0
LINE
8
DEFAULT_255_1_234
10
4.0572539
20
20.8543394
11
4.2122665
21
20.8543394
0
ARC
8
DEFAULT_255_1_234
10
4.815471
20
22.2413768
40
1.252368
50
248.9199003
51
254.1439814
0
ARC
8
DEFAULT_255_1_234
10
4.6474205
20
21.8087234
40
0.788226
50
241.633709
51
249.0064503
0
ARC
8
DEFAULT_255_1_234
10
4.49456
20
21.5286317
40
0.4691427
50
230.498225
51
241.8087113
0
ARC
8
DEFAULT_255_1_234
10
4.4161174
20
21.4286906
40
0.3421437
50
227.4064532
51
229.9881192
0
ARC
8
DEFAULT_255_1_234
10
4.3673694
20
21.3811088
40
0.2741476
50
200.6781896
51
228.1763934
0
ARC
8
DEFAULT_255_1_234
10
4.3746005
20
21.3796077
40
0.2804109
50
179.5061581
51
199.8694617
0
ARC
8
DEFAULT_255_1_234
10
4.3736757
20
21.387021
40
0.2795204
50
132.4834203
51
181.0242172
0
ARC
8
DEFAULT_255_1_234
10
4.4332339
20
21.3307704
40
0.3612768
50
129.2532479
51
133.4242687
0
ARC
8
DEFAULT_255_1_234
10
4.4478789
20
21.3087965
40
0.3875675
50
101.98776
51
128.8742646
0
ARC
8
DEFAULT_255_1_234
10
4.4877399
20
21.1366741
40
0.5642249
50
89.5906553
51
102.3169264
0
ARC
8
DEFAULT_255_1_234
10
4.4947891
20
21.1685148
40
0.5323783
50
77.2360837
51
90.3248275
0
ARC
8
DEFAULT_255_1_234
10
4.5154971
20
21.26524
40
0.4334697
50
63.837784
51
77.0809408
0
ARC
8
DEFAULT_255_1_234
10
4.5432732
20
21.3169911
40
0.3747796
50
45.9864267
51
64.1607727
0
ARC
8
DEFAULT_255_1_234
10
4.5693614
20
21.3467866
40
0.3352302
50
32.2747395
51
45.6547121
0
ARC
8
DEFAULT_255_1_234
10
4.5760054
20
21.348688
40
0.328603
50
359.6507365
51
32.6130309
0
ARC
8
DEFAULT_255_1_234
10
4.481715
20
21.349166
40
0.2678863
50
359.469343
51
14.9832209
0
ARC
8
DEFAULT_255_1_234
10
4.5522212
20
21.3680539
40
0.1948938
50
14.9781179
51
48.2004265
0
ARC
8
DEFAULT_255_1_234
10
4.5357856
20
21.3473983
40
0.2212521
50
48.5927837
51
74.1241538
0
ARC
8
DEFAULT_255_1_234
10
4.5024346
20
21.2373248
40
0.3362561
50
73.7888341
51
86.6652678
0
ARC
8
DEFAULT_255_1_234
10
4.4921911
20
21.1165881
40
0.4573953
50
86.2640471
51
90.0526343
0
ARC
8
DEFAULT_255_1_234
10
4.4893624
20
21.1561192
40
0.4178709
50
89.6697524
51
99.2309573
0
ARC
8
DEFAULT_255_1_234
10
4.4651075
20
21.3005964
40
0.2713749
50
99.069534
51
113.7658566
0
ARC
8
DEFAULT_255_1_234
10
4.4377266
20
21.3651677
40
0.2012469
50
114.0401004
51
127.9850673
0
ARC
8
DEFAULT_255_1_234
10
4.413683
20
21.394773
40
0.1631167
50
127.7287463
51
176.7105154
0
ARC
8
DEFAULT_255_1_234
10
4.4815547
20
21.3846693
40
0.2315392
50
175.1779447
51
180.0581938
0
ARC
8
DEFAULT_255_1_234
10
4.3972394
20
21.3834428
40
0.1472271
50
179.6142195
51
228.1246017
0
ARC
8
DEFAULT_255_1_234
10
4.4414063
20
21.4243308
40
0.2072299
50
226.5779593
51
230.8800004
0
ARC
8
DEFAULT_255_1_234
10
4.4885141
20
21.4868636
40
0.2854818
50
231.4635071
51
241.9260842
0
ARC
8
DEFAULT_255_1_234
10
4.6082319
20
21.70718
40
0.53622
50
241.7178533
51
248.3259551
0
ARC
8
DEFAULT_255_1_234
10
4.7467691
20
22.0504064
40
0.9063478
50
248.2007737
51
252.4528373
0
ARC
8
DEFAULT_255_1_234
10
4.8671416
20
22.4225441
40
1.2974635
50
252.3391078
51
254.3469452
0
ARC
8
DEFAULT_255_1_234
10
4.1129119
20
19.7248148
40
1.5037162
50
71.0197183
51
74.4087047
0
ARC
8
DEFAULT_255_1_234
10
4.2823804
20
20.2140111
40
0.9859993
50
66.1847285
51
71.086374
0
ARC
8
DEFAULT_255_1_234
10
4.4380116
20
20.56442
40
0.6025855
50
59.3536294
51
66.2691831
0
ARC
8
DEFAULT_255_1_234
10
4.5268769
20
20.7147609
40
0.4279449
50
49.1020879
51
59.3293958
0
ARC
8
DEFAULT_255_1_234
10
4.6087509
20
20.8080834
40
0.3038015
50
32.7919921
51
49.2505539
0
ARC
8
DEFAULT_255_1_234
10
4.6408599
20
20.8309191
40
0.264448
50
31.1181161
51
32.4005348
0
ARC
8
DEFAULT_255_1_234
10
4.6320136
20
20.8273779
40
0.2738556
50
8.1116974
51
30.7958831
0
ARC
8
DEFAULT_255_1_234
10
4.5509804
20
20.8135753
40
0.3560327
50
359.8389159
51
8.4706516
0
ARC
8
DEFAULT_255_1_234
10
4.6135596
20
20.8087137
40
0.2934776
50
337.4731098
51
0.7537279
0
ARC
8
DEFAULT_255_1_234
10
4.6314291
20
20.8067387
40
0.2762607
50
307.5917067
51
336.4315538
0
ARC
8
DEFAULT_255_1_234
10
4.5854119
20
20.8580102
40
0.3449979
50
307.6551545
51
308.4529766
0
ARC
8
DEFAULT_255_1_234
10
4.5623838
20
20.893525
40
0.3871988
50
284.3734338
51
307.1424381
0
ARC
8
DEFAULT_255_1_234
10
4.5128668
20
21.0756932
40
0.5759636
50
272.4382747
51
284.646547
0
ARC
8
DEFAULT_255_1_234
10
4.5001876
20
21.2556893
40
0.7563528
50
269.9708387
51
272.8178037
0
ARC
8
DEFAULT_255_1_234
10
4.4958916
20
21.0518716
40
0.5525489
50
248.2707594
51
270.4055579
0
ARC
8
DEFAULT_255_1_234
10
4.4904657
20
21.0328192
40
0.5328452
50
246.1383403
51
248.0542782
0
ARC
8
DEFAULT_255_1_234
10
4.4486036
20
20.9448843
40
0.4355005
50
233.1670131
51
246.4950969
0
ARC
8
DEFAULT_255_1_234
10
4.3931941
20
20.8700812
40
0.3424126
50
215.3403242
51
233.0843104
0
ARC
8
DEFAULT_255_1_234
10
4.3659372
20
20.8502549
40
0.3087104
50
179.2419209
51
215.2648451
0
ARC
8
DEFAULT_255_1_234
10
4.4426966
20
20.8516666
40
0.2304457
50
179.335461
51
199.1045811
0
ARC
8
DEFAULT_255_1_234
10
4.4094643
20
20.8429766
40
0.1962176
50
199.8828939
51
232.7063202
0
ARC
8
DEFAULT_255_1_234
10
4.4566911
20
20.9023788
40
0.2720938
50
232.3738199
51
255.5136649
0
ARC
8
DEFAULT_255_1_234
10
4.4907778
20
21.0267835
40
0.4010747
50
255.2446292
51
267.5320849
0
ARC
8
DEFAULT_255_1_234
10
4.4995401
20
21.1500702
40
0.5246356
50
267.1557994
51
270.0286766
0
ARC
8
DEFAULT_255_1_234
10
4.5023173
20
21.105695
40
0.4802668
50
269.7000017
51
278.1660162
0
ARC
8
DEFAULT_255_1_234
10
4.5279178
20
20.9326515
40
0.3053425
50
278.0231263
51
290.625471
0
ARC
8
DEFAULT_255_1_234
10
4.5626865
20
20.8399025
40
0.206291
50
290.6619762
51
307.0370976
0
ARC
8
DEFAULT_255_1_234
10
4.5927254
20
20.8030504
40
0.1587906
50
306.3943566
51
355.3030547
0
ARC
8
DEFAULT_255_1_234
10
4.5415186
20
20.8107113
40
0.2104809
50
354.3660432
51
0.0698737
0
ARC
8
DEFAULT_255_1_234
10
4.5557531
20
20.8129617
40
0.1962563
50
359.417946
51
16.1971788
0
ARC
8
DEFAULT_255_1_234
10
4.6012841
20
20.8254418
40
0.149053
50
16.4723299
51
52.6262157
0
ARC
8
DEFAULT_255_1_234
10
4.5191895
20
20.7170433
40
0.2850296
50
52.7386432
51
62.4979148
0
ARC
8
DEFAULT_255_1_234
10
4.3806972
20
20.4564283
40
0.5801521
50
62.2515216
51
68.1220564
0
ARC
8
DEFAULT_255_1_234
10
4.2086883
20
20.0336872
40
1.0365451
50
68.0062803
51
71.8053402
0
ARC
8
DEFAULT_255_1_234
10
4.0291255
20
19.4951758
40
1.6042013
50
71.7183119
51
73.9258742
0
LINE
8
DEFAULT_255_1_234
10
5.4282716
20
20.5154
11
5.1045926
21
20.5154
0
LINE
8
DEFAULT_255_1_234
10
5.1045926
20
20.5154
11
5.1045926
21
21.6848211
0
LINE
8
DEFAULT_255_1_234
10
5.1045926
20
21.6848211
11
5.434697
21
21.6848211
0
LINE
8
DEFAULT_255_1_234
10
5.9503346
20
21.1394661
11
5.9503346
21
21.0647709
0
LINE
8
DEFAULT_255_1_234
10
5.4387129
20
21.5579196
11
5.258802
21
21.5579196
0
LINE
8
DEFAULT_255_1_234
10
5.258802
20
21.5579196
11
5.258802
21
20.6414983
0
LINE
8
DEFAULT_255_1_234
10
5.258802
20
20.6414983
11
5.4210431
21
20.6414983
0
LINE
8
DEFAULT_255_1_234
10
5.7977316
20
21.0679836
11
5.7977316
21
21.1362534
0
ARC
8
DEFAULT_255_1_234
10
5.4385913
20
21.0982894
40
0.5865446
50
75.4101064
51
90.3804066
0
ARC
8
DEFAULT_255_1_234
10
5.4615426
20
21.1939492
40
0.4881916
50
60.145586
51
75.1888407
0
ARC
8
DEFAULT_255_1_234
10
5.4774202
20
21.2216199
40
0.4562893
50
26.5253612
51
60.1450928
0
ARC
8
DEFAULT_255_1_234
10
5.3653951
20
21.1622158
40
0.5830602
50
7.4030428
51
26.8320788
0
ARC
8
DEFAULT_255_1_234
10
5.2059708
20
21.1373804
40
0.7443669
50
0.1605367
51
7.7176192
0
ARC
8
DEFAULT_255_1_234
10
5.2223612
20
21.0609434
40
0.7279835
50
348.7289388
51
0.3012466
0
ARC
8
DEFAULT_255_1_234
10
5.3880043
20
21.0280386
40
0.559104
50
333.0706509
51
348.7181832
0
ARC
8
DEFAULT_255_1_234
10
5.48468
20
20.9755319
40
0.4491417
50
299.2531685
51
333.4571258
0
ARC
8
DEFAULT_255_1_234
10
5.448594
20
21.0440828
40
0.5265881
50
278.107187
51
299.0339503
0
ARC
8
DEFAULT_255_1_234
10
5.4230019
20
21.1948216
40
0.679442
50
270.4443897
51
278.4511052
0
ARC
8
DEFAULT_255_1_234
10
5.4250849
20
21.1019213
40
0.4604407
50
269.4970433
51
284.0205042
0
ARC
8
DEFAULT_255_1_234
10
5.460615
20
20.9653978
40
0.3193797
50
283.7700273
51
318.1555492
0
ARC
8
DEFAULT_255_1_234
10
5.4268908
20
20.9906367
40
0.3613588
50
318.7415601
51
343.6873628
0
ARC
8
DEFAULT_255_1_234
10
5.2464931
20
21.0469832
40
0.5503313
50
343.3325091
51
355.8548958
0
ARC
8
DEFAULT_255_1_234
10
5.0366616
20
21.0669319
40
0.7610708
50
355.4988528
51
0.0791727
0
ARC
8
DEFAULT_255_1_234
10
5.1149238
20
21.140478
40
0.6828208
50
359.6455037
51
9.8607896
0
ARC
8
DEFAULT_255_1_234
10
5.3509936
20
21.1831099
40
0.4429406
50
9.6571907
51
26.1932807
0
ARC
8
DEFAULT_255_1_234
10
5.4437925
20
21.2262118
40
0.3406537
50
26.5777228
51
40.1532208
0
ARC
8
DEFAULT_255_1_234
10
5.4693651
20
21.2461619
40
0.308246
50
40.3840491
51
80.1431104
0
ARC
8
DEFAULT_255_1_234
10
5.4366769
20
21.1012333
40
0.4566909
50
79.2152159
51
89.7445637
0
LINE
8
DEFAULT_255_1_234
10
4.8298484
20
29.1195343
11
4.8298484
21
28.993436
0
LINE
8
DEFAULT_255_1_234
10
4.8298484
20
28.993436
11
4.3230458
21
28.993436
0
LINE
8
DEFAULT_255_1_234
10
4.3230458
20
28.993436
11
4.3230458
21
28.5789983
0
LINE
8
DEFAULT_255_1_234
10
4.3230458
20
28.5789983
11
4.9117722
21
28.5789983
0
LINE
8
DEFAULT_255_1_234
10
4.9117722
20
28.5789983
11
4.9117722
21
28.4529
0
LINE
8
DEFAULT_255_1_234
10
4.9117722
20
28.4529
11
4.1688364
21
28.4529
0
LINE
8
DEFAULT_255_1_234
10
4.1688364
20
28.4529
11
4.1688364
21
29.6223211
0
LINE
8
DEFAULT_255_1_234
10
4.1688364
20
29.6223211
11
4.9037404
21
29.6223211
0
LINE
8
DEFAULT_255_1_234
10
4.9037404
20
29.6223211
11
4.9037404
21
29.4954196
0
LINE
8
DEFAULT_255_1_234
10
4.9037404
20
29.4954196
11
4.3230458
21
29.4954196
0
LINE
8
DEFAULT_255_1_234
10
4.3230458
20
29.4954196
11
4.3230458
21
29.1195343
0
LINE
8
DEFAULT_255_1_234
10
4.3230458
20
29.1195343
11
4.8298484
21
29.1195343
0
LINE
8
DEFAULT_255_1_234
10
5.9277871
20
29.6223211
11
5.9277871
21
29.4954196
0
LINE
8
DEFAULT_255_1_234
10
5.9277871
20
29.4954196
11
5.5519017
21
29.4954196
0
LINE
8
DEFAULT_255_1_234
10
5.5519017
20
29.4954196
11
5.5519017
21
28.4529
0
LINE
8
DEFAULT_255_1_234
10
5.5519017
20
28.4529
11
5.3984955
21
28.4529
0
LINE
8
DEFAULT_255_1_234
10
5.3984955
20
28.4529
11
5.3984955
21
29.4954196
0
LINE
8
DEFAULT_255_1_234
10
5.3984955
20
29.4954196
11
5.0234133
21
29.4954196
0
LINE
8
DEFAULT_255_1_234
10
5.0234133
20
29.4954196
11
5.0234133
21
29.6223211
0
LINE
8
DEFAULT_255_1_234
10
5.0234133
20
29.6223211
11
5.9277871
21
29.6223211
0
LINE
8
DEFAULT_255_1_234
10
7.0000241
20
29.6223211
11
7.0000241
21
28.4529
0
LINE
8
DEFAULT_255_1_234
10
7.0000241
20
28.4529
11
6.8450116
21
28.4529
0
LINE
8
DEFAULT_255_1_234
10
6.8450116
20
28.4529
11
6.8450116
21
28.993436
0
LINE
8
DEFAULT_255_1_234
10
6.8450116
20
28.993436
11
6.255482
21
28.993436
0
LINE
8
DEFAULT_255_1_234
10
6.255482
20
28.993436
11
6.255482
21
28.4529
0
LINE
8
DEFAULT_255_1_234
10
6.255482
20
28.4529
11
6.1012726
21
28.4529
0
LINE
8
DEFAULT_255_1_234
10
6.1012726
20
28.4529
11
6.1012726
21
29.6223211
0
LINE
8
DEFAULT_255_1_234
10
6.1012726
20
29.6223211
11
6.255482
21
29.6223211
0
LINE
8
DEFAULT_255_1_234
10
6.255482
20
29.6223211
11
6.255482
21
29.1195343
0
LINE
8
DEFAULT_255_1_234
10
6.255482
20
29.1195343
11
6.8450116
21
29.1195343
0
LINE
8
DEFAULT_255_1_234
10
6.8450116
20
29.1195343
11
6.8450116
21
29.6223211
0
LINE
8
DEFAULT_255_1_234
10
6.8450116
20
29.6223211
11
7.0000241
21
29.6223211
0
LINE
8
DEFAULT_255_1_234
10
4.2446489
20
37.5598211
11
4.2446489
21
36.5164983
0
LINE
8
DEFAULT_255_1_234
10
4.2446489
20
36.5164983
11
4.7988389
21
36.5164983
0
LINE
8
DEFAULT_255_1_234
10
4.7988389
20
36.5164983
11
4.7988389
21
36.3904
0
LINE
8
DEFAULT_255_1_234
10
4.7988389
20
36.3904
11
4.0896364
21
36.3904
0
LINE
8
DEFAULT_255_1_234
10
4.0896364
20
36.3904
11
4.0896364
21
37.5598211
0
LINE
8
DEFAULT_255_1_234
10
4.0896364
20
37.5598211
11
4.2446489
21
37.5598211
0
LINE
8
DEFAULT_255_1_234
10
5.377124
20
37.3590276
11
5.377124
21
37.0176788
0
LINE
8
DEFAULT_255_1_234
10
5.377124
20
37.0176788
11
5.7032126
21
37.0176788
0
LINE
8
DEFAULT_255_1_234
10
5.7032126
20
37.0176788
11
5.7032126
21
36.8771233
0
LINE
8
DEFAULT_255_1_234
10
5.7032126
20
36.8771233
11
5.377124
21
36.8771233
0
LINE
8
DEFAULT_255_1_234
10
5.377124
20
36.8771233
11
5.377124
21
36.5076634
0
LINE
8
DEFAULT_255_1_234
10
5.377124
20
36.5076634
11
5.2277337
21
36.5076634
0
LINE
8
DEFAULT_255_1_234
10
5.2277337
20
36.5076634
11
5.2277337
21
36.8771233
0
LINE
8
DEFAULT_255_1_234
10
5.2277337
20
36.8771233
11
4.9016451
21
36.8771233
0
LINE
8
DEFAULT_255_1_234
10
4.9016451
20
36.8771233
11
4.9016451
21
37.0176788
0
LINE
8
DEFAULT_255_1_234
10
4.9016451
20
37.0176788
11
5.2277337
21
37.0176788
0
LINE
8
DEFAULT_255_1_234
10
5.2277337
20
37.0176788
11
5.2277337
21
37.3590276
0
LINE
8
DEFAULT_255_1_234
10
5.2277337
20
37.3590276
11
5.377124
21
37.3590276
0
LINE
8
DEFAULT_255_1_234
10
23.1660817
20
45.0194327
11
23.1660817
21
44.8266709
0
LINE
8
DEFAULT_255_1_234
10
22.427965
20
44.8065916
11
22.427965
21
45.0049755
0
LINE
8
DEFAULT_255_1_234
10
23.0174946
20
44.7865123
11
23.0174946
21
45.0298739
0
LINE
8
DEFAULT_255_1_234
10
22.5765521
20
45.0411184
11
22.5765521
21
44.8033789
0
ARC
8
DEFAULT_255_1_234
10
21.9413707
20
44.8217805
40
1.2247208
50
353.8441951
51
0.2287902
0
ARC
8
DEFAULT_255_1_234
10
22.4053211
20
44.7699806
40
0.7578929
50
344.4934747
51
353.9765454
0
ARC
8
DEFAULT_255_1_234
10
22.7045801
20
44.6848981
40
0.4467846
50
329.2803592
51
344.7472793
0
ARC
8
DEFAULT_255_1_234
10
22.8038626
20
44.6304018
40
0.3336173
50
324.9352394
51
328.6160465
0
ARC
8
DEFAULT_255_1_234
10
22.8415734
20
44.6040427
40
0.2876076
50
280.580143
51
324.9173126
0
ARC
8
DEFAULT_255_1_234
10
22.8014527
20
44.7711099
40
0.4592847
50
269.5977311
51
281.6734359
0
ARC
8
DEFAULT_255_1_234
10
22.7942433
20
44.7591173
40
0.4472986
50
256.6228859
51
270.51044
0
ARC
8
DEFAULT_255_1_234
10
22.754041
20
44.6042877
40
0.2873874
50
215.8618325
51
257.2788573
0
ARC
8
DEFAULT_255_1_234
10
22.8561442
20
44.6727977
40
0.4102928
50
197.9693508
51
215.2623606
0
ARC
8
DEFAULT_255_1_234
10
23.1046558
20
44.7566709
40
0.6725652
50
187.8816417
51
198.2346507
0
ARC
8
DEFAULT_255_1_234
10
23.5004766
20
44.8138079
40
1.0724845
50
180.8976217
51
188.0055519
0
ARC
8
DEFAULT_255_1_234
10
23.7804954
20
44.8241777
40
1.3526448
50
180.7449369
51
181.1510016
0
ARC
8
DEFAULT_255_1_234
10
23.6227683
20
45.0098042
40
1.1948131
50
173.7675579
51
180.231553
0
ARC
8
DEFAULT_255_1_234
10
23.170983
20
45.0608666
40
0.7401564
50
164.3058563
51
173.9002247
0
ARC
8
DEFAULT_255_1_234
10
22.8797899
20
45.1447656
40
0.4371288
50
148.7922025
51
164.568378
0
ARC
8
DEFAULT_255_1_234
10
22.7846351
20
45.1978929
40
0.3282386
50
144.5883898
51
148.1176286
0
ARC
8
DEFAULT_255_1_234
10
22.7503249
20
45.2218315
40
0.2864044
50
101.6440918
51
144.514236
0
ARC
8
DEFAULT_255_1_234
10
22.7928315
20
45.0529069
40
0.4604934
50
89.5284041
51
102.5819763
0
ARC
8
DEFAULT_255_1_234
10
22.8007403
20
45.0490018
40
0.464401
50
77.0437873
51
90.5081339
0
ARC
8
DEFAULT_255_1_234
10
22.8409405
20
45.2132615
40
0.2953195
50
48.2778575
51
77.4994676
0
ARC
8
DEFAULT_255_1_234
10
22.8482036
20
45.2261746
40
0.2808655
50
36.3142134
51
47.6305865
0
ARC
8
DEFAULT_255_1_234
10
22.7613343
20
45.1676515
40
0.3855453
50
18.2931786
51
35.6769206
0
ARC
8
DEFAULT_255_1_234
10
22.5070102
20
45.0803593
40
0.654423
50
8.024666
51
18.5605216
0
ARC
8
DEFAULT_255_1_234
10
22.0907022
20
45.0188792
40
1.0752407
50
1.1274072
51
8.1718305
0
ARC
8
DEFAULT_255_1_234
10
21.7671213
20
45.0061885
40
1.3990231
50
0.5424119
51
1.3863029
0
ARC
8
DEFAULT_255_1_234
10
21.949259
20
45.0334342
40
1.0682415
50
359.8090433
51
4.9407866
0
ARC
8
DEFAULT_255_1_234
10
22.3702604
20
45.0710113
40
0.6455691
50
4.8362157
51
12.2904523
0
ARC
8
DEFAULT_255_1_234
10
22.6457719
20
45.1323965
40
0.3633074
50
12.0805627
51
23.8173984
0
ARC
8
DEFAULT_255_1_234
10
22.7631425
20
45.1820919
40
0.2358723
50
24.2871213
51
31.3935614
0
ARC
8
DEFAULT_255_1_234
10
22.8156122
20
45.2164233
40
0.1732111
50
30.7407893
51
82.4657128
0
ARC
8
DEFAULT_255_1_234
10
22.7976256
20
45.1280691
40
0.263235
50
81.1060089
51
90.2184952
0
ARC
8
DEFAULT_255_1_234
10
22.7940555
20
45.1538924
40
0.2374236
50
89.3806855
51
105.6762551
0
ARC
8
DEFAULT_255_1_234
10
22.7757186
20
45.2205567
40
0.1682847
50
105.7981136
51
149.7388061
0
ARC
8
DEFAULT_255_1_234
10
22.8821264
20
45.156595
40
0.2924306
50
149.4208916
51
163.6286378
0
ARC
8
DEFAULT_255_1_234
10
23.0912152
20
45.092825
40
0.5110213
50
163.3763315
51
172.1410975
0
ARC
8
DEFAULT_255_1_234
10
23.4212871
20
45.0455518
40
0.8444586
50
172.0259487
51
178.0703232
0
ARC
8
DEFAULT_255_1_234
10
23.724296
20
45.0311906
40
1.1477868
50
177.8631668
51
179.5044149
0
ARC
8
DEFAULT_255_1_234
10
23.6170365
20
44.7997389
40
1.0404907
50
179.7995573
51
185.2460446
0
ARC
8
DEFAULT_255_1_234
10
23.2127404
20
44.7614513
40
0.6343885
50
185.1411642
51
193.0079639
0
ARC
8
DEFAULT_255_1_234
10
22.9483877
20
44.6989641
40
0.3627568
50
192.7897626
51
205.2507664
0
ARC
8
DEFAULT_255_1_234
10
22.8437424
20
44.6522415
40
0.2481908
50
205.8005384
51
211.2537509
0
ARC
8
DEFAULT_255_1_234
10
22.7913864
20
44.617158
40
0.1852521
50
210.3789793
51
238.4008143
0
ARC
8
DEFAULT_255_1_234
10
22.7894386
20
44.6218376
40
0.1882621
50
239.6520629
51
265.9793761
0
ARC
8
DEFAULT_255_1_234
10
22.7979586
20
44.6890427
40
0.2559272
50
265.1315437
51
270.060332
0
ARC
8
DEFAULT_255_1_234
10
22.8008365
20
44.6566534
40
0.2235528
50
269.3314664
51
287.2178029
0
ARC
8
DEFAULT_255_1_234
10
22.8146217
20
44.6063279
40
0.1714108
50
287.7958004
51
329.080874
0
ARC
8
DEFAULT_255_1_234
10
22.7188674
20
44.666093
40
0.2842745
50
328.6634704
51
343.3325132
0
ARC
8
DEFAULT_255_1_234
10
22.5015694
20
44.7337863
40
0.5118644
50
343.0499468
51
351.9393422
0
ARC
8
DEFAULT_255_1_234
10
22.1548994
20
44.7848949
40
0.8622784
50
351.8069023
51
357.7959224
0
ARC
8
DEFAULT_255_1_234
10
21.831355
20
44.8016721
40
1.1862365
50
357.5871873
51
359.2677531
0
LINE
8
DEFAULT_255_1_234
10
23.4496021
20
45.4973211
11
23.7821161
21
44.5327093
0
LINE
8
DEFAULT_255_1_234
10
23.7821161
20
44.5327093
11
24.1162364
21
45.4973211
0
LINE
8
DEFAULT_255_1_234
10
24.1162364
20
45.4973211
11
24.2849029
21
45.4973211
0
LINE
8
DEFAULT_255_1_234
10
24.2849029
20
45.4973211
11
23.851189
21
44.3279
0
LINE
8
DEFAULT_255_1_234
10
23.851189
20
44.3279
11
23.7146495
21
44.3279
0
LINE
8
DEFAULT_255_1_234
10
23.7146495
20
44.3279
11
23.2817388
21
45.4973211
0
LINE
8
DEFAULT_255_1_234
10
23.2817388
20
45.4973211
11
23.4496021
21
45.4973211
0
ENDSEC
0
EOF