0
SECTION
2
HEADER
9
$MEASUREMENT
70
1
0
ENDSEC
0
SECTION
2
TABLES
0
TABLE
2
LTYPE
0
LTYPE
72
65
70
64
2
CONTINUOUS
3
______
73
0
40
0
0
ENDTAB
0
TABLE
2
LAYER
0
LAYER
2
DEFAULT_255_2_778
70
0
62
255
6
CONTINUOUS
0
ENDTAB
0
ENDSEC
0
SECTION
2
ENTITIES
0
LINE
8
DEFAULT_255_2_778
10
4.0921367
20
61.3807051
11
23.8964367
21
61.4109051
0
LINE
8
DEFAULT_255_2_778
10
23.8964367
20
61.4109051
11
23.8964367
21
69.0163051
0
LINE
8
DEFAULT_255_2_778
10
23.8964367
20
69.0163051
11
4.0921367
21
68.9861051
0
LINE
8
DEFAULT_255_2_778
10
4.0921367
20
68.9861051
11
4.0921367
21
61.3807051
0
ARC
8
DEFAULT_255_2_778
10
8.6577666
20
128.1797611
40
1.1996124
50
34.5300737
51
60.8802495
0
ARC
8
DEFAULT_255_2_778
10
8.7416934
20
129.8663954
40
0.8109988
50
308.0491147
51
358.929955
0
ARC
8
DEFAULT_255_2_778
10
8.7610377
20
129.8632529
40
0.7916042
50
359.1312199
51
359.9996328
0
ARC
8
DEFAULT_255_2_778
10
8.732465
20
129.8687127
40
0.820195
50
359.618246
51
33.7320906
0
ARC
8
DEFAULT_255_2_778
10
8.8227315
20
129.9354968
40
0.7080602
50
33.2939363
51
89.707857
0
ARC
8
DEFAULT_255_2_778
10
8.7321332
20
128.0468096
40
1.0835445
50
272.7882332
51
302.6915225
0
ARC
8
DEFAULT_255_2_778
10
8.6782325
20
128.1017975
40
1.1590402
50
303.4658001
51
348.5142331
0
ARC
8
DEFAULT_255_2_778
10
8.5389546
20
128.1448773
40
1.3041877
50
347.8779309
51
0.0558183
0
ARC
8
DEFAULT_255_2_778
10
8.5674915
20
128.1700438
40
1.2758741
50
358.9268412
51
23.9900455
0
ARC
8
DEFAULT_255_2_778
10
8.9609021
20
128.3199059
40
0.8558273
50
25.5324185
51
29.1630639
0
ARC
8
DEFAULT_255_2_778
10
5.8565149
20
128.1794357
40
1.1999218
50
34.5387681
51
60.8856547
0
ARC
8
DEFAULT_255_2_778
10
5.9408072
20
129.8663691
40
0.8107847
50
308.0327964
51
358.9315319
0
ARC
8
DEFAULT_255_2_778
10
5.9599377
20
129.8632529
40
0.7916042
50
359.1312199
51
359.9996328
0
ARC
8
DEFAULT_255_2_778
10
5.9314523
20
129.8686957
40
0.8201076
50
359.6193926
51
33.7425645
0
ARC
8
DEFAULT_255_2_778
10
6.0215742
20
129.9354467
40
0.7081108
50
33.3018293
51
89.7032397
0
ARC
8
DEFAULT_255_2_778
10
5.9309446
20
128.0470091
40
1.0837432
50
272.7871146
51
302.6883666
0
ARC
8
DEFAULT_255_2_778
10
5.8771778
20
128.1017936
40
1.1589946
50
303.4627429
51
348.5139736
0
ARC
8
DEFAULT_255_2_778
10
5.7378897
20
128.1448755
40
1.3041527
50
347.8776838
51
0.0559012
0
ARC
8
DEFAULT_255_2_778
10
5.7665742
20
128.1698716
40
1.2756882
50
358.934418
51
24.0022263
0
ARC
8
DEFAULT_255_2_778
10
6.1587496
20
128.3193747
40
0.856918
50
25.5369445
51
29.1630432
0
LINE
8
DEFAULT_255_2_778
10
3.7013418
20
128.8597479
11
3.1100418
21
130.6435479
0
LINE
8
DEFAULT_255_2_778
10
3.1100418
20
130.6435479
11
2.6639418
21
130.6435479
0
LINE
8
DEFAULT_255_2_778
10
2.6639418
20
130.6435479
11
2.6639418
21
128.8597479
0
LINE
8
DEFAULT_255_2_778
10
2.6639418
20
128.8597479
11
3.7013418
21
128.8597479
0
LINE
8
DEFAULT_255_2_778
10
2.6639418
20
127.7447479
11
3.2137418
21
127.7447479
0
LINE
8
DEFAULT_255_2_778
10
3.2137418
20
127.7447479
11
3.4627418
21
126.9642479
0
LINE
8
DEFAULT_255_2_778
10
3.4627418
20
126.9642479
11
4.3239418
21
126.9642479
0
LINE
8
DEFAULT_255_2_778
10
4.3239418
20
126.9642479
11
3.7326418
21
128.7480479
0
LINE
8
DEFAULT_255_2_778
10
3.7326418
20
128.7480479
11
2.6639418
21
128.7480479
0
LINE
8
DEFAULT_255_2_778
10
2.6639418
20
128.7480479
11
2.6639418
21
127.7447479
0
LINE
8
DEFAULT_255_2_778
10
2.5602418
20
130.6435479
11
2.1141418
21
130.6435479
0
LINE
8
DEFAULT_255_2_778
10
2.1141418
20
130.6435479
11
1.5228418
21
128.8597479
0
LINE
8
DEFAULT_255_2_778
10
1.5228418
20
128.8597479
11
2.5602418
21
128.8597479
0
LINE
8
DEFAULT_255_2_778
10
2.5602418
20
128.8597479
11
2.5602418
21
130.6435479
0
LINE
8
DEFAULT_255_2_778
10
1.4915418
20
128.7483479
11
0.9002418
21
126.9645479
0
LINE
8
DEFAULT_255_2_778
10
0.9002418
20
126.9645479
11
1.7614418
21
126.9645479
0
LINE
8
DEFAULT_255_2_778
10
1.7614418
20
126.9645479
11
2.0104418
21
127.7450479
0
LINE
8
DEFAULT_255_2_778
10
2.0104418
20
127.7450479
11
2.5602418
21
127.7450479
0
LINE
8
DEFAULT_255_2_778
10
2.5602418
20
127.7450479
11
2.5602418
21
128.7483479
0
LINE
8
DEFAULT_255_2_778
10
2.5602418
20
128.7483479
11
1.4915418
21
128.7483479
0
LINE
8
DEFAULT_255_2_778
10
7.4362418
20
130.6435479
11
8.4736418
21
130.6435479
0
LINE
8
DEFAULT_255_2_778
10
8.4736418
20
130.6435479
11
8.4736418
21
128.8597479
0
LINE
8
DEFAULT_255_2_778
10
8.4736418
20
128.8597479
11
7.4362418
21
128.8597479
0
LINE
8
DEFAULT_255_2_778
10
7.4362418
20
128.8597479
11
7.4362418
21
130.6435479
0
LINE
8
DEFAULT_255_2_778
10
8.8263418
20
130.6435479
11
8.5773418
21
130.6435479
0
LINE
8
DEFAULT_255_2_778
10
8.5773418
20
130.6435479
11
8.5773418
21
128.8597479
0
LINE
8
DEFAULT_255_2_778
10
8.5773418
20
128.8597479
11
9.6460418
21
128.8597479
0
LINE
8
DEFAULT_255_2_778
10
9.6460418
20
128.8597479
11
9.6460418
21
128.8597479
0
LINE
8
DEFAULT_255_2_778
10
7.4362418
20
128.7483479
11
8.4736418
21
128.7483479
0
LINE
8
DEFAULT_255_2_778
10
8.4736418
20
128.7483479
11
8.4736418
21
126.9645479
0
LINE
8
DEFAULT_255_2_778
10
8.4736418
20
126.9645479
11
7.4362418
21
126.9645479
0
LINE
8
DEFAULT_255_2_778
10
7.4362418
20
126.9645479
11
7.4362418
21
128.7483479
0
LINE
8
DEFAULT_255_2_778
10
8.5773418
20
126.9645479
11
8.7848418
21
126.9645479
0
LINE
8
DEFAULT_255_2_778
10
9.7082418
20
128.7369479
11
8.5773418
21
128.7369479
0
LINE
8
DEFAULT_255_2_778
10
8.5773418
20
128.7369479
11
8.5773418
21
126.9642479
0
LINE
8
DEFAULT_255_2_778
10
8.5773418
20
126.9642479
11
8.5773418
21
126.9645479
0
LINE
8
DEFAULT_255_2_778
10
4.6351418
20
130.6435479
11
5.6725418
21
130.6435479
0
LINE
8
DEFAULT_255_2_778
10
5.6725418
20
130.6435479
11
5.6725418
21
128.8597479
0
LINE
8
DEFAULT_255_2_778
10
5.6725418
20
128.8597479
11
4.6351418
21
128.8597479
0
LINE
8
DEFAULT_255_2_778
10
4.6351418
20
128.8597479
11
4.6351418
21
130.6435479
0
LINE
8
DEFAULT_255_2_778
10
6.0252418
20
130.6435479
11
5.7762418
21
130.6435479
0
LINE
8
DEFAULT_255_2_778
10
5.7762418
20
130.6435479
11
5.7762418
21
128.8597479
0
LINE
8
DEFAULT_255_2_778
10
5.7762418
20
128.8597479
11
6.8449418
21
128.8597479
0
LINE
8
DEFAULT_255_2_778
10
6.8449418
20
128.8597479
11
6.8449418
21
128.8597479
0
LINE
8
DEFAULT_255_2_778
10
4.6351418
20
128.7483479
11
5.6725418
21
128.7483479
0
LINE
8
DEFAULT_255_2_778
10
5.6725418
20
128.7483479
11
5.6725418
21
126.9645479
0
LINE
8
DEFAULT_255_2_778
10
5.6725418
20
126.9645479
11
4.6351418
21
126.9645479
0
LINE
8
DEFAULT_255_2_778
10
4.6351418
20
126.9645479
11
4.6351418
21
128.7483479
0
LINE
8
DEFAULT_255_2_778
10
5.7762418
20
126.9645479
11
5.9836418
21
126.9645479
0
LINE
8
DEFAULT_255_2_778
10
6.9070418
20
128.7369479
11
5.7762418
21
128.7369479
0
LINE
8
DEFAULT_255_2_778
10
5.7762418
20
128.7369479
11
5.7762418
21
126.9642479
0
LINE
8
DEFAULT_255_2_778
10
5.7762418
20
126.9642479
11
5.7762418
21
126.9645479
0
LINE
8
DEFAULT_255_2_778
10
28.0485837
20
59.2597
11
0.1551837
21
59.2597
0
LINE
8
DEFAULT_255_2_778
10
0.1552
20
125.8585668
11
0.1552
21
59.2600668
0
LINE
8
DEFAULT_255_2_778
10
0.1551702
20
131.585269
11
0.1551702
21
134.766569
0
LINE
8
DEFAULT_255_2_778
10
0.1551702
20
134.766569
11
28.1552702
21
134.766569
0
LINE
8
DEFAULT_255_2_778
10
28.1552702
20
134.766569
11
28.1552702
21
-0.233331
0
LINE
8
DEFAULT_255_2_778
10
28.1552702
20
-0.233331
11
0.1551702
21
-0.233331
0
LINE
8
DEFAULT_255_2_778
10
0.1551702
20
-0.233331
11
0.1551702
21
59.259769
0
LINE
8
DEFAULT_255_2_778
10
0.1552
20
125.8586208
11
0.1552
21
131.5852208
0
LINE
8
DEFAULT_255_2_778
10
0.1551702
20
125.8586208
11
28.1552702
21
125.8586208
0
LINE
8
DEFAULT_255_2_778
10
28.1552702
20
125.8586208
11
28.1552702
21
131.5852208
0
LINE
8
DEFAULT_255_2_778
10
28.1552702
20
131.5852208
11
0.1551702
21
131.5852208
0
LINE
8
DEFAULT_255_2_778
10
6.3299815
20
45.3675787
11
21.2349815
21
45.3675787
0
LINE
8
DEFAULT_255_2_778
10
21.2349815
20
45.3675787
11
21.2349815
21
13.5529787
0
LINE
8
DEFAULT_255_2_778
10
21.2349815
20
13.5529787
11
6.3299815
21
13.5529787
0
LINE
8
DEFAULT_255_2_778
10
6.3299815
20
13.5529787
11
6.3299815
21
45.3675787
0
LINE
8
DEFAULT_255_2_778
10
21.3413815
20
29.5664
11
6.4363815
21
29.5664
0
LINE
8
DEFAULT_255_2_778
10
15.966147
20
35.6375373
11
15.966147
21
36.1148373
0
LINE
8
DEFAULT_255_2_778
10
14.551447
20
35.6375373
11
14.551447
21
36.1148373
0
LINE
8
DEFAULT_255_2_778
10
15.966147
20
38.6201373
11
15.966147
21
39.0707373
0
LINE
8
DEFAULT_255_2_778
10
14.551447
20
38.6201373
11
14.551447
21
39.0707373
0
LINE
8
DEFAULT_255_2_778
10
15.966147
20
39.6805373
11
15.966147
21
40.1311373
0
LINE
8
DEFAULT_255_2_778
10
14.551447
20
39.6805373
11
14.551447
21
40.1311373
0
LINE
8
DEFAULT_255_2_778
10
15.966147
20
34.0997373
11
15.966147
21
33.7020373
0
LINE
8
DEFAULT_255_2_778
10
14.551447
20
34.0865373
11
14.551447
21
33.7020373
0
LINE
8
DEFAULT_255_2_778
10
14.551447
20
33.7020373
11
13.463247
21
33.7020373
0
LINE
8
DEFAULT_255_2_778
10
13.463247
20
33.7020373
11
13.463247
21
32.8183373
0
LINE
8
DEFAULT_255_2_778
10
13.463247
20
32.8183373
11
18.360647
21
32.8183373
0
LINE
8
DEFAULT_255_2_778
10
15.966447
20
35.0408373
11
15.966447
21
34.6564373
0
LINE
8
DEFAULT_255_2_778
10
18.305147
20
34.1262373
11
13.463247
21
34.1262373
0
LINE
8
DEFAULT_255_2_778
10
13.463247
20
34.1262373
11
13.463247
21
34.6564373
0
LINE
8
DEFAULT_255_2_778
10
13.463247
20
34.6564373
11
14.551447
21
34.6564373
0
LINE
8
DEFAULT_255_2_778
10
15.966147
20
37.0556373
11
15.966147
21
36.6712373
0
LINE
8
DEFAULT_255_2_778
10
18.304847
20
36.1410373
11
13.463247
21
36.1410373
0
LINE
8
DEFAULT_255_2_778
10
13.463247
20
36.1410373
11
13.463247
21
36.6712373
0
LINE
8
DEFAULT_255_2_778
10
13.463247
20
36.6712373
11
14.551447
21
36.6712373
0
LINE
8
DEFAULT_255_2_778
10
15.966147
20
37.9967373
11
15.966147
21
37.6255373
0
LINE
8
DEFAULT_255_2_778
10
18.304847
20
37.0953373
11
13.463247
21
37.0953373
0
LINE
8
DEFAULT_255_2_778
10
13.463247
20
37.0953373
11
13.463247
21
37.6255373
0
LINE
8
DEFAULT_255_2_778
10
13.463247
20
37.6255373
11
14.551447
21
37.6255373
0
LINE
8
DEFAULT_255_2_778
10
15.966147
20
40.7407373
11
15.966147
21
41.2313373
0
LINE
8
DEFAULT_255_2_778
10
18.304847
20
41.2313373
11
15.966147
21
41.2313373
0
LINE
8
DEFAULT_255_2_778
10
15.966147
20
41.2313373
11
14.551447
21
41.2313373
0
LINE
8
DEFAULT_255_2_778
10
14.551447
20
41.2313373
11
13.463247
21
41.2313373
0
LINE
8
DEFAULT_255_2_778
10
13.463247
20
41.2313373
11
13.463247
21
42.1856373
0
LINE
8
DEFAULT_255_2_778
10
13.463247
20
42.1856373
11
18.360647
21
42.1856373
0
LINE
8
DEFAULT_255_2_778
10
14.551747
20
40.7407373
11
14.551747
21
41.2313373
0
LINE
8
DEFAULT_255_2_778
10
18.360647
20
33.7018373
11
15.966447
21
33.7018373
0
LINE
8
DEFAULT_255_2_778
10
15.966447
20
33.7018373
11
14.551747
21
33.7018373
0
LINE
8
DEFAULT_255_2_778
10
18.360647
20
34.6561373
11
15.966447
21
34.6561373
0
LINE
8
DEFAULT_255_2_778
10
15.966447
20
34.6561373
11
14.551747
21
34.6561373
0
LINE
8
DEFAULT_255_2_778
10
14.551747
20
34.6561373
11
14.551747
21
35.0538373
0
LINE
8
DEFAULT_255_2_778
10
18.305147
20
35.0802373
11
13.463247
21
35.0802373
0
LINE
8
DEFAULT_255_2_778
10
13.463247
20
35.0802373
11
13.463247
21
35.6105373
0
LINE
8
DEFAULT_255_2_778
10
13.463247
20
35.6105373
11
18.360647
21
35.6105373
0
LINE
8
DEFAULT_255_2_778
10
18.360647
20
36.6709373
11
15.966447
21
36.6709373
0
LINE
8
DEFAULT_255_2_778
10
15.966447
20
36.6709373
11
14.551747
21
36.6709373
0
LINE
8
DEFAULT_255_2_778
10
14.551747
20
36.6709373
11
14.551747
21
37.0559373
0
LINE
8
DEFAULT_255_2_778
10
18.360647
20
37.6258373
11
15.966447
21
37.6258373
0
LINE
8
DEFAULT_255_2_778
10
15.966447
20
37.6258373
11
14.551747
21
37.6258373
0
LINE
8
DEFAULT_255_2_778
10
14.551747
20
37.6258373
11
14.551747
21
38.0102373
0
LINE
8
DEFAULT_255_2_778
10
18.305147
20
38.0499373
11
13.463247
21
38.0499373
0
LINE
8
DEFAULT_255_2_778
10
13.463247
20
38.0499373
11
13.463247
21
38.5801373
0
LINE
8
DEFAULT_255_2_778
10
13.463247
20
38.5801373
11
18.360647
21
38.5801373
0
LINE
8
DEFAULT_255_2_778
10
18.305147
20
39.1104373
11
13.463247
21
39.1104373
0
LINE
8
DEFAULT_255_2_778
10
13.463247
20
39.1104373
11
13.463247
21
39.6406373
0
LINE
8
DEFAULT_255_2_778
10
13.463247
20
39.6406373
11
18.360647
21
39.6406373
0
LINE
8
DEFAULT_255_2_778
10
18.305147
20
40.1708373
11
13.463247
21
40.1708373
0
LINE
8
DEFAULT_255_2_778
10
13.463247
20
40.1708373
11
13.463247
21
40.7010373
0
LINE
8
DEFAULT_255_2_778
10
13.463247
20
40.7010373
11
18.360647
21
40.7010373
0
LINE
8
DEFAULT_255_2_778
10
18.360647
20
31.3687373
11
18.360647
21
32.8181373
0
LINE
8
DEFAULT_255_2_778
10
18.360647
20
32.8181373
11
18.360647
21
33.7018373
0
LINE
8
DEFAULT_255_2_778
10
18.360647
20
33.7018373
11
18.360647
21
34.6561373
0
LINE
8
DEFAULT_255_2_778
10
18.360647
20
34.6561373
11
18.360647
21
35.6105373
0
LINE
8
DEFAULT_255_2_778
10
18.360647
20
35.6105373
11
18.360647
21
36.6709373
0
LINE
8
DEFAULT_255_2_778
10
18.360647
20
36.6709373
11
18.360647
21
37.6253373
0
LINE
8
DEFAULT_255_2_778
10
18.360647
20
37.6253373
11
18.360647
21
38.5796373
0
LINE
8
DEFAULT_255_2_778
10
18.360647
20
38.5796373
11
18.360647
21
39.6401373
0
LINE
8
DEFAULT_255_2_778
10
18.360647
20
39.6401373
11
18.360647
21
40.7005373
0
LINE
8
DEFAULT_255_2_778
10
18.360647
20
40.7005373
11
18.360647
21
42.1851373
0
LINE
8
DEFAULT_255_2_778
10
18.360647
20
42.1851373
11
18.360647
21
43.2985373
0
LINE
8
DEFAULT_255_2_778
10
11.706647
20
31.3679373
11
18.360647
21
31.3679373
0
LINE
8
DEFAULT_255_2_778
10
18.360647
20
31.3679373
11
19.425347
21
31.3679373
0
LINE
8
DEFAULT_255_2_778
10
19.425347
20
31.3679373
11
19.425347
21
43.3514373
0
LINE
8
DEFAULT_255_2_778
10
19.425347
20
43.3514373
11
11.630747
21
43.3514373
0
LINE
8
DEFAULT_255_2_778
10
10.162547
20
41.2834373
11
9.417247
21
41.2834373
0
LINE
8
DEFAULT_255_2_778
10
9.417247
20
41.2834373
11
9.417247
21
39.4276373
0
LINE
8
DEFAULT_255_2_778
10
9.417247
20
39.4276373
11
7.500847
21
39.4276373
0
LINE
8
DEFAULT_255_2_778
10
7.500847
20
39.4276373
11
7.500847
21
35.2916373
0
LINE
8
DEFAULT_255_2_778
10
7.500847
20
35.2916373
11
9.523547
21
35.2916373
0
LINE
8
DEFAULT_255_2_778
10
9.523547
20
35.2916373
11
9.523547
21
33.4888373
0
LINE
8
DEFAULT_255_2_778
10
9.523547
20
33.4888373
11
10.162247
21
33.4888373
0
LINE
8
DEFAULT_255_2_778
10
10.162247
20
33.4888373
11
10.162247
21
30.7892373
0
LINE
8
DEFAULT_255_2_778
10
10.162247
20
30.7892373
11
11.652647
21
30.7892373
0
LINE
8
DEFAULT_255_2_778
10
11.652647
20
30.7892373
11
11.652647
21
33.4888373
0
LINE
8
DEFAULT_255_2_778
10
11.652647
20
33.4888373
11
10.162247
21
33.4888373
0
LINE
8
DEFAULT_255_2_778
10
10.184547
20
41.2879373
11
11.630447
21
41.2879373
0
LINE
8
DEFAULT_255_2_778
10
11.630447
20
41.2879373
11
11.630447
21
43.3514373
0
LINE
8
DEFAULT_255_2_778
10
11.630447
20
43.3514373
11
11.630447
21
43.9877373
0
LINE
8
DEFAULT_255_2_778
10
11.630447
20
43.9877373
11
10.184547
21
43.9877373
0
LINE
8
DEFAULT_255_2_778
10
10.184547
20
43.9877373
11
10.184547
21
41.2879373
0
LINE
8
DEFAULT_255_2_778
10
10.162247
20
33.4888373
11
11.652647
21
33.4888373
0
LINE
8
DEFAULT_255_2_778
10
11.652647
20
33.4888373
11
11.652647
21
30.7892373
0
LINE
8
DEFAULT_255_2_778
10
11.652647
20
30.7892373
11
10.162247
21
30.7892373
0
LINE
8
DEFAULT_255_2_778
10
10.162247
20
30.7892373
11
10.162247
21
33.4888373
0
LINE
8
DEFAULT_255_2_778
10
15.753147
20
19.5183373
11
15.753147
21
19.9956373
0
LINE
8
DEFAULT_255_2_778
10
14.338447
20
19.5183373
11
14.338447
21
19.9956373
0
LINE
8
DEFAULT_255_2_778
10
15.753147
20
22.5009373
11
15.753147
21
22.9515373
0
LINE
8
DEFAULT_255_2_778
10
14.338447
20
22.5009373
11
14.338447
21
22.9515373
0
LINE
8
DEFAULT_255_2_778
10
15.753147
20
23.5614373
11
15.753147
21
24.0120373
0
LINE
8
DEFAULT_255_2_778
10
14.338447
20
23.5614373
11
14.338447
21
24.0120373
0
LINE
8
DEFAULT_255_2_778
10
15.753147
20
17.9805373
11
15.753147
21
17.5829373
0
LINE
8
DEFAULT_255_2_778
10
14.338447
20
17.9673373
11
14.338447
21
17.5829373
0
LINE
8
DEFAULT_255_2_778
10
14.338447
20
17.5829373
11
13.250247
21
17.5829373
0
LINE
8
DEFAULT_255_2_778
10
13.250247
20
17.5829373
11
13.250247
21
16.6991373
0
LINE
8
DEFAULT_255_2_778
10
13.250247
20
16.6991373
11
18.147647
21
16.6991373
0
LINE
8
DEFAULT_255_2_778
10
15.753447
20
18.9216373
11
15.753447
21
18.5372373
0
LINE
8
DEFAULT_255_2_778
10
18.092147
20
18.0070373
11
13.250247
21
18.0070373
0
LINE
8
DEFAULT_255_2_778
10
13.250247
20
18.0070373
11
13.250247
21
18.5372373
0
LINE
8
DEFAULT_255_2_778
10
13.250247
20
18.5372373
11
14.338447
21
18.5372373
0
LINE
8
DEFAULT_255_2_778
10
15.753147
20
20.9364373
11
15.753147
21
20.5520373
0
LINE
8
DEFAULT_255_2_778
10
18.091847
20
20.0218373
11
13.250247
21
20.0218373
0
LINE
8
DEFAULT_255_2_778
10
13.250247
20
20.0218373
11
13.250247
21
20.5520373
0
LINE
8
DEFAULT_255_2_778
10
13.250247
20
20.5520373
11
14.338447
21
20.5520373
0
LINE
8
DEFAULT_255_2_778
10
15.753147
20
21.8776373
11
15.753147
21
21.5064373
0
LINE
8
DEFAULT_255_2_778
10
18.091847
20
20.9761373
11
13.250247
21
20.9761373
0
LINE
8
DEFAULT_255_2_778
10
13.250247
20
20.9761373
11
13.250247
21
21.5064373
0
LINE
8
DEFAULT_255_2_778
10
13.250247
20
21.5064373
11
14.338447
21
21.5064373
0
LINE
8
DEFAULT_255_2_778
10
15.753147
20
24.6216373
11
15.753147
21
25.1121373
0
LINE
8
DEFAULT_255_2_778
10
18.091847
20
25.1121373
11
15.753147
21
25.1121373
0
LINE
8
DEFAULT_255_2_778
10
15.753147
20
25.1121373
11
14.338447
21
25.1121373
0
LINE
8
DEFAULT_255_2_778
10
14.338447
20
25.1121373
11
13.250247
21
25.1121373
0
LINE
8
DEFAULT_255_2_778
10
13.250247
20
25.1121373
11
13.250247
21
26.0665373
0
LINE
8
DEFAULT_255_2_778
10
13.250247
20
26.0665373
11
18.147647
21
26.0665373
0
LINE
8
DEFAULT_255_2_778
10
14.338747
20
24.6216373
11
14.338747
21
25.1121373
0
LINE
8
DEFAULT_255_2_778
10
18.147647
20
17.5826373
11
15.753447
21
17.5826373
0
LINE
8
DEFAULT_255_2_778
10
15.753447
20
17.5826373
11
14.338747
21
17.5826373
0
LINE
8
DEFAULT_255_2_778
10
18.147647
20
18.5369373
11
15.753447
21
18.5369373
0
LINE
8
DEFAULT_255_2_778
10
15.753447
20
18.5369373
11
14.338747
21
18.5369373
0
LINE
8
DEFAULT_255_2_778
10
14.338747
20
18.5369373
11
14.338747
21
18.9346373
0
LINE
8
DEFAULT_255_2_778
10
18.092147
20
18.9611373
11
13.250247
21
18.9611373
0
LINE
8
DEFAULT_255_2_778
10
13.250247
20
18.9611373
11
13.250247
21
19.4913373
0
LINE
8
DEFAULT_255_2_778
10
13.250247
20
19.4913373
11
18.147647
21
19.4913373
0
LINE
8
DEFAULT_255_2_778
10
18.147647
20
20.5517373
11
15.753447
21
20.5517373
0
LINE
8
DEFAULT_255_2_778
10
15.753447
20
20.5517373
11
14.338747
21
20.5517373
0
LINE
8
DEFAULT_255_2_778
10
14.338747
20
20.5517373
11
14.338747
21
20.9362373
0
LINE
8
DEFAULT_255_2_778
10
18.147647
20
21.5061373
11
15.753447
21
21.5061373
0
LINE
8
DEFAULT_255_2_778
10
15.753447
20
21.5061373
11
14.338747
21
21.5061373
0
LINE
8
DEFAULT_255_2_778
10
14.338747
20
21.5061373
11
14.338747
21
21.8905373
0
LINE
8
DEFAULT_255_2_778
10
18.092147
20
21.9302373
11
13.250247
21
21.9302373
0
LINE
8
DEFAULT_255_2_778
10
13.250247
20
21.9302373
11
13.250247
21
22.4604373
0
LINE
8
DEFAULT_255_2_778
10
13.250247
20
22.4604373
11
18.147647
21
22.4604373
0
LINE
8
DEFAULT_255_2_778
10
18.092147
20
22.9907373
11
13.250247
21
22.9907373
0
LINE
8
DEFAULT_255_2_778
10
13.250247
20
22.9907373
11
13.250247
21
23.5209373
0
LINE
8
DEFAULT_255_2_778
10
13.250247
20
23.5209373
11
18.147647
21
23.5209373
0
LINE
8
DEFAULT_255_2_778
10
18.092147
20
24.0511373
11
13.250247
21
24.0511373
0
LINE
8
DEFAULT_255_2_778
10
13.250247
20
24.0511373
11
13.250247
21
24.5813373
0
LINE
8
DEFAULT_255_2_778
10
13.250247
20
24.5813373
11
18.147647
21
24.5813373
0
LINE
8
DEFAULT_255_2_778
10
18.147647
20
15.2490373
11
18.147647
21
16.6984373
0
LINE
8
DEFAULT_255_2_778
10
18.147647
20
16.6984373
11
18.147647
21
17.5821373
0
LINE
8
DEFAULT_255_2_778
10
18.147647
20
17.5821373
11
18.147647
21
18.5364373
0
LINE
8
DEFAULT_255_2_778
10
18.147647
20
18.5364373
11
18.147647
21
19.4908373
0
LINE
8
DEFAULT_255_2_778
10
18.147647
20
19.4908373
11
18.147647
21
20.5512373
0
LINE
8
DEFAULT_255_2_778
10
18.147647
20
20.5512373
11
18.147647
21
21.5056373
0
LINE
8
DEFAULT_255_2_778
10
18.147647
20
21.5056373
11
18.147647
21
22.4599373
0
LINE
8
DEFAULT_255_2_778
10
18.147647
20
22.4599373
11
18.147647
21
23.5204373
0
LINE
8
DEFAULT_255_2_778
10
18.147647
20
23.5204373
11
18.147647
21
24.5808373
0
LINE
8
DEFAULT_255_2_778
10
18.147647
20
24.5808373
11
18.147647
21
26.0654373
0
LINE
8
DEFAULT_255_2_778
10
18.147647
20
26.0654373
11
18.147647
21
27.1788373
0
LINE
8
DEFAULT_255_2_778
10
11.493647
20
15.2482373
11
18.147647
21
15.2482373
0
LINE
8
DEFAULT_255_2_778
10
18.147647
20
15.2482373
11
19.212347
21
15.2482373
0
LINE
8
DEFAULT_255_2_778
10
19.212347
20
15.2482373
11
19.212347
21
27.2317373
0
LINE
8
DEFAULT_255_2_778
10
19.212347
20
27.2317373
11
11.417747
21
27.2317373
0
LINE
8
DEFAULT_255_2_778
10
9.949547
20
25.1637373
11
9.204247
21
25.1637373
0
LINE
8
DEFAULT_255_2_778
10
9.204247
20
25.1637373
11
9.204247
21
23.3079373
0
LINE
8
DEFAULT_255_2_778
10
9.204247
20
23.3079373
11
7.287847
21
23.3079373
0
LINE
8
DEFAULT_255_2_778
10
7.287847
20
23.3079373
11
7.287847
21
19.1719373
0
LINE
8
DEFAULT_255_2_778
10
7.287847
20
19.1719373
11
9.310547
21
19.1719373
0
LINE
8
DEFAULT_255_2_778
10
9.310547
20
19.1719373
11
9.310547
21
17.3691373
0
LINE
8
DEFAULT_255_2_778
10
9.310547
20
17.3691373
11
9.949247
21
17.3691373
0
LINE
8
DEFAULT_255_2_778
10
9.949247
20
17.3691373
11
9.949247
21
14.6695373
0
LINE
8
DEFAULT_255_2_778
10
9.949247
20
14.6695373
11
11.439647
21
14.6695373
0
LINE
8
DEFAULT_255_2_778
10
11.439647
20
14.6695373
11
11.439647
21
17.3691373
0
LINE
8
DEFAULT_255_2_778
10
11.439647
20
17.3691373
11
9.949247
21
17.3691373
0
LINE
8
DEFAULT_255_2_778
10
9.971547
20
25.1682373
11
11.417447
21
25.1682373
0
LINE
8
DEFAULT_255_2_778
10
11.417447
20
25.1682373
11
11.417447
21
27.2317373
0
LINE
8
DEFAULT_255_2_778
10
11.417447
20
27.2317373
11
11.417447
21
27.8680373
0
LINE
8
DEFAULT_255_2_778
10
11.417447
20
27.8680373
11
9.971547
21
27.8680373
0
LINE
8
DEFAULT_255_2_778
10
9.971547
20
27.8680373
11
9.971547
21
25.1682373
0
LINE
8
DEFAULT_255_2_778
10
9.949247
20
17.3691373
11
11.439647
21
17.3691373
0
LINE
8
DEFAULT_255_2_778
10
11.439647
20
17.3691373
11
11.439647
21
14.6695373
0
LINE
8
DEFAULT_255_2_778
10
11.439647
20
14.6695373
11
9.949247
21
14.6695373
0
LINE
8
DEFAULT_255_2_778
10
9.949247
20
14.6695373
11
9.949247
21
17.3691373
0
LINE
8
DEFAULT_255_2_778
10
8.9298261
20
116.3140135
11
10.3757261
21
116.3140135
0
LINE
8
DEFAULT_255_2_778
10
10.3757261
20
116.3140135
11
10.3757261
21
119.0622135
0
LINE
8
DEFAULT_255_2_778
10
10.3757261
20
119.0622135
11
8.9298261
21
119.0622135
0
LINE
8
DEFAULT_255_2_778
10
8.9298261
20
119.0622135
11
8.9298261
21
116.3140135
0
LINE
8
DEFAULT_255_2_778
10
8.9914261
20
112.0812135
11
10.4373261
21
112.0812135
0
LINE
8
DEFAULT_255_2_778
10
10.4373261
20
112.0812135
11
10.4373261
21
114.8294135
0
LINE
8
DEFAULT_255_2_778
10
10.4373261
20
114.8294135
11
8.9914261
21
114.8294135
0
LINE
8
DEFAULT_255_2_778
10
8.9914261
20
114.8294135
11
8.9914261
21
112.0812135
0
LINE
8
DEFAULT_255_2_778
10
8.9914261
20
107.8391135
11
10.4373261
21
107.8391135
0
LINE
8
DEFAULT_255_2_778
10
10.4373261
20
107.8391135
11
10.4373261
21
110.5873135
0
LINE
8
DEFAULT_255_2_778
10
10.4373261
20
110.5873135
11
8.9914261
21
110.5873135
0
LINE
8
DEFAULT_255_2_778
10
8.9914261
20
110.5873135
11
8.9914261
21
107.8391135
0
LINE
8
DEFAULT_255_2_778
10
8.9914261
20
103.5973135
11
10.4373261
21
103.5973135
0
LINE
8
DEFAULT_255_2_778
10
10.4373261
20
103.5973135
11
10.4373261
21
106.3455135
0
LINE
8
DEFAULT_255_2_778
10
10.4373261
20
106.3455135
11
8.9914261
21
106.3455135
0
LINE
8
DEFAULT_255_2_778
10
8.9914261
20
106.3455135
11
8.9914261
21
103.5973135
0
LINE
8
DEFAULT_255_2_778
10
8.9914261
20
99.3552135
11
10.4373261
21
99.3552135
0
LINE
8
DEFAULT_255_2_778
10
10.4373261
20
99.3552135
11
10.4373261
21
102.1034135
0
LINE
8
DEFAULT_255_2_778
10
10.4373261
20
102.1034135
11
8.9914261
21
102.1034135
0
LINE
8
DEFAULT_255_2_778
10
8.9914261
20
102.1034135
11
8.9914261
21
99.3552135
0
ARC
8
DEFAULT_255_2_778
10
19.1752858
20
128.0217467
40
0.0531628
50
42.5601699
51
89.1830242
0
ARC
8
DEFAULT_255_2_778
10
18.7006512
20
128.4778856
40
0.8113172
50
294.1547089
51
319.2139884
0
ARC
8
DEFAULT_255_2_778
10
18.6841218
20
128.5355153
40
0.8707065
50
274.2612171
51
293.5953673
0
ARC
8
DEFAULT_255_2_778
10
18.6347662
20
128.9619926
40
1.2997903
50
269.906442
51
275.0339902
0
ARC
8
DEFAULT_255_2_778
10
18.6193484
20
128.6064902
40
0.9443797
50
247.6899016
51
270.8066582
0
ARC
8
DEFAULT_255_2_778
10
18.5730068
20
128.4830408
40
0.812589
50
222.7644692
51
247.4084836
0
ARC
8
DEFAULT_255_2_778
10
18.6412338
20
128.5353899
40
0.8982569
50
199.3742865
51
222.2610003
0
ARC
8
DEFAULT_255_2_778
10
18.8733812
20
128.6172432
40
1.144412
50
179.3460787
51
199.3845995
0
ARC
8
DEFAULT_255_2_778
10
18.8022822
20
128.6428007
40
1.0733112
50
159.2420691
51
180.6671086
0
ARC
8
DEFAULT_255_2_778
10
18.6362126
20
128.7064247
40
0.8954724
50
135.8546513
51
159.2827279
0
ARC
8
DEFAULT_255_2_778
10
18.6148289
20
128.7175024
40
0.8724401
50
111.5236299
51
135.3985993
0
ARC
8
DEFAULT_255_2_778
10
18.6690439
20
128.5776941
40
1.0223902
50
89.2826639
51
111.4754805
0
ARC
8
DEFAULT_255_2_778
10
18.6947279
20
128.5955356
40
1.0045511
50
74.8245752
51
90.7348802
0
ARC
8
DEFAULT_255_2_778
10
18.7642935
20
128.8835802
40
0.7083888
50
66.9067627
51
74.1562226
0
ARC
8
DEFAULT_255_2_778
10
18.6868374
20
128.6971602
40
0.9102529
50
46.6620792
51
67.0244579
0
ARC
8
DEFAULT_255_2_778
10
19.1550938
20
129.291426
40
0.0884787
50
305.9547547
51
325.6515638
0
ARC
8
DEFAULT_255_2_778
10
19.1763767
20
129.2687033
40
0.05772
50
266.2919305
51
302.0938614
0
ARC
8
DEFAULT_255_2_778
10
19.1753093
20
129.2782399
40
0.0671886
50
234.553534
51
267.7263581
0
ARC
8
DEFAULT_255_2_778
10
20.2738212
20
130.9424787
40
2.0612445
50
234.9661879
51
236.5066527
0
ARC
8
DEFAULT_255_2_778
10
18.5267472
20
128.4412151
40
0.9897631
50
55.275727
51
59.5434048
0
ARC
8
DEFAULT_255_2_778
10
18.7553078
20
128.821872
40
0.5457928
50
59.9709617
51
69.8028348
0
ARC
8
DEFAULT_255_2_778
10
18.7048826
20
128.6816306
40
0.6948211
50
69.8930501
51
79.6307968
0
ARC
8
DEFAULT_255_2_778
10
18.6891767
20
128.5753731
40
0.8021786
50
79.893355
51
90.6237671
0
ARC
8
DEFAULT_255_2_778
10
18.6717055
20
128.6586784
40
0.7188789
50
89.3035304
51
112.0227803
0
ARC
8
DEFAULT_255_2_778
10
18.6381004
20
128.7465118
40
0.6248557
50
112.1861966
51
136.566948
0
ARC
8
DEFAULT_255_2_778
10
18.6796002
20
128.7168221
40
0.6754398
50
137.1583268
51
160.6425151
0
ARC
8
DEFAULT_255_2_778
10
18.8915492
20
128.6423466
40
0.9000928
50
160.6417219
51
180.7984213
0
ARC
8
DEFAULT_255_2_778
10
18.9246784
20
128.6165586
40
0.9332286
50
179.1867582
51
197.7390021
0
ARC
8
DEFAULT_255_2_778
10
18.7258888
20
128.5635476
40
0.7278087
50
198.5323234
51
200.0853242
0
ARC
8
DEFAULT_255_2_778
10
18.6974338
20
128.5428473
40
0.6940428
50
199.2870537
51
221.9486812
0
ARC
8
DEFAULT_255_2_778
10
18.6149788
20
128.4748588
40
0.5872871
50
222.3928071
51
247.4165552
0
ARC
8
DEFAULT_255_2_778
10
18.6433711
20
128.5481125
40
0.6658301
50
247.5814548
51
270.4623306
0
ARC
8
DEFAULT_255_2_778
10
18.6565186
20
128.9468622
40
1.0645864
50
269.5815552
51
277.7915357
0
ARC
8
DEFAULT_255_2_778
10
18.7093556
20
128.5278262
40
0.6422714
50
278.1893399
51
289.6887778
0
ARC
8
DEFAULT_255_2_778
10
18.7494503
20
128.4088848
40
0.5167806
50
289.9462134
51
303.2693731
0
ARC
8
DEFAULT_255_2_778
10
18.5787822
20
128.6639406
40
0.8236621
50
303.4626343
51
312.2554976
0
ARC
8
DEFAULT_255_2_778
10
19.1804761
20
128.0068594
40
0.0673716
50
93.5164829
51
135.233055
0
LINE
8
DEFAULT_255_2_778
10
19.2144438
20
128.0577041
11
19.3149438
21
127.9479041
0
LINE
8
DEFAULT_255_2_778
10
19.3115438
20
129.3592041
11
19.2281438
21
129.2415041
0
LINE
8
DEFAULT_255_2_778
10
19.1763438
20
128.0741041
11
19.1760438
21
128.0749041
0
ARC
8
DEFAULT_255_2_778
10
20.1558746
20
128.1187247
40
0.4966161
50
21.615952
51
30.2049832
0
ARC
8
DEFAULT_255_2_778
10
16.6234886
20
126.7358448
40
4.2900419
50
20.3962424
51
21.4070044
0
ARC
8
DEFAULT_255_2_778
10
21.6972416
20
127.8578619
40
1.116842
50
156.585666
51
160.4837628
0
ARC
8
DEFAULT_255_2_778
10
21.4537921
20
127.966236
40
0.8503782
50
151.6556455
51
156.7681698
0
ARC
8
DEFAULT_255_2_778
10
21.4165179
20
129.5042648
40
0.0760995
50
116.3291896
51
155.8742226
0
ARC
8
DEFAULT_255_2_778
10
21.429331
20
129.4145419
40
0.1646498
50
87.7951015
51
106.4282696
0
ARC
8
DEFAULT_255_2_778
10
22.8567172
20
129.0743058
40
1.456753
50
177.5778961
51
179.9188211
0
ARC
8
DEFAULT_255_2_778
10
22.9924155
20
129.0701741
40
1.5925055
50
175.299706
51
177.6357048
0
ARC
8
DEFAULT_255_2_778
10
20.6629131
20
128.057914
40
0.1020443
50
270.0856551
51
335.3597761
0
ARC
8
DEFAULT_255_2_778
10
20.6261291
20
128.0577754
40
0.1019056
50
204.5902691
51
269.9642997
0
ARC
8
DEFAULT_255_2_778
10
18.5095966
20
129.0497847
40
1.3685617
50
3.6609248
51
6.4982909
0
ARC
8
DEFAULT_255_2_778
10
18.8137005
20
129.073563
40
1.0635688
50
0.1512018
51
3.4286194
0
ARC
8
DEFAULT_255_2_778
10
19.8479003
20
129.4145419
40
0.1646498
50
73.5717304
51
92.2048985
0
ARC
8
DEFAULT_255_2_778
10
19.8607134
20
129.5042648
40
0.0760995
50
24.1257774
51
63.6708104
0
LINE
8
DEFAULT_255_2_778
10
20.7053657
20
128.3699698
11
21.3470657
21
129.5353698
0
LINE
8
DEFAULT_255_2_778
10
21.4356657
20
129.5790698
11
21.6248657
21
129.5790698
0
LINE
8
DEFAULT_255_2_778
10
21.6248657
20
129.5790698
11
21.6248657
21
127.6833698
0
LINE
8
DEFAULT_255_2_778
10
21.6248657
20
127.6833698
11
21.3999657
21
127.6833698
0
LINE
8
DEFAULT_255_2_778
10
21.3999657
20
127.6833698
11
21.3999657
21
129.0763698
0
LINE
8
DEFAULT_255_2_778
10
21.4052657
20
129.2006698
11
20.7556657
21
128.0153698
0
LINE
8
DEFAULT_255_2_778
10
20.6630657
20
127.9558698
11
20.6260657
21
127.9558698
0
LINE
8
DEFAULT_255_2_778
10
20.5334657
20
128.0153698
11
19.8693657
21
129.2046698
0
LINE
8
DEFAULT_255_2_778
10
19.8772657
20
129.0763698
11
19.8772657
21
127.6833698
0
LINE
8
DEFAULT_255_2_778
10
19.8772657
20
127.6833698
11
19.6523657
21
127.6833698
0
LINE
8
DEFAULT_255_2_778
10
19.6523657
20
127.6833698
11
19.6523657
21
129.5790698
0
LINE
8
DEFAULT_255_2_778
10
19.6523657
20
129.5790698
11
19.8415657
21
129.5790698
0
LINE
8
DEFAULT_255_2_778
10
19.9301657
20
129.5353698
11
20.5850657
21
128.3685698
0
LINE
8
DEFAULT_255_2_778
10
20.5850657
20
128.3685698
11
20.5850657
21
128.3685698
0
ARC
8
DEFAULT_255_2_778
10
23.0365184
20
129.47198
40
0.1136781
50
316.0983792
51
2.0029076
0
ARC
8
DEFAULT_255_2_778
10
23.0299755
20
129.4981404
40
0.1372808
50
266.9797198
51
310.1140781
0
ARC
8
DEFAULT_255_2_778
10
23.0113622
20
129.6895954
40
0.3287421
50
269.9764525
51
271.9837979
0
ARC
8
DEFAULT_255_2_778
10
22.615884
20
127.5847711
40
1.3105511
50
90.5883288
51
102.661335
0
ARC
8
DEFAULT_255_2_778
10
22.6156021
20
128.1692253
40
0.7261474
50
70.3085343
51
91.0396111
0
ARC
8
DEFAULT_255_2_778
10
22.6676544
20
128.3434917
40
0.5446191
50
68.8874245
51
69.2867874
0
ARC
8
DEFAULT_255_2_778
10
22.6769651
20
128.3465543
40
0.5384619
50
45.5821344
51
69.6942862
0
ARC
8
DEFAULT_255_2_778
10
22.6982443
20
128.3760473
40
0.5025328
50
20.2464276
51
44.9615458
0
ARC
8
DEFAULT_255_2_778
10
22.5643634
20
128.3287975
40
0.6444959
50
359.4270788
51
20.0686017
0
ARC
8
DEFAULT_255_2_778
10
22.5321254
20
128.3123355
40
0.6767759
50
337.1796885
51
0.848124
0
ARC
8
DEFAULT_255_2_778
10
22.5787707
20
128.2959412
40
0.6274304
50
313.5707731
51
336.9075599
0
ARC
8
DEFAULT_255_2_778
10
22.5765314
20
128.3069837
40
0.6370025
50
290.0409713
51
313.0321095
0
ARC
8
DEFAULT_255_2_778
10
22.5328299
20
128.4262121
40
0.7639875
50
269.5048086
51
290.0557194
0
ARC
8
DEFAULT_255_2_778
10
22.5236776
20
128.4270281
40
0.7647793
50
258.1114985
51
270.1910037
0
ARC
8
DEFAULT_255_2_778
10
22.5296474
20
128.4597263
40
0.7980064
50
247.4272059
51
258.1757117
0
ARC
8
DEFAULT_255_2_778
10
22.5507429
20
128.5086455
40
0.851276
50
238.046951
51
247.3799907
0
ARC
8
DEFAULT_255_2_778
10
22.4769215
20
128.3931236
40
0.7141912
50
228.0747443
51
238.1672191
0
ARC
8
DEFAULT_255_2_778
10
22.13346
20
127.9229992
40
0.0736632
50
89.0921974
51
147.7994731
0
ARC
8
DEFAULT_255_2_778
10
22.1267447
20
127.8799353
40
0.1169837
50
55.2487435
51
86.1364446
0
ARC
8
DEFAULT_255_2_778
10
22.8902103
20
129.1283956
40
1.3466254
50
238.84004
51
242.8122682
0
ARC
8
DEFAULT_255_2_778
10
22.5849908
20
128.5314477
40
0.6761759
50
242.7061089
51
252.9318479
0
ARC
8
DEFAULT_255_2_778
10
22.5294335
20
128.3655817
40
0.5013282
50
253.4378266
51
271.1422217
0
ARC
8
DEFAULT_255_2_778
10
22.5467624
20
128.3405959
40
0.4762993
50
269.1175785
51
291.0740227
0
ARC
8
DEFAULT_255_2_778
10
22.5796675
20
128.2503239
40
0.3802372
50
291.3384856
51
316.1389588
0
ARC
8
DEFAULT_255_2_778
10
22.5590885
20
128.2648952
40
0.4051892
50
316.669688
51
340.2016237
0
ARC
8
DEFAULT_255_2_778
10
22.4447862
20
128.3040323
40
0.5259947
50
340.4076976
51
0.8192608
0
ARC
8
DEFAULT_255_2_778
10
22.4982292
20
128.3180974
40
0.4725432
50
359.206482
51
18.9629056
0
ARC
8
DEFAULT_255_2_778
10
22.645879
20
128.3655231
40
0.3175106
50
19.5273393
51
45.8526475
0
ARC
8
DEFAULT_255_2_778
10
22.6227874
20
128.3330355
40
0.356957
50
46.8251382
51
71.4025516
0
ARC
8
DEFAULT_255_2_778
10
22.5645899
20
128.1549433
40
0.5443123
50
71.5749778
51
91.1119385
0
ARC
8
DEFAULT_255_2_778
10
22.5571756
20
127.7311678
40
0.9679904
50
90.1863585
51
98.9952886
0
ARC
8
DEFAULT_255_2_778
10
22.5681231
20
127.6693755
40
1.030735
50
99.0592963
51
108.1450893
0
LINE
8
DEFAULT_255_2_778
10
23.1501271
20
129.5791531
11
23.1501271
21
129.4759531
0
LINE
8
DEFAULT_255_2_778
10
23.0112271
20
129.3608531
11
22.4159271
21
129.3608531
0
LINE
8
DEFAULT_255_2_778
10
22.4159271
20
129.3608531
11
22.3286271
21
128.8634531
0
LINE
8
DEFAULT_255_2_778
10
21.9997271
20
127.8617531
11
22.0711271
21
127.9622531
0
LINE
8
DEFAULT_255_2_778
10
22.2471271
20
128.6488531
11
22.0989271
21
128.6925531
0
LINE
8
DEFAULT_255_2_778
10
22.0989271
20
128.6925531
11
22.2524271
21
129.5788531
0
LINE
8
DEFAULT_255_2_778
10
22.2524271
20
129.5788531
11
23.1506271
21
129.5788531
0
LINE
8
DEFAULT_255_2_778
10
23.1506271
20
129.5788531
11
23.1501271
21
129.5791531
0
ARC
8
DEFAULT_255_2_778
10
24.5704174
20
129.4879733
40
0.2360116
50
343.3549615
51
1.5773235
0
ARC
8
DEFAULT_255_2_778
10
24.4769746
20
129.524056
40
0.3359652
50
332.9691415
51
342.0238015
0
ARC
8
DEFAULT_255_2_778
10
23.8365098
20
127.8652798
40
0.1734607
50
308.309469
51
333.4954643
0
ARC
8
DEFAULT_255_2_778
10
23.8688075
20
127.8309768
40
0.1265881
50
266.9352906
51
306.4631979
0
ARC
8
DEFAULT_255_2_778
10
25.2033029
20
128.9000988
40
0.8022782
50
147.677042
51
152.6914494
0
ARC
8
DEFAULT_255_2_778
10
24.8830117
20
129.0971909
40
0.4262595
50
138.0803333
51
147.0446575
0
ARC
8
DEFAULT_255_2_778
10
23.5768691
20
129.4383661
40
0.0563988
50
223.3237099
51
269.4620708
0
ARC
8
DEFAULT_255_2_778
10
23.5745359
20
129.4406993
40
0.0563988
50
180.5379292
51
226.6762901
0
LINE
8
DEFAULT_255_2_778
10
23.5178396
20
129.6002698
11
24.8063396
21
129.6002698
0
LINE
8
DEFAULT_255_2_778
10
24.8063396
20
129.6002698
11
24.8063396
21
129.4944698
0
LINE
8
DEFAULT_255_2_778
10
24.7762396
20
129.3713698
11
23.9917396
21
127.7878698
0
LINE
8
DEFAULT_255_2_778
10
23.8620396
20
127.7045698
11
23.6940396
21
127.7045698
0
LINE
8
DEFAULT_255_2_778
10
23.6940396
20
127.7045698
11
24.4904396
21
129.2681698
0
LINE
8
DEFAULT_255_2_778
10
24.5658396
20
129.3819698
11
23.5763396
21
129.3819698
0
LINE
8
DEFAULT_255_2_778
10
23.5181396
20
129.4401698
11
23.5181396
21
129.6002698
0
LINE
8
DEFAULT_255_2_778
10
23.5181396
20
129.6002698
11
23.5178396
21
129.6002698
0
ARC
8
DEFAULT_255_2_778
10
25.6486869
20
129.0399982
40
0.5787532
50
249.7682812
51
270.3026319
0
ARC
8
DEFAULT_255_2_778
10
25.6167917
20
128.9536478
40
0.4867005
50
226.2193244
51
249.7760223
0
ARC
8
DEFAULT_255_2_778
10
25.6283172
20
128.9626007
40
0.5011434
50
202.2364501
51
225.9761665
0
ARC
8
DEFAULT_255_2_778
10
25.7126254
20
128.9942998
40
0.5911831
50
178.9383774
51
201.9880458
0
ARC
8
DEFAULT_255_2_778
10
25.7083926
20
129.0095429
40
0.5868645
50
157.0844023
51
180.4188171
0
ARC
8
DEFAULT_255_2_778
10
25.6970873
20
129.0145142
40
0.5745157
50
134.076487
51
157.1020507
0
ARC
8
DEFAULT_255_2_778
10
25.7183631
20
128.9879864
40
0.6083818
50
111.4440072
51
133.7780958
0
ARC
8
DEFAULT_255_2_778
10
25.7410047
20
128.9294927
40
0.6711039
50
89.3477969
51
111.417488
0
ARC
8
DEFAULT_255_2_778
10
25.7575387
20
128.9474105
40
0.6532032
50
68.5937491
51
90.7802477
0
ARC
8
DEFAULT_255_2_778
10
25.7916855
20
129.0387943
40
0.5556627
50
44.7302598
51
68.432689
0
ARC
8
DEFAULT_255_2_778
10
25.7893249
20
129.0425202
40
0.5547343
50
20.4956853
51
44.2852811
0
ARC
8
DEFAULT_255_2_778
10
25.6595558
20
128.9966856
40
0.6923418
50
359.2855882
51
20.2884836
0
ARC
8
DEFAULT_255_2_778
10
25.5832781
20
128.9843975
40
0.7685743
50
348.6205262
51
0.2725165
0
ARC
8
DEFAULT_255_2_778
10
25.546604
20
128.9981789
40
0.8072711
50
337.4849037
51
348.1752005
0
ARC
8
DEFAULT_255_2_778
10
25.2051407
20
129.1426094
40
1.1780169
50
329.7780334
51
337.355217
0
ARC
8
DEFAULT_255_2_778
10
24.2749255
20
129.6942907
40
2.2595044
50
325.2368085
51
329.5631824
0
ARC
8
DEFAULT_255_2_778
10
25.5704804
20
127.8092156
40
0.1212778
50
294.3807991
51
324.7687482
0
ARC
8
DEFAULT_255_2_778
10
25.5510005
20
127.8509933
40
0.1673719
50
268.8850737
51
294.5509136
0
ARC
8
DEFAULT_255_2_778
10
22.1747351
20
131.2786007
40
4.6901639
50
322.7404903
51
323.8482733
0
ARC
8
DEFAULT_255_2_778
10
24.7361366
20
129.4106377
40
1.519984
50
323.7451686
51
326.8991755
0
ARC
8
DEFAULT_255_2_778
10
25.6814609
20
128.9915714
40
0.525841
50
288.170685
51
308.5890445
0
ARC
8
DEFAULT_255_2_778
10
25.6556885
20
129.0687902
40
0.6072463
50
269.6844074
51
288.2090372
0
ARC
8
DEFAULT_255_2_778
10
25.6896724
20
129.0215751
40
0.4357129
50
359.2080936
51
20.7793718
0
ARC
8
DEFAULT_255_2_778
10
25.7637153
20
129.0483291
40
0.3569969
50
20.9806961
51
44.5228453
0
ARC
8
DEFAULT_255_2_778
10
25.7746624
20
129.053787
40
0.3453857
50
45.1507065
51
68.9633584
0
ARC
8
DEFAULT_255_2_778
10
25.7504767
20
128.9835396
40
0.4196413
50
69.3241633
51
90.6598771
0
ARC
8
DEFAULT_255_2_778
10
25.7402099
20
128.9760121
40
0.4271755
50
89.2711544
51
111.0977471
0
ARC
8
DEFAULT_255_2_778
10
25.7136423
20
129.0393166
40
0.3585568
50
110.7782056
51
134.2725341
0
ARC
8
DEFAULT_255_2_778
10
25.7077275
20
129.0509258
40
0.3461369
50
134.9129653
51
158.8788681
0
ARC
8
DEFAULT_255_2_778
10
25.7697963
20
129.0266679
40
0.4127772
50
158.8424559
51
180.6266941
0
ARC
8
DEFAULT_255_2_778
10
25.8284992
20
129.0147729
40
0.4715132
50
179.1031573
51
198.9884452
0
ARC
8
DEFAULT_255_2_778
10
25.6923236
20
128.9698924
40
0.3281499
50
199.3149946
51
224.1183807
0
ARC
8
DEFAULT_255_2_778
10
25.6785441
20
128.9633728
40
0.3137574
50
225.0154191
51
250.6421466
0
ARC
8
DEFAULT_255_2_778
10
25.7238489
20
129.0981027
40
0.4558917
50
250.8828161
51
270.7785887
0
ARC
8
DEFAULT_255_2_778
10
25.7381302
20
129.0745877
40
0.4324102
50
268.9284604
51
291.8186038
0
ARC
8
DEFAULT_255_2_778
10
25.7589363
20
129.0169199
40
0.3711465
50
292.1455122
51
315.2773331
0
ARC
8
DEFAULT_255_2_778
10
25.7690293
20
129.0037129
40
0.3546891
50
315.6459227
51
338.6794486
0
ARC
8
DEFAULT_255_2_778
10
25.745367
20
129.0142841
40
0.3805775
50
338.4920861
51
0.1157687
0
LINE
8
DEFAULT_255_2_778
10
26.1311438
20
128.4059531
11
25.6695438
21
127.7392531
0
LINE
8
DEFAULT_255_2_778
10
25.5477438
20
127.6836531
11
25.3308438
21
127.6836531
0
LINE
8
DEFAULT_255_2_778
10
25.3308438
20
127.6836531
11
25.9076438
21
128.4390531
0
LINE
8
DEFAULT_255_2_778
10
25.6523438
20
128.4615531
11
25.6517438
21
128.4612531
0
LINE
8
DEFAULT_255_2_778
10
26.1259438
20
129.0150531
11
26.1253438
21
129.0155531
0
ENDSEC
0
EOF