0
SECTION
2
HEADER
9
$MEASUREMENT
70
1
0
ENDSEC
0
SECTION
2
TABLES
0
TABLE
2
LTYPE
0
LTYPE
72
65
70
64
2
CONTINUOUS
3
______
73
0
40
0
0
ENDTAB
0
TABLE
2
LAYER
0
LAYER
2
DEFAULT_255_2_778
70
0
62
255
6
CONTINUOUS
0
ENDTAB
0
ENDSEC
0
SECTION
2
ENTITIES
0
LINE
8
DEFAULT_255_2_778
10
4.0921367
20
61.3807051
11
23.8964367
21
61.4109051
0
LINE
8
DEFAULT_255_2_778
10
23.8964367
20
61.4109051
11
23.8964367
21
69.0163051
0
LINE
8
DEFAULT_255_2_778
10
23.8964367
20
69.0163051
11
4.0921367
21
68.9861051
0
LINE
8
DEFAULT_255_2_778
10
4.0921367
20
68.9861051
11
4.0921367
21
61.3807051
0
ARC
8
DEFAULT_255_2_778
10
8.6569654
20
128.1786422
40
1.2009463
50
34.5355789
51
60.8592576
0
ARC
8
DEFAULT_255_2_778
10
8.7422392
20
129.8660715
40
0.8106826
50
308.0384735
51
358.9402569
0
ARC
8
DEFAULT_255_2_778
10
8.7606351
20
129.8630854
40
0.7922391
50
359.1315719
51
359.9996225
0
ARC
8
DEFAULT_255_2_778
10
8.7327398
20
129.8685645
40
0.8201526
50
359.6168612
51
33.7308252
0
ARC
8
DEFAULT_255_2_778
10
8.8230798
20
129.9353125
40
0.7079763
50
33.2981529
51
89.7172129
0
ARC
8
DEFAULT_255_2_778
10
8.7323929
20
128.0461781
40
1.0831798
50
272.7877187
51
302.6991354
0
ARC
8
DEFAULT_255_2_778
10
8.6782363
20
128.1014538
40
1.1590587
50
303.4758688
51
348.5199018
0
ARC
8
DEFAULT_255_2_778
10
8.5387298
20
128.1446127
40
1.3044449
50
347.8816873
51
0.0556712
0
ARC
8
DEFAULT_255_2_778
10
8.5677947
20
128.169642
40
1.2756007
50
358.932633
51
23.9896023
0
ARC
8
DEFAULT_255_2_778
10
8.9593193
20
128.3187968
40
0.8575605
50
25.5205799
51
29.1628211
0
ARC
8
DEFAULT_255_2_778
10
5.8567472
20
128.179468
40
1.1999218
50
34.5387681
51
60.8856547
0
ARC
8
DEFAULT_255_2_778
10
5.9410395
20
129.8664014
40
0.8107847
50
308.0327964
51
358.9315319
0
ARC
8
DEFAULT_255_2_778
10
5.96017
20
129.8632852
40
0.7916042
50
359.1312199
51
359.9996328
0
ARC
8
DEFAULT_255_2_778
10
5.9316846
20
129.868728
40
0.8201076
50
359.6193926
51
33.7425645
0
ARC
8
DEFAULT_255_2_778
10
6.0218065
20
129.935479
40
0.7081108
50
33.3018293
51
89.7032397
0
ARC
8
DEFAULT_255_2_778
10
5.9311769
20
128.0470414
40
1.0837432
50
272.7871146
51
302.6883666
0
ARC
8
DEFAULT_255_2_778
10
5.8774101
20
128.1018259
40
1.1589946
50
303.4627429
51
348.5139736
0
ARC
8
DEFAULT_255_2_778
10
5.738122
20
128.1449077
40
1.3041527
50
347.8776838
51
0.0559012
0
ARC
8
DEFAULT_255_2_778
10
5.7668065
20
128.1699039
40
1.2756882
50
358.934418
51
24.0022263
0
ARC
8
DEFAULT_255_2_778
10
6.1589819
20
128.319407
40
0.856918
50
25.5369445
51
29.1630432
0
LINE
8
DEFAULT_255_2_778
10
3.7015741
20
128.8597802
11
3.1102741
21
130.6435802
0
LINE
8
DEFAULT_255_2_778
10
3.1102741
20
130.6435802
11
2.6641741
21
130.6435802
0
LINE
8
DEFAULT_255_2_778
10
2.6641741
20
130.6435802
11
2.6641741
21
128.8597802
0
LINE
8
DEFAULT_255_2_778
10
2.6641741
20
128.8597802
11
3.7015741
21
128.8597802
0
LINE
8
DEFAULT_255_2_778
10
2.6641741
20
127.7447802
11
3.2139741
21
127.7447802
0
LINE
8
DEFAULT_255_2_778
10
3.2139741
20
127.7447802
11
3.4629741
21
126.9642802
0
LINE
8
DEFAULT_255_2_778
10
3.4629741
20
126.9642802
11
4.3241741
21
126.9642802
0
LINE
8
DEFAULT_255_2_778
10
4.3241741
20
126.9642802
11
3.7328741
21
128.7480802
0
LINE
8
DEFAULT_255_2_778
10
3.7328741
20
128.7480802
11
2.6641741
21
128.7480802
0
LINE
8
DEFAULT_255_2_778
10
2.6641741
20
128.7480802
11
2.6641741
21
127.7447802
0
LINE
8
DEFAULT_255_2_778
10
2.5604741
20
130.6432802
11
2.1143741
21
130.6432802
0
LINE
8
DEFAULT_255_2_778
10
2.1143741
20
130.6432802
11
1.5230741
21
128.8597802
0
LINE
8
DEFAULT_255_2_778
10
1.5230741
20
128.8597802
11
2.5604741
21
128.8597802
0
LINE
8
DEFAULT_255_2_778
10
2.5604741
20
128.8597802
11
2.5604741
21
130.6432802
0
LINE
8
DEFAULT_255_2_778
10
1.4917741
20
128.7480802
11
0.9004741
21
126.9642802
0
LINE
8
DEFAULT_255_2_778
10
0.9004741
20
126.9642802
11
1.7616741
21
126.9642802
0
LINE
8
DEFAULT_255_2_778
10
1.7616741
20
126.9642802
11
2.0106741
21
127.7447802
0
LINE
8
DEFAULT_255_2_778
10
2.0106741
20
127.7447802
11
2.5604741
21
127.7447802
0
LINE
8
DEFAULT_255_2_778
10
2.5604741
20
127.7447802
11
2.5604741
21
128.7480802
0
LINE
8
DEFAULT_255_2_778
10
2.5604741
20
128.7480802
11
1.4917741
21
128.7480802
0
LINE
8
DEFAULT_255_2_778
10
7.4364741
20
130.6432802
11
8.4738741
21
130.6432802
0
LINE
8
DEFAULT_255_2_778
10
8.4738741
20
130.6432802
11
8.4738741
21
128.8594802
0
LINE
8
DEFAULT_255_2_778
10
8.4738741
20
128.8594802
11
7.4364741
21
128.8594802
0
LINE
8
DEFAULT_255_2_778
10
7.4364741
20
128.8594802
11
7.4364741
21
130.6432802
0
LINE
8
DEFAULT_255_2_778
10
8.8265741
20
130.6432802
11
8.5775741
21
130.6432802
0
LINE
8
DEFAULT_255_2_778
10
8.5775741
20
130.6432802
11
8.5775741
21
128.8594802
0
LINE
8
DEFAULT_255_2_778
10
8.5775741
20
128.8594802
11
9.6462741
21
128.8594802
0
LINE
8
DEFAULT_255_2_778
10
9.6462741
20
128.8594802
11
9.6462741
21
128.8594802
0
LINE
8
DEFAULT_255_2_778
10
7.4364741
20
128.7480802
11
8.4738741
21
128.7480802
0
LINE
8
DEFAULT_255_2_778
10
8.4738741
20
128.7480802
11
8.4738741
21
126.9642802
0
LINE
8
DEFAULT_255_2_778
10
8.4738741
20
126.9642802
11
7.4364741
21
126.9642802
0
LINE
8
DEFAULT_255_2_778
10
7.4364741
20
126.9642802
11
7.4364741
21
128.7480802
0
LINE
8
DEFAULT_255_2_778
10
8.5775741
20
126.9642802
11
8.7850741
21
126.9642802
0
LINE
8
DEFAULT_255_2_778
10
9.7081741
20
128.7366802
11
8.5773741
21
128.7366802
0
LINE
8
DEFAULT_255_2_778
10
8.5773741
20
128.7366802
11
8.5773741
21
126.9639802
0
LINE
8
DEFAULT_255_2_778
10
8.5773741
20
126.9639802
11
8.5775741
21
126.9642802
0
LINE
8
DEFAULT_255_2_778
10
4.6353741
20
130.6435802
11
5.6727741
21
130.6435802
0
LINE
8
DEFAULT_255_2_778
10
5.6727741
20
130.6435802
11
5.6727741
21
128.8597802
0
LINE
8
DEFAULT_255_2_778
10
5.6727741
20
128.8597802
11
4.6353741
21
128.8597802
0
LINE
8
DEFAULT_255_2_778
10
4.6353741
20
128.8597802
11
4.6353741
21
130.6435802
0
LINE
8
DEFAULT_255_2_778
10
6.0254741
20
130.6435802
11
5.7764741
21
130.6435802
0
LINE
8
DEFAULT_255_2_778
10
5.7764741
20
130.6435802
11
5.7764741
21
128.8597802
0
LINE
8
DEFAULT_255_2_778
10
5.7764741
20
128.8597802
11
6.8451741
21
128.8597802
0
LINE
8
DEFAULT_255_2_778
10
6.8451741
20
128.8597802
11
6.8451741
21
128.8597802
0
LINE
8
DEFAULT_255_2_778
10
4.6353741
20
128.7483802
11
5.6727741
21
128.7483802
0
LINE
8
DEFAULT_255_2_778
10
5.6727741
20
128.7483802
11
5.6727741
21
126.9645802
0
LINE
8
DEFAULT_255_2_778
10
5.6727741
20
126.9645802
11
4.6353741
21
126.9645802
0
LINE
8
DEFAULT_255_2_778
10
4.6353741
20
126.9645802
11
4.6353741
21
128.7483802
0
LINE
8
DEFAULT_255_2_778
10
5.7764741
20
126.9645802
11
5.9838741
21
126.9645802
0
LINE
8
DEFAULT_255_2_778
10
6.9072741
20
128.7369802
11
5.7764741
21
128.7369802
0
LINE
8
DEFAULT_255_2_778
10
5.7764741
20
128.7369802
11
5.7764741
21
126.9642802
0
LINE
8
DEFAULT_255_2_778
10
5.7764741
20
126.9642802
11
5.7764741
21
126.9645802
0
LINE
8
DEFAULT_255_2_778
10
28.0485837
20
59.2597
11
0.1551837
21
59.2597
0
LINE
8
DEFAULT_255_2_778
10
0.1552
20
125.8585668
11
0.1552
21
59.2600668
0
LINE
8
DEFAULT_255_2_778
10
0.1551702
20
131.585269
11
0.1551702
21
134.766569
0
LINE
8
DEFAULT_255_2_778
10
0.1551702
20
134.766569
11
28.1552702
21
134.766569
0
LINE
8
DEFAULT_255_2_778
10
28.1552702
20
134.766569
11
28.1552702
21
-0.233331
0
LINE
8
DEFAULT_255_2_778
10
28.1552702
20
-0.233331
11
0.1551702
21
-0.233331
0
LINE
8
DEFAULT_255_2_778
10
0.1551702
20
-0.233331
11
0.1551702
21
59.259769
0
LINE
8
DEFAULT_255_2_778
10
0.1552
20
125.8586208
11
0.1552
21
131.5852208
0
LINE
8
DEFAULT_255_2_778
10
0.1551702
20
125.8586208
11
28.1552702
21
125.8586208
0
LINE
8
DEFAULT_255_2_778
10
28.1552702
20
125.8586208
11
28.1552702
21
131.5852208
0
LINE
8
DEFAULT_255_2_778
10
28.1552702
20
131.5852208
11
0.1551702
21
131.5852208
0
LINE
8
DEFAULT_255_2_778
10
8.9298261
20
116.3140135
11
10.3757261
21
116.3140135
0
LINE
8
DEFAULT_255_2_778
10
10.3757261
20
116.3140135
11
10.3757261
21
119.0622135
0
LINE
8
DEFAULT_255_2_778
10
10.3757261
20
119.0622135
11
8.9298261
21
119.0622135
0
LINE
8
DEFAULT_255_2_778
10
8.9298261
20
119.0622135
11
8.9298261
21
116.3140135
0
LINE
8
DEFAULT_255_2_778
10
8.9914261
20
112.0812135
11
10.4373261
21
112.0812135
0
LINE
8
DEFAULT_255_2_778
10
10.4373261
20
112.0812135
11
10.4373261
21
114.8294135
0
LINE
8
DEFAULT_255_2_778
10
10.4373261
20
114.8294135
11
8.9914261
21
114.8294135
0
LINE
8
DEFAULT_255_2_778
10
8.9914261
20
114.8294135
11
8.9914261
21
112.0812135
0
LINE
8
DEFAULT_255_2_778
10
8.9914261
20
107.8391135
11
10.4373261
21
107.8391135
0
LINE
8
DEFAULT_255_2_778
10
10.4373261
20
107.8391135
11
10.4373261
21
110.5873135
0
LINE
8
DEFAULT_255_2_778
10
10.4373261
20
110.5873135
11
8.9914261
21
110.5873135
0
LINE
8
DEFAULT_255_2_778
10
8.9914261
20
110.5873135
11
8.9914261
21
107.8391135
0
LINE
8
DEFAULT_255_2_778
10
8.9914261
20
103.5973135
11
10.4373261
21
103.5973135
0
LINE
8
DEFAULT_255_2_778
10
10.4373261
20
103.5973135
11
10.4373261
21
106.3455135
0
LINE
8
DEFAULT_255_2_778
10
10.4373261
20
106.3455135
11
8.9914261
21
106.3455135
0
LINE
8
DEFAULT_255_2_778
10
8.9914261
20
106.3455135
11
8.9914261
21
103.5973135
0
LINE
8
DEFAULT_255_2_778
10
8.9914261
20
99.3552135
11
10.4373261
21
99.3552135
0
LINE
8
DEFAULT_255_2_778
10
10.4373261
20
99.3552135
11
10.4373261
21
102.1034135
0
LINE
8
DEFAULT_255_2_778
10
10.4373261
20
102.1034135
11
8.9914261
21
102.1034135
0
LINE
8
DEFAULT_255_2_778
10
8.9914261
20
102.1034135
11
8.9914261
21
99.3552135
0
ARC
8
DEFAULT_255_2_778
10
10.7783062
20
35.4860515
40
1.5214603
50
120.0013103
51
179.9997772
0
ARC
8
DEFAULT_255_2_778
10
10.7779312
20
35.4868584
40
1.5205741
50
89.9900276
51
120.0042762
0
ARC
8
DEFAULT_255_2_778
10
10.7784605
20
35.4868579
40
1.5205746
50
59.9957307
51
90.0099701
0
ARC
8
DEFAULT_255_2_778
10
10.7782952
20
35.4861726
40
1.5212507
50
359.9956636
51
60.0032461
0
ARC
8
DEFAULT_255_2_778
10
10.7783359
20
35.4860188
40
1.52121
50
299.9958673
51
0.0014541
0
ARC
8
DEFAULT_255_2_778
10
10.7784469
20
35.4848497
40
1.520142
50
269.9905385
51
300.014274
0
ARC
8
DEFAULT_255_2_778
10
10.7779452
20
35.4848486
40
1.5201412
50
239.9856943
51
270.0094483
0
ARC
8
DEFAULT_255_2_778
10
10.7782661
20
35.4861399
40
1.52142
50
180.0031068
51
239.9995557
0
LINE
8
DEFAULT_255_2_778
10
9.8653459
20
36.4370574
11
11.7291459
21
36.4370574
0
LINE
8
DEFAULT_255_2_778
10
11.7291459
20
36.4370574
11
11.7291459
21
34.5732574
0
LINE
8
DEFAULT_255_2_778
10
11.7291459
20
34.5732574
11
9.8653459
21
34.5732574
0
LINE
8
DEFAULT_255_2_778
10
9.8653459
20
34.5732574
11
9.8653459
21
36.4370574
0
LINE
8
DEFAULT_255_2_778
10
9.2568459
20
35.4860574
11
9.2568459
21
35.4860574
0
ARC
8
DEFAULT_255_2_778
10
13.9599783
20
39.5498028
40
1.4484884
50
149.4921224
51
180.0907592
0
ARC
8
DEFAULT_255_2_778
10
13.9669078
20
39.5470512
40
1.4558559
50
97.7851456
51
149.5372691
0
ARC
8
DEFAULT_255_2_778
10
13.9662972
20
39.5342559
40
1.4684523
50
89.9846053
51
97.6939119
0
ARC
8
DEFAULT_255_2_778
10
13.9689862
20
39.5542217
40
1.4484884
50
59.4921224
51
90.0907592
0
ARC
8
DEFAULT_255_2_778
10
13.9662346
20
39.5472922
40
1.4558559
50
7.7851456
51
59.5372691
0
ARC
8
DEFAULT_255_2_778
10
13.9534393
20
39.5479028
40
1.4684523
50
359.9846053
51
7.6939119
0
ARC
8
DEFAULT_255_2_778
10
13.9734051
20
39.5452138
40
1.4484884
50
329.4921224
51
0.0907592
0
ARC
8
DEFAULT_255_2_778
10
13.9664756
20
39.5479654
40
1.4558559
50
277.7851456
51
329.5372691
0
ARC
8
DEFAULT_255_2_778
10
13.9670863
20
39.5607607
40
1.4684523
50
269.9846053
51
277.6939119
0
ARC
8
DEFAULT_255_2_778
10
13.9643972
20
39.5407949
40
1.4484884
50
239.4921224
51
270.0907592
0
ARC
8
DEFAULT_255_2_778
10
13.9671488
20
39.5477244
40
1.4558559
50
187.7851456
51
239.5372691
0
ARC
8
DEFAULT_255_2_778
10
13.9799441
20
39.5471137
40
1.4684523
50
179.9846053
51
187.6939119
0
LINE
8
DEFAULT_255_2_778
10
15.2430917
20
40.1825083
11
13.2091917
21
38.3055083
0
LINE
8
DEFAULT_255_2_778
10
14.6810917
20
40.8109083
11
12.6471917
21
38.9339083
0
LINE
8
DEFAULT_255_2_778
10
12.5114917
20
39.5475083
11
12.5114917
21
39.5475083
0
ARC
8
DEFAULT_255_2_778
10
10.7783062
20
31.3850515
40
1.5214603
50
120.0013103
51
179.9997772
0
ARC
8
DEFAULT_255_2_778
10
10.7779312
20
31.3858584
40
1.5205741
50
89.9900276
51
120.0042762
0
ARC
8
DEFAULT_255_2_778
10
10.7784605
20
31.3858579
40
1.5205746
50
59.9957307
51
90.0099701
0
ARC
8
DEFAULT_255_2_778
10
10.7782952
20
31.3851726
40
1.5212507
50
359.9956636
51
60.0032461
0
ARC
8
DEFAULT_255_2_778
10
10.7783359
20
31.3850188
40
1.52121
50
299.9958673
51
0.0014541
0
ARC
8
DEFAULT_255_2_778
10
10.7784469
20
31.3838497
40
1.520142
50
269.9905385
51
300.014274
0
ARC
8
DEFAULT_255_2_778
10
10.7779452
20
31.3838486
40
1.5201412
50
239.9856943
51
270.0094483
0
ARC
8
DEFAULT_255_2_778
10
10.7782661
20
31.3851399
40
1.52142
50
180.0031068
51
239.9995557
0
LINE
8
DEFAULT_255_2_778
10
9.8653459
20
32.3360574
11
11.7291459
21
32.3360574
0
LINE
8
DEFAULT_255_2_778
10
11.7291459
20
32.3360574
11
11.7291459
21
30.4722574
0
LINE
8
DEFAULT_255_2_778
10
11.7291459
20
30.4722574
11
9.8653459
21
30.4722574
0
LINE
8
DEFAULT_255_2_778
10
9.8653459
20
30.4722574
11
9.8653459
21
32.3360574
0
LINE
8
DEFAULT_255_2_778
10
9.2568459
20
31.3850574
11
9.2568459
21
31.3850574
0
ARC
8
DEFAULT_255_2_778
10
10.7783062
20
27.3104515
40
1.5214603
50
120.0013103
51
179.9997772
0
ARC
8
DEFAULT_255_2_778
10
10.7779312
20
27.3112584
40
1.5205741
50
89.9900276
51
120.0042762
0
ARC
8
DEFAULT_255_2_778
10
10.7784605
20
27.3112579
40
1.5205746
50
59.9957307
51
90.0099701
0
ARC
8
DEFAULT_255_2_778
10
10.7782952
20
27.3105726
40
1.5212507
50
359.9956636
51
60.0032461
0
ARC
8
DEFAULT_255_2_778
10
10.7783359
20
27.3104188
40
1.52121
50
299.9958673
51
0.0014541
0
ARC
8
DEFAULT_255_2_778
10
10.7784469
20
27.3092497
40
1.520142
50
269.9905385
51
300.014274
0
ARC
8
DEFAULT_255_2_778
10
10.7779452
20
27.3092486
40
1.5201412
50
239.9856943
51
270.0094483
0
ARC
8
DEFAULT_255_2_778
10
10.7782661
20
27.3105399
40
1.52142
50
180.0031068
51
239.9995557
0
LINE
8
DEFAULT_255_2_778
10
9.8653459
20
28.2614574
11
11.7291459
21
28.2614574
0
LINE
8
DEFAULT_255_2_778
10
11.7291459
20
28.2614574
11
11.7291459
21
26.3976574
0
LINE
8
DEFAULT_255_2_778
10
11.7291459
20
26.3976574
11
9.8653459
21
26.3976574
0
LINE
8
DEFAULT_255_2_778
10
9.8653459
20
26.3976574
11
9.8653459
21
28.2614574
0
LINE
8
DEFAULT_255_2_778
10
9.2568459
20
27.3104574
11
9.2568459
21
27.3104574
0
ARC
8
DEFAULT_255_2_778
10
10.7783062
20
23.3152515
40
1.5214603
50
120.0013103
51
179.9997772
0
ARC
8
DEFAULT_255_2_778
10
10.7779312
20
23.3160584
40
1.5205741
50
89.9900276
51
120.0042762
0
ARC
8
DEFAULT_255_2_778
10
10.7784605
20
23.3160579
40
1.5205746
50
59.9957307
51
90.0099701
0
ARC
8
DEFAULT_255_2_778
10
10.7782952
20
23.3153726
40
1.5212507
50
359.9956636
51
60.0032461
0
ARC
8
DEFAULT_255_2_778
10
10.7783359
20
23.3152188
40
1.52121
50
299.9958673
51
0.0014541
0
ARC
8
DEFAULT_255_2_778
10
10.7784469
20
23.3140497
40
1.520142
50
269.9905385
51
300.014274
0
ARC
8
DEFAULT_255_2_778
10
10.7779452
20
23.3140486
40
1.5201412
50
239.9856943
51
270.0094483
0
ARC
8
DEFAULT_255_2_778
10
10.7782661
20
23.3153399
40
1.52142
50
180.0031068
51
239.9995557
0
LINE
8
DEFAULT_255_2_778
10
9.8653459
20
24.2662574
11
11.7291459
21
24.2662574
0
LINE
8
DEFAULT_255_2_778
10
11.7291459
20
24.2662574
11
11.7291459
21
22.4024574
0
LINE
8
DEFAULT_255_2_778
10
11.7291459
20
22.4024574
11
9.8653459
21
22.4024574
0
LINE
8
DEFAULT_255_2_778
10
9.8653459
20
22.4024574
11
9.8653459
21
24.2662574
0
LINE
8
DEFAULT_255_2_778
10
9.2568459
20
23.3152574
11
9.2568459
21
23.3152574
0
ARC
8
DEFAULT_255_2_778
10
10.7783062
20
19.2935416
40
1.5214603
50
120.0013103
51
179.9997772
0
ARC
8
DEFAULT_255_2_778
10
10.7779312
20
19.2943484
40
1.5205741
50
89.9900276
51
120.0042762
0
ARC
8
DEFAULT_255_2_778
10
10.7784605
20
19.294348
40
1.5205746
50
59.9957307
51
90.0099701
0
ARC
8
DEFAULT_255_2_778
10
10.7782952
20
19.2936626
40
1.5212507
50
359.9956636
51
60.0032461
0
ARC
8
DEFAULT_255_2_778
10
10.7783359
20
19.2935089
40
1.52121
50
299.9958673
51
0.0014541
0
ARC
8
DEFAULT_255_2_778
10
10.7784605
20
19.2928472
40
1.5205747
50
269.9900307
51
300.0042671
0
ARC
8
DEFAULT_255_2_778
10
10.7779314
20
19.2928473
40
1.5205748
50
239.9957318
51
270.0099669
0
ARC
8
DEFAULT_255_2_778
10
10.7782661
20
19.29363
40
1.52142
50
180.0031068
51
239.9995557
0
LINE
8
DEFAULT_255_2_778
10
9.8653459
20
20.2445475
11
11.7291459
21
20.2445475
0
LINE
8
DEFAULT_255_2_778
10
11.7291459
20
20.2445475
11
11.7291459
21
18.3807475
0
LINE
8
DEFAULT_255_2_778
10
11.7291459
20
18.3807475
11
9.8653459
21
18.3807475
0
LINE
8
DEFAULT_255_2_778
10
9.8653459
20
18.3807475
11
9.8653459
21
20.2445475
0
LINE
8
DEFAULT_255_2_778
10
9.2568459
20
19.2935475
11
9.2568459
21
19.2935475
0
ARC
8
DEFAULT_255_2_778
10
21.6262062
20
35.4860515
40
1.5214603
50
120.0013103
51
179.9997772
0
ARC
8
DEFAULT_255_2_778
10
21.6258312
20
35.4868584
40
1.5205741
50
89.9900276
51
120.0042762
0
ARC
8
DEFAULT_255_2_778
10
21.6263605
20
35.4868579
40
1.5205746
50
59.9957307
51
90.0099701
0
ARC
8
DEFAULT_255_2_778
10
21.6261952
20
35.4861726
40
1.5212507
50
359.9956636
51
60.0032461
0
ARC
8
DEFAULT_255_2_778
10
21.6262359
20
35.4860188
40
1.52121
50
299.9958673
51
0.0014541
0
ARC
8
DEFAULT_255_2_778
10
21.6263469
20
35.4848497
40
1.520142
50
269.9905385
51
300.014274
0
ARC
8
DEFAULT_255_2_778
10
21.6258452
20
35.4848486
40
1.5201412
50
239.9856943
51
270.0094483
0
ARC
8
DEFAULT_255_2_778
10
21.6261661
20
35.4861399
40
1.52142
50
180.0031068
51
239.9995557
0
LINE
8
DEFAULT_255_2_778
10
20.7132459
20
36.4370574
11
22.5770459
21
36.4370574
0
LINE
8
DEFAULT_255_2_778
10
22.5770459
20
36.4370574
11
22.5770459
21
34.5732574
0
LINE
8
DEFAULT_255_2_778
10
22.5770459
20
34.5732574
11
20.7132459
21
34.5732574
0
LINE
8
DEFAULT_255_2_778
10
20.7132459
20
34.5732574
11
20.7132459
21
36.4370574
0
LINE
8
DEFAULT_255_2_778
10
20.1047459
20
35.4860574
11
20.1047459
21
35.4860574
0
ARC
8
DEFAULT_255_2_778
10
21.6262062
20
31.3850515
40
1.5214603
50
120.0013103
51
179.9997772
0
ARC
8
DEFAULT_255_2_778
10
21.6258312
20
31.3858584
40
1.5205741
50
89.9900276
51
120.0042762
0
ARC
8
DEFAULT_255_2_778
10
21.6263605
20
31.3858579
40
1.5205746
50
59.9957307
51
90.0099701
0
ARC
8
DEFAULT_255_2_778
10
21.6261952
20
31.3851726
40
1.5212507
50
359.9956636
51
60.0032461
0
ARC
8
DEFAULT_255_2_778
10
21.6262359
20
31.3850188
40
1.52121
50
299.9958673
51
0.0014541
0
ARC
8
DEFAULT_255_2_778
10
21.6263469
20
31.3838497
40
1.520142
50
269.9905385
51
300.014274
0
ARC
8
DEFAULT_255_2_778
10
21.6258452
20
31.3838486
40
1.5201412
50
239.9856943
51
270.0094483
0
ARC
8
DEFAULT_255_2_778
10
21.6261661
20
31.3851399
40
1.52142
50
180.0031068
51
239.9995557
0
LINE
8
DEFAULT_255_2_778
10
20.7132459
20
32.3360574
11
22.5770459
21
32.3360574
0
LINE
8
DEFAULT_255_2_778
10
22.5770459
20
32.3360574
11
22.5770459
21
30.4722574
0
LINE
8
DEFAULT_255_2_778
10
22.5770459
20
30.4722574
11
20.7132459
21
30.4722574
0
LINE
8
DEFAULT_255_2_778
10
20.7132459
20
30.4722574
11
20.7132459
21
32.3360574
0
LINE
8
DEFAULT_255_2_778
10
20.1047459
20
31.3850574
11
20.1047459
21
31.3850574
0
ARC
8
DEFAULT_255_2_778
10
21.6262062
20
27.3104515
40
1.5214603
50
120.0013103
51
179.9997772
0
ARC
8
DEFAULT_255_2_778
10
21.6258312
20
27.3112584
40
1.5205741
50
89.9900276
51
120.0042762
0
ARC
8
DEFAULT_255_2_778
10
21.6263605
20
27.3112579
40
1.5205746
50
59.9957307
51
90.0099701
0
ARC
8
DEFAULT_255_2_778
10
21.6261952
20
27.3105726
40
1.5212507
50
359.9956636
51
60.0032461
0
ARC
8
DEFAULT_255_2_778
10
21.6262359
20
27.3104188
40
1.52121
50
299.9958673
51
0.0014541
0
ARC
8
DEFAULT_255_2_778
10
21.6263469
20
27.3092497
40
1.520142
50
269.9905385
51
300.014274
0
ARC
8
DEFAULT_255_2_778
10
21.6258452
20
27.3092486
40
1.5201412
50
239.9856943
51
270.0094483
0
ARC
8
DEFAULT_255_2_778
10
21.6261661
20
27.3105399
40
1.52142
50
180.0031068
51
239.9995557
0
LINE
8
DEFAULT_255_2_778
10
20.7132459
20
28.2614574
11
22.5770459
21
28.2614574
0
LINE
8
DEFAULT_255_2_778
10
22.5770459
20
28.2614574
11
22.5770459
21
26.3976574
0
LINE
8
DEFAULT_255_2_778
10
22.5770459
20
26.3976574
11
20.7132459
21
26.3976574
0
LINE
8
DEFAULT_255_2_778
10
20.7132459
20
26.3976574
11
20.7132459
21
28.2614574
0
LINE
8
DEFAULT_255_2_778
10
20.1047459
20
27.3104574
11
20.1047459
21
27.3104574
0
ARC
8
DEFAULT_255_2_778
10
21.6262062
20
23.3152515
40
1.5214603
50
120.0013103
51
179.9997772
0
ARC
8
DEFAULT_255_2_778
10
21.6258312
20
23.3160584
40
1.5205741
50
89.9900276
51
120.0042762
0
ARC
8
DEFAULT_255_2_778
10
21.6263605
20
23.3160579
40
1.5205746
50
59.9957307
51
90.0099701
0
ARC
8
DEFAULT_255_2_778
10
21.6261952
20
23.3153726
40
1.5212507
50
359.9956636
51
60.0032461
0
ARC
8
DEFAULT_255_2_778
10
21.6262359
20
23.3152188
40
1.52121
50
299.9958673
51
0.0014541
0
ARC
8
DEFAULT_255_2_778
10
21.6263469
20
23.3140497
40
1.520142
50
269.9905385
51
300.014274
0
ARC
8
DEFAULT_255_2_778
10
21.6258452
20
23.3140486
40
1.5201412
50
239.9856943
51
270.0094483
0
ARC
8
DEFAULT_255_2_778
10
21.6261661
20
23.3153399
40
1.52142
50
180.0031068
51
239.9995557
0
LINE
8
DEFAULT_255_2_778
10
20.7132459
20
24.2662574
11
22.5770459
21
24.2662574
0
LINE
8
DEFAULT_255_2_778
10
22.5770459
20
24.2662574
11
22.5770459
21
22.4024574
0
LINE
8
DEFAULT_255_2_778
10
22.5770459
20
22.4024574
11
20.7132459
21
22.4024574
0
LINE
8
DEFAULT_255_2_778
10
20.7132459
20
22.4024574
11
20.7132459
21
24.2662574
0
LINE
8
DEFAULT_255_2_778
10
20.1047459
20
23.3152574
11
20.1047459
21
23.3152574
0
ARC
8
DEFAULT_255_2_778
10
21.6262062
20
19.2935416
40
1.5214603
50
120.0013103
51
179.9997772
0
ARC
8
DEFAULT_255_2_778
10
21.6258312
20
19.2943484
40
1.5205741
50
89.9900276
51
120.0042762
0
ARC
8
DEFAULT_255_2_778
10
21.6263605
20
19.294348
40
1.5205746
50
59.9957307
51
90.0099701
0
ARC
8
DEFAULT_255_2_778
10
21.6261952
20
19.2936626
40
1.5212507
50
359.9956636
51
60.0032461
0
ARC
8
DEFAULT_255_2_778
10
21.6262359
20
19.2935089
40
1.52121
50
299.9958673
51
0.0014541
0
ARC
8
DEFAULT_255_2_778
10
21.6263605
20
19.2928472
40
1.5205747
50
269.9900307
51
300.0042671
0
ARC
8
DEFAULT_255_2_778
10
21.6258314
20
19.2928473
40
1.5205748
50
239.9957318
51
270.0099669
0
ARC
8
DEFAULT_255_2_778
10
21.6261661
20
19.29363
40
1.52142
50
180.0031068
51
239.9995557
0
LINE
8
DEFAULT_255_2_778
10
20.7132459
20
20.2445475
11
22.5770459
21
20.2445475
0
LINE
8
DEFAULT_255_2_778
10
22.5770459
20
20.2445475
11
22.5770459
21
18.3807475
0
LINE
8
DEFAULT_255_2_778
10
22.5770459
20
18.3807475
11
20.7132459
21
18.3807475
0
LINE
8
DEFAULT_255_2_778
10
20.7132459
20
18.3807475
11
20.7132459
21
20.2445475
0
LINE
8
DEFAULT_255_2_778
10
20.1047459
20
19.2935475
11
20.1047459
21
19.2935475
0
ARC
8
DEFAULT_255_2_778
10
13.9332783
20
15.3404028
40
1.4484884
50
149.4921224
51
180.0907592
0
ARC
8
DEFAULT_255_2_778
10
13.9402078
20
15.3376512
40
1.4558559
50
97.7851456
51
149.5372691
0
ARC
8
DEFAULT_255_2_778
10
13.9395972
20
15.3248559
40
1.4684523
50
89.9846053
51
97.6939119
0
ARC
8
DEFAULT_255_2_778
10
13.9422862
20
15.3448217
40
1.4484884
50
59.4921224
51
90.0907592
0
ARC
8
DEFAULT_255_2_778
10
13.9395346
20
15.3378922
40
1.4558559
50
7.7851456
51
59.5372691
0
ARC
8
DEFAULT_255_2_778
10
13.9267393
20
15.3385028
40
1.4684523
50
359.9846053
51
7.6939119
0
ARC
8
DEFAULT_255_2_778
10
13.9467051
20
15.3358138
40
1.4484884
50
329.4921224
51
0.0907592
0
ARC
8
DEFAULT_255_2_778
10
13.9397756
20
15.3385654
40
1.4558559
50
277.7851456
51
329.5372691
0
ARC
8
DEFAULT_255_2_778
10
13.9403863
20
15.3513607
40
1.4684523
50
269.9846053
51
277.6939119
0
ARC
8
DEFAULT_255_2_778
10
13.9376972
20
15.3313949
40
1.4484884
50
239.4921224
51
270.0907592
0
ARC
8
DEFAULT_255_2_778
10
13.9404488
20
15.3383244
40
1.4558559
50
187.7851456
51
239.5372691
0
ARC
8
DEFAULT_255_2_778
10
13.9532441
20
15.3377137
40
1.4684523
50
179.9846053
51
187.6939119
0
LINE
8
DEFAULT_255_2_778
10
15.2165917
20
15.9731083
11
13.1827917
21
14.0961083
0
LINE
8
DEFAULT_255_2_778
10
14.6543917
20
16.6015083
11
12.6204917
21
14.7245083
0
LINE
8
DEFAULT_255_2_778
10
12.4847917
20
15.3381083
11
12.4847917
21
15.3381083
0
LINE
8
DEFAULT_255_2_778
10
17.5250251
20
37.6028479
11
17.5250251
21
41.6377479
0
LINE
8
DEFAULT_255_2_778
10
17.5250251
20
41.6377479
11
10.3813251
21
41.6377479
0
LINE
8
DEFAULT_255_2_778
10
10.3813251
20
41.6377479
11
10.3813251
21
37.6028479
0
LINE
8
DEFAULT_255_2_778
10
26.8516107
20
17.4944664
11
8.2646107
21
17.4944664
0
LINE
8
DEFAULT_255_2_778
10
8.2646107
20
17.4944664
11
8.2646107
21
37.6027664
0
LINE
8
DEFAULT_255_2_778
10
8.2646107
20
37.6027664
11
26.8516107
21
37.6027664
0
LINE
8
DEFAULT_255_2_778
10
26.8516107
20
37.6027664
11
26.8516107
21
17.4944664
0
LINE
8
DEFAULT_255_2_778
10
10.3813251
20
17.4944666
11
10.3813251
21
13.2611666
0
LINE
8
DEFAULT_255_2_778
10
10.3813251
20
13.2611666
11
17.5250251
21
13.2611666
0
LINE
8
DEFAULT_255_2_778
10
17.5250251
20
13.2611666
11
17.5250251
21
17.4944666
0
LINE
8
DEFAULT_255_2_778
10
11.7042
20
17.4944666
11
11.7042
21
13.2611666
0
LINE
8
DEFAULT_255_2_778
10
16.0037
20
17.4944666
11
16.0037
21
13.2611666
0
LINE
8
DEFAULT_255_2_778
10
11.7042
20
41.6377479
11
11.7042
21
37.6028479
0
LINE
8
DEFAULT_255_2_778
10
16.0037635
20
41.6377479
11
16.0368635
21
37.6028479
0
LINE
8
DEFAULT_255_2_778
10
14.2839
20
37.6028299
11
14.2839
21
17.5275299
0
LINE
8
DEFAULT_255_2_778
10
12.9279
20
37.6028299
11
12.9279
21
17.5275299
0
LINE
8
DEFAULT_255_2_778
10
17.8558
20
37.6028299
11
17.8558
21
17.5275299
0
LINE
8
DEFAULT_255_2_778
10
19.2118
20
37.6028299
11
19.2118
21
17.5275299
0
ARC
8
DEFAULT_255_2_778
10
19.1752858
20
128.0217467
40
0.0531628
50
42.5601699
51
89.1830242
0
ARC
8
DEFAULT_255_2_778
10
18.7006512
20
128.4778856
40
0.8113172
50
294.1547089
51
319.2139884
0
ARC
8
DEFAULT_255_2_778
10
18.6841218
20
128.5355153
40
0.8707065
50
274.2612171
51
293.5953673
0
ARC
8
DEFAULT_255_2_778
10
18.6347662
20
128.9619926
40
1.2997903
50
269.906442
51
275.0339902
0
ARC
8
DEFAULT_255_2_778
10
18.6193484
20
128.6064902
40
0.9443797
50
247.6899016
51
270.8066582
0
ARC
8
DEFAULT_255_2_778
10
18.5730068
20
128.4830408
40
0.812589
50
222.7644692
51
247.4084836
0
ARC
8
DEFAULT_255_2_778
10
18.6379009
20
128.5334017
40
0.8944535
50
199.3249651
51
222.3103216
0
ARC
8
DEFAULT_255_2_778
10
18.8733812
20
128.6172432
40
1.144412
50
179.3460787
51
199.3845995
0
ARC
8
DEFAULT_255_2_778
10
18.8022822
20
128.6428007
40
1.0733112
50
159.2420691
51
180.6671086
0
ARC
8
DEFAULT_255_2_778
10
18.6362126
20
128.7064247
40
0.8954724
50
135.8546513
51
159.2827279
0
ARC
8
DEFAULT_255_2_778
10
18.6148289
20
128.7175024
40
0.8724401
50
111.5236299
51
135.3985993
0
ARC
8
DEFAULT_255_2_778
10
18.6690439
20
128.5776941
40
1.0223902
50
89.2826639
51
111.4754805
0
ARC
8
DEFAULT_255_2_778
10
18.6947279
20
128.5955356
40
1.0045511
50
74.8245752
51
90.7348802
0
ARC
8
DEFAULT_255_2_778
10
18.7642935
20
128.8835802
40
0.7083888
50
66.9067627
51
74.1562226
0
ARC
8
DEFAULT_255_2_778
10
18.6868374
20
128.6971602
40
0.9102529
50
46.6620792
51
67.0244579
0
ARC
8
DEFAULT_255_2_778
10
19.1550938
20
129.291426
40
0.0884787
50
305.9547547
51
325.6515638
0
ARC
8
DEFAULT_255_2_778
10
19.1764054
20
129.2699402
40
0.0587566
50
266.3294274
51
301.4293257
0
ARC
8
DEFAULT_255_2_778
10
19.1753364
20
129.2780812
40
0.0668314
50
234.3065317
51
267.6909068
0
ARC
8
DEFAULT_255_2_778
10
19.9362275
20
130.4587848
40
1.4713909
50
234.9177859
51
237.0693008
0
ARC
8
DEFAULT_255_2_778
10
18.5267472
20
128.4412151
40
0.9897631
50
55.275727
51
59.5434048
0
ARC
8
DEFAULT_255_2_778
10
18.7553078
20
128.821872
40
0.5457928
50
59.9709617
51
69.8028348
0
ARC
8
DEFAULT_255_2_778
10
18.7048826
20
128.6816306
40
0.6948211
50
69.8930501
51
79.6307968
0
ARC
8
DEFAULT_255_2_778
10
18.6891601
20
128.5941284
40
0.7837242
50
79.6515449
51
90.6372368
0
ARC
8
DEFAULT_255_2_778
10
18.6717055
20
128.6589784
40
0.7188789
50
89.3035304
51
112.0227803
0
ARC
8
DEFAULT_255_2_778
10
18.6360477
20
128.7498123
40
0.6213027
50
112.1154034
51
136.6377411
0
ARC
8
DEFAULT_255_2_778
10
18.6805849
20
128.7166234
40
0.676501
50
137.1840658
51
160.6382996
0
ARC
8
DEFAULT_255_2_778
10
18.8915492
20
128.6425466
40
0.9000928
50
160.6417219
51
180.7984213
0
ARC
8
DEFAULT_255_2_778
10
18.9234395
20
128.6167134
40
0.9319905
50
179.1829013
51
197.8164065
0
ARC
8
DEFAULT_255_2_778
10
18.7254332
20
128.5636921
40
0.7273275
50
198.612471
51
200.0861492
0
ARC
8
DEFAULT_255_2_778
10
18.7005744
20
128.5444111
40
0.6974245
50
199.2998328
51
221.8717627
0
ARC
8
DEFAULT_255_2_778
10
18.6145691
20
128.4753885
40
0.5873421
50
222.4579148
51
247.4620596
0
ARC
8
DEFAULT_255_2_778
10
18.6433711
20
128.5484125
40
0.6658301
50
247.5814548
51
270.4623306
0
ARC
8
DEFAULT_255_2_778
10
18.6565099
20
128.9262024
40
1.0436271
50
269.5736327
51
277.9495018
0
ARC
8
DEFAULT_255_2_778
10
18.7093556
20
128.5283262
40
0.6422714
50
278.1893399
51
289.6887778
0
ARC
8
DEFAULT_255_2_778
10
18.7464477
20
128.415379
40
0.5234401
50
290.0313425
51
303.184244
0
ARC
8
DEFAULT_255_2_778
10
18.5947761
20
128.6438652
40
0.7976807
50
303.3191418
51
312.3989901
0
ARC
8
DEFAULT_255_2_778
10
19.1805112
20
128.0076205
40
0.067213
50
93.5547789
51
135.412132
0
LINE
8
DEFAULT_255_2_778
10
19.2144438
20
128.0577041
11
19.3149438
21
127.9479041
0
LINE
8
DEFAULT_255_2_778
10
19.3115438
20
129.3592041
11
19.2281438
21
129.2415041
0
LINE
8
DEFAULT_255_2_778
10
19.1763438
20
128.0747041
11
19.1760438
21
128.0749041
0
ARC
8
DEFAULT_255_2_778
10
20.1558746
20
128.1187247
40
0.4966161
50
21.615952
51
30.2049832
0
ARC
8
DEFAULT_255_2_778
10
17.5966467
20
127.1074893
40
3.248387
50
20.2341762
51
21.5690705
0
ARC
8
DEFAULT_255_2_778
10
21.6972416
20
127.8578619
40
1.116842
50
156.585666
51
160.4837628
0
ARC
8
DEFAULT_255_2_778
10
21.4537921
20
127.966236
40
0.8503782
50
151.6556455
51
156.7681698
0
ARC
8
DEFAULT_255_2_778
10
21.4165179
20
129.5042648
40
0.0760995
50
116.3291896
51
155.8742226
0
ARC
8
DEFAULT_255_2_778
10
21.429331
20
129.4145419
40
0.1646498
50
87.7951015
51
106.4282696
0
ARC
8
DEFAULT_255_2_778
10
22.8567172
20
129.0743058
40
1.456753
50
177.5778961
51
179.9188211
0
ARC
8
DEFAULT_255_2_778
10
22.9924155
20
129.0701741
40
1.5925055
50
175.299706
51
177.6357048
0
ARC
8
DEFAULT_255_2_778
10
20.6629131
20
128.057914
40
0.1020443
50
270.0856551
51
335.3597761
0
ARC
8
DEFAULT_255_2_778
10
20.6261291
20
128.0577754
40
0.1019056
50
204.5902691
51
269.9642997
0
ARC
8
DEFAULT_255_2_778
10
18.5095966
20
129.0497847
40
1.3685617
50
3.6609248
51
6.4982909
0
ARC
8
DEFAULT_255_2_778
10
18.8137005
20
129.073563
40
1.0635688
50
0.1512018
51
3.4286194
0
ARC
8
DEFAULT_255_2_778
10
19.8479003
20
129.4145419
40
0.1646498
50
73.5717304
51
92.2048985
0
ARC
8
DEFAULT_255_2_778
10
19.8607134
20
129.5042648
40
0.0760995
50
24.1257774
51
63.6708104
0
LINE
8
DEFAULT_255_2_778
10
20.7053657
20
128.3699698
11
21.3470657
21
129.5353698
0
LINE
8
DEFAULT_255_2_778
10
21.4356657
20
129.5790698
11
21.6248657
21
129.5790698
0
LINE
8
DEFAULT_255_2_778
10
21.6248657
20
129.5790698
11
21.6248657
21
127.6833698
0
LINE
8
DEFAULT_255_2_778
10
21.6248657
20
127.6833698
11
21.3999657
21
127.6833698
0
LINE
8
DEFAULT_255_2_778
10
21.3999657
20
127.6833698
11
21.3999657
21
129.0763698
0
LINE
8
DEFAULT_255_2_778
10
21.4052657
20
129.2006698
11
20.7556657
21
128.0153698
0
LINE
8
DEFAULT_255_2_778
10
20.6630657
20
127.9558698
11
20.6260657
21
127.9558698
0
LINE
8
DEFAULT_255_2_778
10
20.5334657
20
128.0153698
11
19.8693657
21
129.2046698
0
LINE
8
DEFAULT_255_2_778
10
19.8772657
20
129.0763698
11
19.8772657
21
127.6833698
0
LINE
8
DEFAULT_255_2_778
10
19.8772657
20
127.6833698
11
19.6523657
21
127.6833698
0
LINE
8
DEFAULT_255_2_778
10
19.6523657
20
127.6833698
11
19.6523657
21
129.5790698
0
LINE
8
DEFAULT_255_2_778
10
19.6523657
20
129.5790698
11
19.8415657
21
129.5790698
0
LINE
8
DEFAULT_255_2_778
10
19.9301657
20
129.5353698
11
20.5850657
21
128.3685698
0
LINE
8
DEFAULT_255_2_778
10
20.5850657
20
128.3685698
11
20.5850657
21
128.3685698
0
ARC
8
DEFAULT_255_2_778
10
23.0365184
20
129.4719446
40
0.1136781
50
316.0983792
51
2.0029076
0
ARC
8
DEFAULT_255_2_778
10
23.0299311
20
129.4973922
40
0.1367652
50
266.9869599
51
310.3207066
0
ARC
8
DEFAULT_255_2_778
10
23.0113566
20
129.6873663
40
0.3267487
50
269.9772902
51
271.9968878
0
ARC
8
DEFAULT_255_2_778
10
22.615884
20
127.5844356
40
1.3105511
50
90.5883288
51
102.661335
0
ARC
8
DEFAULT_255_2_778
10
22.6156021
20
128.1688898
40
0.7261474
50
70.3085343
51
91.0396111
0
ARC
8
DEFAULT_255_2_778
10
22.6676544
20
128.3431563
40
0.5446191
50
68.8874245
51
69.2867874
0
ARC
8
DEFAULT_255_2_778
10
22.6779833
20
128.3478257
40
0.5366017
50
45.5397092
51
69.7367115
0
ARC
8
DEFAULT_255_2_778
10
22.6982443
20
128.3757119
40
0.5025328
50
20.2464276
51
44.9615458
0
ARC
8
DEFAULT_255_2_778
10
22.5646574
20
128.3285155
40
0.6442015
50
359.4309676
51
20.0731178
0
ARC
8
DEFAULT_255_2_778
10
22.5314087
20
128.3121428
40
0.6774919
50
337.1920671
51
0.8436097
0
ARC
8
DEFAULT_255_2_778
10
22.5797618
20
128.2951357
40
0.6263344
50
313.5410284
51
336.9115529
0
ARC
8
DEFAULT_255_2_778
10
22.5772881
20
128.304169
40
0.6346019
50
290.0473182
51
313.141092
0
ARC
8
DEFAULT_255_2_778
10
22.5328299
20
128.4256766
40
0.7639875
50
269.5048086
51
290.0557194
0
ARC
8
DEFAULT_255_2_778
10
22.5236776
20
128.4264927
40
0.7647793
50
258.1114985
51
270.1910037
0
ARC
8
DEFAULT_255_2_778
10
22.5296474
20
128.4591909
40
0.7980064
50
247.4272059
51
258.1757117
0
ARC
8
DEFAULT_255_2_778
10
22.5446952
20
128.4963861
40
0.8381285
50
237.9735821
51
247.4533596
0
ARC
8
DEFAULT_255_2_778
10
22.4769215
20
128.3925882
40
0.7141912
50
228.0747443
51
238.1672191
0
ARC
8
DEFAULT_255_2_778
10
22.13346
20
127.9224637
40
0.0736632
50
89.0921974
51
147.7994731
0
ARC
8
DEFAULT_255_2_778
10
22.1267447
20
127.8793998
40
0.1169837
50
55.2487435
51
86.1364446
0
ARC
8
DEFAULT_255_2_778
10
22.9700542
20
129.2708771
40
1.510333
50
239.055391
51
242.5969172
0
ARC
8
DEFAULT_255_2_778
10
22.5876058
20
128.5358946
40
0.6818026
50
242.7028116
51
252.8471275
0
ARC
8
DEFAULT_255_2_778
10
22.5294248
20
128.3673143
40
0.503596
50
253.5155792
51
271.138072
0
ARC
8
DEFAULT_255_2_778
10
22.5467624
20
128.3400605
40
0.4762993
50
269.1175785
51
291.0740227
0
ARC
8
DEFAULT_255_2_778
10
22.5796675
20
128.2497885
40
0.3802372
50
291.3384856
51
316.1389588
0
ARC
8
DEFAULT_255_2_778
10
22.5569389
20
128.2656804
40
0.4076594
50
316.7419945
51
340.1293172
0
ARC
8
DEFAULT_255_2_778
10
22.4447862
20
128.3034968
40
0.5259947
50
340.4076976
51
0.8192608
0
ARC
8
DEFAULT_255_2_778
10
22.499096
20
128.3176047
40
0.4716771
50
359.1998324
51
18.9807214
0
ARC
8
DEFAULT_255_2_778
10
22.6467454
20
128.3654437
40
0.3165083
50
19.4849025
51
45.8950843
0
ARC
8
DEFAULT_255_2_778
10
22.623008
20
128.3332016
40
0.3562218
50
46.7628005
51
71.4001909
0
ARC
8
DEFAULT_255_2_778
10
22.5645899
20
128.1544079
40
0.5443123
50
71.5749778
51
91.1119385
0
ARC
8
DEFAULT_255_2_778
10
22.5571756
20
127.7306324
40
0.9679904
50
90.1863585
51
98.9952886
0
ARC
8
DEFAULT_255_2_778
10
22.5681231
20
127.6688401
40
1.030735
50
99.0592963
51
108.1450893
0
LINE
8
DEFAULT_255_2_778
10
23.1501271
20
129.5791177
11
23.1501271
21
129.4759177
0
LINE
8
DEFAULT_255_2_778
10
23.0112271
20
129.3606177
11
22.4159271
21
129.3606177
0
LINE
8
DEFAULT_255_2_778
10
22.4159271
20
129.3606177
11
22.3286271
21
128.8631177
0
LINE
8
DEFAULT_255_2_778
10
21.9997271
20
127.8612177
11
22.0711271
21
127.9617177
0
LINE
8
DEFAULT_255_2_778
10
22.2471271
20
128.6483177
11
22.0989271
21
128.6920177
0
LINE
8
DEFAULT_255_2_778
10
22.0989271
20
128.6920177
11
22.2524271
21
129.5783177
0
LINE
8
DEFAULT_255_2_778
10
22.2524271
20
129.5783177
11
23.1506271
21
129.5783177
0
LINE
8
DEFAULT_255_2_778
10
23.1506271
20
129.5783177
11
23.1501271
21
129.5791177
0
ARC
8
DEFAULT_255_2_778
10
24.2163774
20
128.5108221
40
0.8486691
50
252.8692393
51
270.629337
0
ARC
8
DEFAULT_255_2_778
10
24.1402794
20
128.2710417
40
0.5971154
50
230.9377971
51
253.0701432
0
ARC
8
DEFAULT_255_2_778
10
24.0697164
20
128.1782238
40
0.4805938
50
204.6731464
51
230.496568
0
ARC
8
DEFAULT_255_2_778
10
24.1129924
20
128.193613
40
0.5263588
50
179.0974463
51
204.228917
0
ARC
8
DEFAULT_255_2_778
10
24.0742515
20
128.2161569
40
0.4877608
50
150.1097749
51
181.6744654
0
ARC
8
DEFAULT_255_2_778
10
23.9928986
20
128.252455
40
0.3992436
50
141.1665594
51
148.807796
0
ARC
8
DEFAULT_255_2_778
10
24.0681564
20
128.178732
40
0.5042
50
106.8535067
51
140.003163
0
ARC
8
DEFAULT_255_2_778
10
24.1562551
20
127.9592111
40
0.7401229
50
105.8189263
51
108.4538583
0
ARC
8
DEFAULT_255_2_778
10
24.0995259
20
129.1041557
40
0.4565011
50
215.740861
51
251.4765692
0
ARC
8
DEFAULT_255_2_778
10
24.1060811
20
129.0893317
40
0.4534402
50
178.4870052
51
213.7362675
0
ARC
8
DEFAULT_255_2_778
10
24.1242297
20
129.1045606
40
0.471442
50
155.8947573
51
180.3957742
0
ARC
8
DEFAULT_255_2_778
10
24.121896
20
129.1052231
40
0.4690414
50
131.6307443
51
155.8521898
0
ARC
8
DEFAULT_255_2_778
10
24.1727342
20
129.0439991
40
0.5485824
50
109.3465738
51
131.3514431
0
ARC
8
DEFAULT_255_2_778
10
24.2167366
20
128.9183884
40
0.6816773
50
89.2298689
51
109.3386073
0
ARC
8
DEFAULT_255_2_778
10
24.2342999
20
128.9178527
40
0.6822032
50
70.6714181
51
90.7055771
0
ARC
8
DEFAULT_255_2_778
10
24.2796943
20
129.0445638
40
0.5476099
50
48.6747513
51
70.7652012
0
ARC
8
DEFAULT_255_2_778
10
24.329702
20
129.1052231
40
0.4690414
50
24.1478102
51
48.3692557
0
ARC
8
DEFAULT_255_2_778
10
24.3273682
20
129.1045606
40
0.471442
50
359.6042258
51
24.1052427
0
ARC
8
DEFAULT_255_2_778
10
24.3489524
20
129.0891884
40
0.4500097
50
325.9935405
51
1.542772
0
ARC
8
DEFAULT_255_2_778
10
24.3485658
20
129.1075637
40
0.4608519
50
288.8021539
51
324.1262858
0
ARC
8
DEFAULT_255_2_778
10
24.3609105
20
128.1401794
40
0.5483072
50
47.2925317
51
75.6183407
0
ARC
8
DEFAULT_255_2_778
10
24.4310606
20
128.2296971
40
0.4350443
50
38.8856826
51
46.0850349
0
ARC
8
DEFAULT_255_2_778
10
24.4086075
20
128.2244598
40
0.4559195
50
359.9978617
51
37.6265317
0
ARC
8
DEFAULT_255_2_778
10
24.1892621
20
128.2020252
40
0.6756371
50
359.9897297
51
1.9014167
0
ARC
8
DEFAULT_255_2_778
10
24.3449503
20
128.1939912
40
0.5200089
50
335.4100119
51
0.8718977
0
ARC
8
DEFAULT_255_2_778
10
24.3747721
20
128.1830801
40
0.4883577
50
309.7121626
51
335.118123
0
ARC
8
DEFAULT_255_2_778
10
24.3143021
20
128.262657
40
0.5882253
50
286.8896627
51
309.290708
0
ARC
8
DEFAULT_255_2_778
10
24.2352206
20
128.5108221
40
0.8486691
50
269.370663
51
287.1307607
0
ARC
8
DEFAULT_255_2_778
10
24.233226
20
128.344261
40
0.4943142
50
269.1275171
51
288.6864744
0
ARC
8
DEFAULT_255_2_778
10
24.2783569
20
128.2122335
40
0.3547872
50
288.6135225
51
312.0310992
0
ARC
8
DEFAULT_255_2_778
10
24.3009827
20
128.1812632
40
0.3166587
50
312.7421513
51
337.7193675
0
ARC
8
DEFAULT_255_2_778
10
24.2435424
20
128.2014754
40
0.3774862
50
338.1861048
51
0.7177644
0
ARC
8
DEFAULT_255_2_778
10
24.227667
20
128.2169394
40
0.3934785
50
358.4366017
51
23.4310319
0
ARC
8
DEFAULT_255_2_778
10
24.3060948
20
128.2457223
40
0.3101093
50
24.3136595
51
50.965261
0
ARC
8
DEFAULT_255_2_778
10
24.2780067
20
128.203071
40
0.3609642
50
51.7658664
51
74.3799236
0
ARC
8
DEFAULT_255_2_778
10
24.2278273
20
128.0339683
40
0.53734
50
74.0819937
51
90.2269425
0
ARC
8
DEFAULT_255_2_778
10
24.2234755
20
128.0346585
40
0.5366503
50
89.7626125
51
105.9284513
0
ARC
8
DEFAULT_255_2_778
10
24.1753864
20
128.1980872
40
0.3663016
50
105.7107398
51
128.0336917
0
ARC
8
DEFAULT_255_2_778
10
24.1438485
20
128.2466128
40
0.3086906
50
128.9723591
51
155.7487203
0
ARC
8
DEFAULT_255_2_778
10
24.2211375
20
128.2169146
40
0.3913851
50
156.4321288
51
181.5681272
0
ARC
8
DEFAULT_255_2_778
10
24.2085899
20
128.2014626
40
0.3787206
50
179.2826496
51
201.7370915
0
ARC
8
DEFAULT_255_2_778
10
24.1475445
20
128.1796867
40
0.3139603
50
202.1715398
51
227.3669413
0
ARC
8
DEFAULT_255_2_778
10
24.1693615
20
128.2069683
40
0.3488166
50
227.7655733
51
251.5898051
0
ARC
8
DEFAULT_255_2_778
10
24.217572
20
128.344261
40
0.4943142
50
251.3135256
51
270.8724829
0
ARC
8
DEFAULT_255_2_778
10
24.2362182
20
129.156164
40
0.3960995
50
268.478214
51
291.8439624
0
ARC
8
DEFAULT_255_2_778
10
24.2694321
20
129.0632605
40
0.2975317
50
292.5638798
51
317.9303153
0
ARC
8
DEFAULT_255_2_778
10
24.2721187
20
129.0547258
40
0.2898544
50
318.8268751
51
343.3352887
0
ARC
8
DEFAULT_255_2_778
10
24.1382304
20
129.0963885
40
0.4300696
50
343.133114
51
0.1219914
0
ARC
8
DEFAULT_255_2_778
10
24.2197117
20
129.0997042
40
0.3485955
50
359.6055208
51
20.4682841
0
ARC
8
DEFAULT_255_2_778
10
24.2795074
20
129.1235004
40
0.2842571
50
20.1893174
51
44.7166774
0
ARC
8
DEFAULT_255_2_778
10
24.2673998
20
129.1079794
40
0.3037917
50
45.1901092
51
69.3773001
0
ARC
8
DEFAULT_255_2_778
10
24.2334518
20
129.0103125
40
0.4071654
50
69.746965
51
91.0910378
0
ARC
8
DEFAULT_255_2_778
10
24.2176922
20
129.011817
40
0.4056662
50
88.8690558
51
110.2929413
0
ARC
8
DEFAULT_255_2_778
10
24.1824289
20
129.1101133
40
0.3012427
50
110.4863013
51
134.8976671
0
ARC
8
DEFAULT_255_2_778
10
24.1717905
20
129.1235004
40
0.2842571
50
135.2833226
51
159.8106826
0
ARC
8
DEFAULT_255_2_778
10
24.2315862
20
129.0997042
40
0.3485955
50
159.5317159
51
180.3944792
0
ARC
8
DEFAULT_255_2_778
10
24.3109276
20
129.0963992
40
0.4279296
50
179.8788358
51
196.9552784
0
ARC
8
DEFAULT_255_2_778
10
24.1792792
20
129.0547258
40
0.2898544
50
196.6647113
51
221.1731249
0
ARC
8
DEFAULT_255_2_778
10
24.1786164
20
129.0583736
40
0.2917742
50
221.7980155
51
247.6571416
0
ARC
8
DEFAULT_255_2_778
10
24.2152187
20
129.1569024
40
0.3968367
50
248.1770874
51
271.5133306
0
LINE
8
DEFAULT_255_2_778
10
24.225899
20
127.6622041
11
24.225699
21
127.6622041
0
LINE
8
DEFAULT_255_2_778
10
24.225099
20
127.8500041
11
24.225699
21
127.8500041
0
LINE
8
DEFAULT_255_2_778
10
24.225699
20
128.7602041
11
24.225699
21
128.7602041
0
ARC
8
DEFAULT_255_2_778
10
25.6821774
20
128.5108221
40
0.8486691
50
252.8692393
51
270.629337
0
ARC
8
DEFAULT_255_2_778
10
25.6066802
20
128.2721719
40
0.5983716
50
230.9613215
51
253.0466188
0
ARC
8
DEFAULT_255_2_778
10
25.5355164
20
128.1782238
40
0.4805938
50
204.6731464
51
230.496568
0
ARC
8
DEFAULT_255_2_778
10
25.5787924
20
128.193613
40
0.5263588
50
179.0974463
51
204.228917
0
ARC
8
DEFAULT_255_2_778
10
25.5400515
20
128.2161569
40
0.4877608
50
150.1097749
51
181.6744654
0
ARC
8
DEFAULT_255_2_778
10
25.4586986
20
128.252455
40
0.3992436
50
141.1665594
51
148.807796
0
ARC
8
DEFAULT_255_2_778
10
25.5339564
20
128.178732
40
0.5042
50
106.8535067
51
140.003163
0
ARC
8
DEFAULT_255_2_778
10
25.6220551
20
127.9592111
40
0.7401229
50
105.8189263
51
108.4538583
0
ARC
8
DEFAULT_255_2_778
10
25.5653259
20
129.1041557
40
0.4565011
50
215.740861
51
251.4765692
0
ARC
8
DEFAULT_255_2_778
10
25.5718811
20
129.0893317
40
0.4534402
50
178.4870052
51
213.7362675
0
ARC
8
DEFAULT_255_2_778
10
25.5900297
20
129.1045606
40
0.471442
50
155.8947573
51
180.3957742
0
ARC
8
DEFAULT_255_2_778
10
25.587696
20
129.1052231
40
0.4690414
50
131.6307443
51
155.8521898
0
ARC
8
DEFAULT_255_2_778
10
25.6385342
20
129.0439991
40
0.5485824
50
109.3465738
51
131.3514431
0
ARC
8
DEFAULT_255_2_778
10
25.6825366
20
128.9183884
40
0.6816773
50
89.2298689
51
109.3386073
0
ARC
8
DEFAULT_255_2_778
10
25.7000999
20
128.9178527
40
0.6822032
50
70.6714181
51
90.7055771
0
ARC
8
DEFAULT_255_2_778
10
25.7454943
20
129.0445638
40
0.5476099
50
48.6747513
51
70.7652012
0
ARC
8
DEFAULT_255_2_778
10
25.795502
20
129.1052231
40
0.4690414
50
24.1478102
51
48.3692557
0
ARC
8
DEFAULT_255_2_778
10
25.7931682
20
129.1045606
40
0.471442
50
359.6042258
51
24.1052427
0
ARC
8
DEFAULT_255_2_778
10
25.8147524
20
129.0891884
40
0.4500097
50
325.9935405
51
1.542772
0
ARC
8
DEFAULT_255_2_778
10
25.8143658
20
129.1075637
40
0.4608519
50
288.8021539
51
324.1262858
0
ARC
8
DEFAULT_255_2_778
10
25.8267105
20
128.1401794
40
0.5483072
50
47.2925317
51
75.6183407
0
ARC
8
DEFAULT_255_2_778
10
25.8968606
20
128.2296971
40
0.4350443
50
38.8856826
51
46.0850349
0
ARC
8
DEFAULT_255_2_778
10
25.8744075
20
128.2244598
40
0.4559195
50
359.9978617
51
37.6265317
0
ARC
8
DEFAULT_255_2_778
10
25.6550621
20
128.2020252
40
0.6756371
50
359.9897297
51
1.9014167
0
ARC
8
DEFAULT_255_2_778
10
25.8107503
20
128.1939912
40
0.5200089
50
335.4100119
51
0.8718977
0
ARC
8
DEFAULT_255_2_778
10
25.8405721
20
128.1830801
40
0.4883577
50
309.7121626
51
335.118123
0
ARC
8
DEFAULT_255_2_778
10
25.7801021
20
128.262657
40
0.5882253
50
286.8896627
51
309.290708
0
ARC
8
DEFAULT_255_2_778
10
25.7010206
20
128.5108221
40
0.8486691
50
269.370663
51
287.1307607
0
ARC
8
DEFAULT_255_2_778
10
25.699026
20
128.344261
40
0.4943142
50
269.1275171
51
288.6864744
0
ARC
8
DEFAULT_255_2_778
10
25.7441569
20
128.2122335
40
0.3547872
50
288.6135225
51
312.0310992
0
ARC
8
DEFAULT_255_2_778
10
25.7667827
20
128.1812632
40
0.3166587
50
312.7421513
51
337.7193675
0
ARC
8
DEFAULT_255_2_778
10
25.7093424
20
128.2014754
40
0.3774862
50
338.1861048
51
0.7177644
0
ARC
8
DEFAULT_255_2_778
10
25.693467
20
128.2169394
40
0.3934785
50
358.4366017
51
23.4310319
0
ARC
8
DEFAULT_255_2_778
10
25.7718948
20
128.2457223
40
0.3101093
50
24.3136595
51
50.965261
0
ARC
8
DEFAULT_255_2_778
10
25.7438067
20
128.203071
40
0.3609642
50
51.7658664
51
74.3799236
0
ARC
8
DEFAULT_255_2_778
10
25.6936273
20
128.0339683
40
0.53734
50
74.0819937
51
90.2269425
0
ARC
8
DEFAULT_255_2_778
10
25.6892755
20
128.0346585
40
0.5366503
50
89.7626125
51
105.9284513
0
ARC
8
DEFAULT_255_2_778
10
25.6411864
20
128.1980872
40
0.3663016
50
105.7107398
51
128.0336917
0
ARC
8
DEFAULT_255_2_778
10
25.6096485
20
128.2466128
40
0.3086906
50
128.9723591
51
155.7487203
0
ARC
8
DEFAULT_255_2_778
10
25.6869375
20
128.2169146
40
0.3913851
50
156.4321288
51
181.5681272
0
ARC
8
DEFAULT_255_2_778
10
25.6743899
20
128.2014626
40
0.3787206
50
179.2826496
51
201.7370915
0
ARC
8
DEFAULT_255_2_778
10
25.6133445
20
128.1796867
40
0.3139603
50
202.1715398
51
227.3669413
0
ARC
8
DEFAULT_255_2_778
10
25.6351615
20
128.2069683
40
0.3488166
50
227.7655733
51
251.5898051
0
ARC
8
DEFAULT_255_2_778
10
25.683372
20
128.344261
40
0.4943142
50
251.3135256
51
270.8724829
0
ARC
8
DEFAULT_255_2_778
10
25.7020182
20
129.156164
40
0.3960995
50
268.478214
51
291.8439624
0
ARC
8
DEFAULT_255_2_778
10
25.7352321
20
129.0632605
40
0.2975317
50
292.5638798
51
317.9303153
0
ARC
8
DEFAULT_255_2_778
10
25.7379187
20
129.0547258
40
0.2898544
50
318.8268751
51
343.3352887
0
ARC
8
DEFAULT_255_2_778
10
25.6040304
20
129.0963885
40
0.4300696
50
343.133114
51
0.1219914
0
ARC
8
DEFAULT_255_2_778
10
25.6855117
20
129.0997042
40
0.3485955
50
359.6055208
51
20.4682841
0
ARC
8
DEFAULT_255_2_778
10
25.7453074
20
129.1235004
40
0.2842571
50
20.1893174
51
44.7166774
0
ARC
8
DEFAULT_255_2_778
10
25.7331998
20
129.1079794
40
0.3037917
50
45.1901092
51
69.3773001
0
ARC
8
DEFAULT_255_2_778
10
25.6992518
20
129.0103125
40
0.4071654
50
69.746965
51
91.0910378
0
ARC
8
DEFAULT_255_2_778
10
25.6834922
20
129.011817
40
0.4056662
50
88.8690558
51
110.2929413
0
ARC
8
DEFAULT_255_2_778
10
25.6482289
20
129.1101133
40
0.3012427
50
110.4863013
51
134.8976671
0
ARC
8
DEFAULT_255_2_778
10
25.6375905
20
129.1235004
40
0.2842571
50
135.2833226
51
159.8106826
0
ARC
8
DEFAULT_255_2_778
10
25.6973862
20
129.0997042
40
0.3485955
50
159.5317159
51
180.3944792
0
ARC
8
DEFAULT_255_2_778
10
25.7767276
20
129.0963992
40
0.4279296
50
179.8788358
51
196.9552784
0
ARC
8
DEFAULT_255_2_778
10
25.6450792
20
129.0547258
40
0.2898544
50
196.6647113
51
221.1731249
0
ARC
8
DEFAULT_255_2_778
10
25.6444164
20
129.0583736
40
0.2917742
50
221.7980155
51
247.6571416
0
ARC
8
DEFAULT_255_2_778
10
25.6810187
20
129.1569024
40
0.3968367
50
248.1770874
51
271.5133306
0
LINE
8
DEFAULT_255_2_778
10
25.691699
20
127.6622041
11
25.691499
21
127.6622041
0
LINE
8
DEFAULT_255_2_778
10
25.690899
20
127.8500041
11
25.691499
21
127.8500041
0
LINE
8
DEFAULT_255_2_778
10
25.691499
20
128.7602041
11
25.691499
21
128.7602041
0
ENDSEC
0
EOF