0
SECTION
2
HEADER
9
$MEASUREMENT
70
1
0
ENDSEC
0
SECTION
2
TABLES
0
TABLE
2
LTYPE
0
LTYPE
72
65
70
64
2
CONTINUOUS
3
______
73
0
40
0
0
ENDTAB
0
TABLE
2
LAYER
0
LAYER
2
DEFAULT_255_2_778
70
0
62
255
6
CONTINUOUS
0
ENDTAB
0
ENDSEC
0
SECTION
2
ENTITIES
0
ARC
8
DEFAULT_255_2_778
10
-2902.6559748
20
2929.4732541
40
4124.5719746
50
314.8349396
51
314.8799452
0
ARC
8
DEFAULT_255_2_778
10
1.4747248
20
0.1086224
40
0.3500268
50
135.1623621
51
167.0726704
0
ARC
8
DEFAULT_255_2_778
10
1.3629673
20
0.1427454
40
0.2336139
50
169.0980173
51
179.9207123
0
ARC
8
DEFAULT_255_2_778
10
1.3508026
20
0.1430029
40
0.221449
50
179.9829991
51
194.1375451
0
ARC
8
DEFAULT_255_2_778
10
1.3823373
20
0.1530853
40
0.2544997
50
194.6046092
51
216.1419494
0
ARC
8
DEFAULT_255_2_778
10
1.4523618
20
0.2005123
40
0.3390337
50
215.6350386
51
222.8535593
0
ARC
8
DEFAULT_255_2_778
10
1.4538634
20
0.1944281
40
0.3360412
50
221.9189029
51
244.2552429
0
ARC
8
DEFAULT_255_2_778
10
1.4150608
20
0.1202101
40
0.2523504
50
244.8713163
51
270.0030732
0
ARC
8
DEFAULT_255_2_778
10
1.4141292
20
0.145304
40
0.2774462
50
270.1951951
51
284.48606
0
ARC
8
DEFAULT_255_2_778
10
1.383711
20
0.2482128
40
0.3847102
50
285.03847
51
304.2556959
0
ARC
8
DEFAULT_255_2_778
10
1.3151992
20
0.3604493
40
0.5160834
50
303.5285903
51
306.4503884
0
ARC
8
DEFAULT_255_2_778
10
-0.0426537
20
2.0341213
40
2.670867
50
308.5498511
51
316.9598599
0
ARC
8
DEFAULT_255_2_778
10
-2590.5779476
20
2595.4576735
40
3668.2822768
50
314.9695274
51
315.0982916
0
ARC
8
DEFAULT_255_2_778
10
8.1079539
20
5.4453247
40
1.1407552
50
44.8486183
51
47.8990216
0
ARC
8
DEFAULT_255_2_778
10
7.3983168
20
4.664203
40
2.19609
50
47.8251655
51
49.9753642
0
ARC
8
DEFAULT_255_2_778
10
6.6488519
20
3.7744367
40
3.3594385
50
49.9464992
51
51.8137415
0
ARC
8
DEFAULT_255_2_778
10
6.1037508
20
3.0833222
40
4.2396505
50
51.7976392
51
53.8928003
0
ARC
8
DEFAULT_255_2_778
10
6.0011026
20
2.9449313
40
4.4119494
50
53.8749086
51
54.5858424
0
ARC
8
DEFAULT_255_2_778
10
6.2771582
20
3.3428787
40
3.9276631
50
54.5038232
51
58.4808804
0
ARC
8
DEFAULT_255_2_778
10
7.0190913
20
4.5593877
40
2.5027633
50
58.400806
51
63.3521938
0
ARC
8
DEFAULT_255_2_778
10
7.5251704
20
5.5688508
40
1.3735461
50
63.3344349
51
69.3232611
0
ARC
8
DEFAULT_255_2_778
10
7.7603093
20
6.1964972
40
0.7033034
50
69.1908142
51
77.9392121
0
ARC
8
DEFAULT_255_2_778
10
7.8340962
20
6.5421298
40
0.3498824
50
77.9291315
51
89.3203637
0
ARC
8
DEFAULT_255_2_778
10
7.8362309
20
6.7016472
40
0.1903512
50
89.3933297
51
103.5566693
0
ARC
8
DEFAULT_255_2_778
10
7.8167887
20
6.7776184
40
0.1119446
50
102.9975651
51
133.7920527
0
ARC
8
DEFAULT_255_2_778
10
8.0454246
20
5.1210898
40
0.2561197
50
359.1804415
51
359.9963432
0
ARC
8
DEFAULT_255_2_778
10
8.0502826
20
5.1210302
40
0.2512617
50
0.0098638
51
72.6243987
0
ARC
8
DEFAULT_255_2_778
10
8.0075641
20
5.0456442
40
0.3364607
50
69.5140053
51
83.1579403
0
ARC
8
DEFAULT_255_2_778
10
8.0142294
20
5.0906029
40
0.2910309
50
83.4063573
51
89.9743097
0
ARC
8
DEFAULT_255_2_778
10
8.0484114
20
4.9586283
40
0.4243737
50
94.6023296
51
138.1734459
0
ARC
8
DEFAULT_255_2_778
10
8.9418953
20
3.9464036
40
1.7722941
50
133.0447224
51
135.0812551
0
ARC
8
DEFAULT_255_2_778
10
14996.800819
20
-14991.5037286
40
21203.1741271
50
134.9855018
51
135.0036244
0
ARC
8
DEFAULT_255_2_778
10
5.3374578
20
-1.9374798
40
3.3847405
50
134.9968111
51
135.1228751
0
ARC
8
DEFAULT_255_2_778
10
3.4532795
20
-0.1141336
40
0.7639541
50
132.3173561
51
152.3667949
0
ARC
8
DEFAULT_255_2_778
10
3.0033773
20
0.134845
40
0.250175
50
155.0954664
51
179.1518902
0
ARC
8
DEFAULT_255_2_778
10
2.9712927
20
0.1397302
40
0.2180662
50
180.310621
51
207.8821363
0
ARC
8
DEFAULT_255_2_778
10
3.0678358
20
0.1898278
40
0.3268312
50
207.7301642
51
222.4618418
0
ARC
8
DEFAULT_255_2_778
10
3.1454841
20
0.2550368
40
0.4281588
50
221.8845613
51
222.8367979
0
ARC
8
DEFAULT_255_2_778
10
3.1216593
20
0.2280234
40
0.3923381
50
222.3095963
51
235.0402098
0
ARC
8
DEFAULT_255_2_778
10
3.0371484
20
0.1051246
40
0.2431937
50
234.7669398
51
257.099506
0
ARC
8
DEFAULT_255_2_778
10
3.0269025
20
0.0703573
40
0.2070285
50
257.7153383
51
270.0222208
0
ARC
8
DEFAULT_255_2_778
10
3.0073922
20
0.1882874
40
0.3255485
50
273.4499916
51
309.5431224
0
ARC
8
DEFAULT_255_2_778
10
2.5001755
20
0.8757868
40
1.179554
50
307.2807033
51
315.9680223
0
ARC
8
DEFAULT_255_2_778
10
32729.8625107
20
-32752.4164437
40
46300.6391327
50
134.9689011
51
134.977286
0
LINE
8
DEFAULT_255_2_778
10
8.1417181
20
4.8449264
11
8.1420519
21
4.8452603
0
ARC
8
DEFAULT_255_2_778
10
7.8802774
20
5.1822183
40
0.4266927
50
307.8427725
51
350.8310441
0
ARC
8
DEFAULT_255_2_778
10
4.8410273
20
5.3774001
40
0.6853646
50
22.7398663
51
47.2312331
0
ARC
8
DEFAULT_255_2_778
10
-4624.0105867
20
-4620.1914586
40
6544.5487194
50
44.9799116
51
45.0364107
0
ARC
8
DEFAULT_255_2_778
10
0.4137666
20
10.1809197
40
0.4204956
50
38.5944319
51
85.4397376
0
ARC
8
DEFAULT_255_2_778
10
0.4472363
20
10.2815324
40
0.3185519
50
90.0066647
51
92.3061519
0
ARC
8
DEFAULT_255_2_778
10
0.4251613
20
10.3657921
40
0.2342173
50
87.7349481
51
90.0001558
0
ARC
8
DEFAULT_255_2_778
10
0.4251592
20
10.3674232
40
0.2325863
50
89.9996432
51
158.3251445
0
ARC
8
DEFAULT_255_2_778
10
0.516979
20
10.3262039
40
0.3331667
50
157.5697667
51
172.0346709
0
ARC
8
DEFAULT_255_2_778
10
0.4642549
20
10.3350839
40
0.2797247
50
172.3394958
51
179.9620551
0
ARC
8
DEFAULT_255_2_778
10
0.5732628
20
10.3631499
40
0.3897311
50
184.1023566
51
227.7128681
0
ARC
8
DEFAULT_255_2_778
10
1.2016309
20
10.903249
40
1.2163205
50
222.9283351
51
225.070273
0
ARC
8
DEFAULT_255_2_778
10
18933.7947052
20
18936.8567693
40
26771.2517538
50
224.9899552
51
225.0037668
0
ARC
8
DEFAULT_255_2_778
10
5.3810991
20
5.9026175
40
0.6370641
50
221.7237009
51
247.8124127
0
ARC
8
DEFAULT_255_2_778
10
7.6443462
20
3.7272128
40
0.7142464
50
312.9623873
51
332.7906353
0
ARC
8
DEFAULT_255_2_778
10
8.0489285
20
3.5089378
40
0.2547934
50
334.843806
51
359.0868523
0
ARC
8
DEFAULT_255_2_778
10
8.0858591
20
3.5036594
40
0.2178338
50
0.3203205
51
29.6811441
0
ARC
8
DEFAULT_255_2_778
10
7.9855992
20
3.4479355
40
0.3325344
50
29.4686381
51
44.3887941
0
ARC
8
DEFAULT_255_2_778
10
7.8930477
20
3.3637428
40
0.4575902
50
43.8156845
51
46.6747818
0
ARC
8
DEFAULT_255_2_778
10
7.9778417
20
3.4592441
40
0.3299578
50
46.007616
51
61.3706575
0
ARC
8
DEFAULT_255_2_778
10
8.0299817
20
3.555688
40
0.2203234
50
61.2549338
51
89.7200953
0
ARC
8
DEFAULT_255_2_778
10
8.0515577
20
3.4450075
40
0.3316355
50
93.5439331
51
130.5848707
0
ARC
8
DEFAULT_255_2_778
10
8.4189981
20
2.9435152
40
0.9527076
50
127.7446464
51
135.4451977
0
ARC
8
DEFAULT_255_2_778
10
6.4062041
20
1.2972764
40
0.6958625
50
134.3558253
51
145.7304644
0
ARC
8
DEFAULT_255_2_778
10
6.1559722
20
1.4645675
40
0.3948809
50
145.3454854
51
166.1436707
0
ARC
8
DEFAULT_255_2_778
10
6.063597
20
1.4913746
40
0.2987992
50
166.8923449
51
179.93319
0
ARC
8
DEFAULT_255_2_778
10
6.0637578
20
1.4920585
40
0.29896
50
180.0642976
51
192.5902206
0
ARC
8
DEFAULT_255_2_778
10
6.1514058
20
1.5164169
40
0.3898379
50
193.2762242
51
213.3949724
0
ARC
8
DEFAULT_255_2_778
10
6.3831316
20
1.6641484
40
0.6646307
50
213.0326281
51
223.9916037
0
ARC
8
DEFAULT_255_2_778
10
6.572395
20
1.8370489
40
0.9209102
50
223.552247
51
225.5695308
0
ARC
8
DEFAULT_255_2_778
10
7.7985715
20
0.8626781
40
1.1023786
50
222.5772823
51
240.1415605
0
ARC
8
DEFAULT_255_2_778
10
7.5457272
20
0.434002
40
0.6047535
50
240.6968643
51
269.7372746
0
ARC
8
DEFAULT_255_2_778
10
7.5417743
20
0.4645693
40
0.6353155
50
270.1064009
51
279.8868911
0
ARC
8
DEFAULT_255_2_778
10
7.5322723
20
0.52774
40
0.6991814
50
279.7651387
51
281.0948224
0
ARC
8
DEFAULT_255_2_778
10
7.8068569
20
0.9113834
40
1.0788841
50
262.5419841
51
269.9108116
0
ARC
8
DEFAULT_255_2_778
10
7.8078568
20
0.8874097
40
1.0549127
50
269.8544738
51
270.0041578
0
ARC
8
DEFAULT_255_2_778
10
7.8079208
20
0.9620643
40
1.1295673
50
270.0006387
51
270.8672698
0
ARC
8
DEFAULT_255_2_778
10
8.1243006
20
-3.5053734
40
3.3513896
50
94.0868586
51
95.1233964
0
ARC
8
DEFAULT_255_2_778
10
7.4541005
20
5.7614838
40
5.9396731
50
274.1646013
51
274.6101274
0
ARC
8
DEFAULT_255_2_778
10
7.9228247
20
0.4065532
40
0.5655925
50
270.8790959
51
296.3697569
0
ARC
8
DEFAULT_255_2_778
10
8.063798
20
0.0844938
40
0.215082
50
300.8342436
51
348.8271477
0
ARC
8
DEFAULT_255_2_778
10
7.9185475
20
0.1226033
40
0.3650809
50
347.3765367
51
358.5910226
0
ARC
8
DEFAULT_255_2_778
10
7.8059908
20
0.1247699
40
0.4776573
50
358.6631979
51
359.9931592
0
ARC
8
DEFAULT_255_2_778
10
7.9793757
20
0.1332518
40
0.3043922
50
358.3924967
51
23.433969
0
ARC
8
DEFAULT_255_2_778
10
8.0287333
20
0.1249462
40
0.26382
50
29.3625636
51
90.6269488
0
ARC
8
DEFAULT_255_2_778
10
7.9320968
20
-0.5357918
40
0.9292831
50
84.2099237
51
90.3607204
0
ARC
8
DEFAULT_255_2_778
10
7.9258033
20
-0.5871337
40
0.9806066
50
89.9741183
51
90.077622
0
ARC
8
DEFAULT_255_2_778
10
7.9359838
20
-1.8975686
40
2.2910692
50
90.2878201
51
92.4381885
0
ARC
8
DEFAULT_255_2_778
10
7.8118531
20
1.1021775
40
0.7112512
50
270.0098504
51
272.1485323
0
ARC
8
DEFAULT_255_2_778
10
7.817008
20
1.0144968
40
0.6235908
50
220.1324723
51
269.5376003
0
ARC
8
DEFAULT_255_2_778
10
8.2233136
20
1.4583486
40
1.222778
50
223.5528188
51
223.7645655
0
ARC
8
DEFAULT_255_2_778
10
7.1366007
20
1.7836237
40
0.6857776
50
219.0924427
51
228.2459775
0
ARC
8
DEFAULT_255_2_778
10
6.8579005
20
1.5607225
40
0.3289258
50
201.807124
51
219.569855
0
ARC
8
DEFAULT_255_2_778
10
6.7390385
20
1.5110449
40
0.200125
50
180.3101372
51
201.2438552
0
ARC
8
DEFAULT_255_2_778
10
6.7293326
20
1.5098736
40
0.1904163
50
171.8024218
51
179.9734862
0
ARC
8
DEFAULT_255_2_778
10
6.8039747
20
1.4921625
40
0.2669098
50
145.2189636
51
170.3238404
0
ARC
8
DEFAULT_255_2_778
10
7.1070791
20
1.2931492
40
0.6294573
50
135.6749788
51
146.0788292
0
ARC
8
DEFAULT_255_2_778
10
7.4806862
20
0.9454537
40
1.1397423
50
133.8978174
51
136.2939548
0
ARC
8
DEFAULT_255_2_778
10
4.5964173
20
5.1574026
40
0.7117183
50
222.2652792
51
247.9318465
0
ARC
8
DEFAULT_255_2_778
10
4.0681817
20
4.5719017
40
0.6448952
50
23.4489839
51
50.407829
0
ARC
8
DEFAULT_255_2_778
10
61.7558447
20
64.4630077
40
82.5123065
50
226.0296859
51
226.0397626
0
ARC
8
DEFAULT_255_2_778
10
6.5149912
20
7.2089105
40
2.9536331
50
225.13046
51
226.1485468
0
ARC
8
DEFAULT_255_2_778
10
-1564.618501
20
-1560.4628426
40
2216.5182073
50
44.9365514
51
45.038888
0
ARC
8
DEFAULT_255_2_778
10
0.7943873
20
8.2302899
40
0.3650694
50
45.4889389
51
70.5225622
0
ARC
8
DEFAULT_255_2_778
10
0.8438168
20
8.3556346
40
0.2304663
50
71.7175473
51
89.7197122
0
ARC
8
DEFAULT_255_2_778
10
0.8449138
20
8.3757385
40
0.2103597
50
89.9917117
51
95.5197028
0
ARC
8
DEFAULT_255_2_778
10
0.8495819
20
8.3550667
40
0.2313999
50
96.1778817
51
126.0608571
0
ARC
8
DEFAULT_255_2_778
10
0.9076034
20
8.2674519
40
0.3364133
50
125.2654888
51
135.097643
0
ARC
8
DEFAULT_255_2_778
10
0.879233
20
8.2850806
40
0.3039678
50
133.6762487
51
157.9583946
0
ARC
8
DEFAULT_255_2_778
10
0.8204042
20
8.3124886
40
0.2391762
50
158.755557
51
180.0552283
0
ARC
8
DEFAULT_255_2_778
10
0.8610475
20
8.314549
40
0.2798288
50
180.4690736
51
200.1882148
0
ARC
8
DEFAULT_255_2_778
10
0.9869942
20
8.36108
40
0.414096
50
200.2169201
51
215.1267768
0
ARC
8
DEFAULT_255_2_778
10
1.0811014
20
8.4213365
40
0.525758
50
214.5965491
51
215.4332199
0
ARC
8
DEFAULT_255_2_778
10
1.5640812
20
8.7798531
40
1.1272023
50
216.0486346
51
226.832062
0
ARC
8
DEFAULT_255_2_778
10
1955.927975
20
1961.5429372
40
2763.8828244
50
224.9772817
51
225.0733986
0
ARC
8
DEFAULT_255_2_778
10
3.5811928
20
3.9823052
40
0.3128978
50
225.868093
51
256.287078
0
ARC
8
DEFAULT_255_2_778
10
3.3677832
20
3.867249
40
0.5074133
50
17.7956657
51
48.6787688
0
ARC
8
DEFAULT_255_2_778
10
-1063.6681576
20
-1061.308592
40
1508.2083231
50
44.9512699
51
45.0649735
0
ARC
8
DEFAULT_255_2_778
10
1.1205692
20
5.9124784
40
0.6488395
50
44.1507131
51
66.0442523
0
ARC
8
DEFAULT_255_2_778
10
1.2314637
20
6.1363604
40
0.3993527
50
67.5421258
51
76.0866478
0
ARC
8
DEFAULT_255_2_778
10
1.2498328
20
6.2138944
40
0.3196776
50
75.940882
51
89.7150227
0
ARC
8
DEFAULT_255_2_778
10
1.2492718
20
6.2824186
40
0.2511588
50
89.5092997
51
139.0261185
0
ARC
8
DEFAULT_255_2_778
10
1.2884303
20
6.2400618
40
0.3085621
50
137.8556731
51
138.6720498
0
ARC
8
DEFAULT_255_2_778
10
1.2328584
20
6.2687699
40
0.2483349
50
135.176827
51
180.0480727
0
ARC
8
DEFAULT_255_2_778
10
1.2341992
20
6.2685617
40
0.2496756
50
180.0000544
51
180.8204888
0
ARC
8
DEFAULT_255_2_778
10
1.2323836
20
6.2683858
40
0.2478577
50
180.7858326
51
218.0184465
0
ARC
8
DEFAULT_255_2_778
10
2.5623812
20
7.1578956
40
1.8473073
50
214.3436913
51
225.3707777
0
ARC
8
DEFAULT_255_2_778
10
226.0425052
20
228.8725456
40
316.6499263
50
224.7762764
51
225.1760459
0
ARC
8
DEFAULT_255_2_778
10
15.4426853
20
3.7034431
40
0.9543514
50
19.940968
51
41.9271366
0
ARC
8
DEFAULT_255_2_778
10
15.4201841
20
3.6492798
40
1.0076
50
43.3637925
51
71.2889325
0
ARC
8
DEFAULT_255_2_778
10
15.2494596
20
3.2140804
40
1.4747315
50
70.4306191
51
82.6632762
0
ARC
8
DEFAULT_255_2_778
10
15.1242918
20
2.3037266
40
2.393629
50
82.4744024
51
90.2842204
0
ARC
8
DEFAULT_255_2_778
10
15.0957389
20
1.4167338
40
3.280635
50
89.7087
51
89.9999928
0
ARC
8
DEFAULT_255_2_778
10
15.095612
20
1.4193314
40
3.2780374
50
89.9977739
51
100.0242926
0
ARC
8
DEFAULT_255_2_778
10
15.0096467
20
1.696298
40
2.9905574
50
99.326077
51
107.5773713
0
ARC
8
DEFAULT_255_2_778
10
14.862717
20
1.9898065
40
2.0546899
50
102.6350396
51
108.813046
0
ARC
8
DEFAULT_255_2_778
10
14.8975193
20
1.8461333
40
2.202498
50
98.9145323
51
102.700917
0
ARC
8
DEFAULT_255_2_778
10
15.0171565
20
1.2205378
40
2.8391552
50
89.98749
51
99.3433564
0
ARC
8
DEFAULT_255_2_778
10
15.0178051
20
1.2011619
40
2.8585312
50
89.608884
51
90.000577
0
ARC
8
DEFAULT_255_2_778
10
15.0639084
20
3.1782195
40
0.8818079
50
90.0000541
51
91.7279795
0
ARC
8
DEFAULT_255_2_778
10
15.0637432
20
3.1748564
40
0.8851709
50
70.513818
51
89.9893611
0
ARC
8
DEFAULT_255_2_778
10
15.1855511
20
3.5361933
40
0.5039302
50
21.0293042
51
69.8653164
0
ARC
8
DEFAULT_255_2_778
10
15.1146526
20
3.5117186
40
0.5788951
50
16.0800507
51
20.7722666
0
ARC
8
DEFAULT_255_2_778
10
14.8945352
20
3.4456129
40
0.8087145
50
15.3452182
51
16.2608052
0
ARC
8
DEFAULT_255_2_778
10
14.7278751
20
3.4145324
40
0.97776
50
0.0409838
51
14.5170971
0
ARC
8
DEFAULT_255_2_778
10
14.7367234
20
3.4152322
40
0.9689116
50
359.6625901
51
359.9999753
0
ARC
8
DEFAULT_255_2_778
10
15.1355793
20
0.9749375
40
2.3789929
50
76.1362699
51
83.3295846
0
ARC
8
DEFAULT_255_2_778
10
15.1431564
20
1.0317277
40
2.3217071
50
83.3525156
51
89.8454718
0
ARC
8
DEFAULT_255_2_778
10
15.140997
20
0.9249315
40
2.4285094
50
89.8013204
51
90.001343
0
ARC
8
DEFAULT_255_2_778
10
15.1412847
20
0.8955339
40
2.4579071
50
90.0080354
51
101.9103847
0
ARC
8
DEFAULT_255_2_778
10
14.8877576
20
2.0435115
40
1.2823689
50
101.4123043
51
122.4270952
0
ARC
8
DEFAULT_255_2_778
10
14.6864203
20
2.370706
40
0.898247
50
122.7783351
51
150.6828798
0
ARC
8
DEFAULT_255_2_778
10
14.6587608
20
2.3983211
40
0.860673
50
151.3842224
51
174.0941056
0
ARC
8
DEFAULT_255_2_778
10
15.0670698
20
2.3387983
40
1.2730556
50
173.3202392
51
180.1427567
0
ARC
8
DEFAULT_255_2_778
10
14.98486
20
2.3072098
40
1.1911809
50
178.633032
51
179.999282
0
ARC
8
DEFAULT_255_2_778
10
14.9812256
20
2.3070601
40
1.1875466
50
179.9920611
51
200.3942469
0
ARC
8
DEFAULT_255_2_778
10
14.6788507
20
2.2199275
40
0.8740024
50
205.6259647
51
233.5361969
0
ARC
8
DEFAULT_255_2_778
10
14.8083275
20
2.4372885
40
1.1260399
50
234.8109826
51
258.031598
0
ARC
8
DEFAULT_255_2_778
10
15.0903047
20
3.6635003
40
2.3841682
50
257.5133379
51
270.0133385
0
ARC
8
DEFAULT_255_2_778
10
15.0908357
20
3.6835125
40
2.4041802
50
270.000572
51
270.5072028
0
ARC
8
DEFAULT_255_2_778
10
15.1508896
20
6.7177383
40
5.4384502
50
269.5915261
51
269.9973142
0
ARC
8
DEFAULT_255_2_778
10
15.1513803
20
6.6940626
40
5.4147744
50
269.9921105
51
278.0411068
0
ARC
8
DEFAULT_255_2_778
10
13.392041
20
18.1690039
40
17.0235467
50
278.5018263
51
279.3182489
0
ARC
8
DEFAULT_255_2_778
10
14.6810594
20
10.3182312
40
9.0676558
50
279.3130277
51
280.3484686
0
ARC
8
DEFAULT_255_2_778
10
15.5174437
20
5.7562057
40
4.4295964
50
280.306013
51
281.9763234
0
ARC
8
DEFAULT_255_2_778
10
14.4312608
20
3.4225729
40
2.0054487
50
359.4529744
51
0.0005539
0
ARC
8
DEFAULT_255_2_778
10
14.4362276
20
3.422884
40
2.000482
50
359.9916437
51
14.7238123
0
ARC
8
DEFAULT_255_2_778
10
15.4124136
20
3.3945613
40
1.5064045
50
275.0970731
51
281.2352443
0
ARC
8
DEFAULT_255_2_778
10
15.2488959
20
5.1327242
40
3.2522323
50
271.4207217
51
275.2458844
0
ARC
8
DEFAULT_255_2_778
10
15.1792337
20
7.3442272
40
5.4648026
50
269.9537042
51
271.5759906
0
ARC
8
DEFAULT_255_2_778
10
15.1621848
20
3.0260182
40
1.1466615
50
257.7442562
51
270.6312636
0
ARC
8
DEFAULT_255_2_778
10
15.0542834
20
2.5356232
40
0.6445393
50
238.625592
51
257.8636775
0
ARC
8
DEFAULT_255_2_778
10
14.8922647
20
2.2664977
40
0.3304176
50
195.4048433
51
238.3159764
0
ARC
8
DEFAULT_255_2_778
10
15.2666138
20
2.3724511
40
0.7194677
50
181.2523563
51
195.6203053
0
ARC
8
DEFAULT_255_2_778
10
14.9405237
20
2.3723229
40
0.3935149
50
180.0001119
51
182.2714545
0
ARC
8
DEFAULT_255_2_778
10
14.9374819
20
2.3725998
40
0.390473
50
147.0770026
51
180.0407402
0
ARC
8
DEFAULT_255_2_778
10
14.9495393
20
2.3513407
40
0.4123033
50
114.9960594
51
145.5076699
0
ARC
8
DEFAULT_255_2_778
10
15.1153537
20
2.00506
40
0.796226
50
97.8490547
51
115.2810738
0
ARC
8
DEFAULT_255_2_778
10
15.2595542
20
1.1017383
40
1.7108883
50
90.0012091
51
98.5017172
0
ARC
8
DEFAULT_255_2_778
10
15.2745978
20
1.1552411
40
1.6574539
50
90.0007714
51
90.5212914
0
ARC
8
DEFAULT_255_2_778
10
15.2744092
20
1.1525012
40
1.6601938
50
81.4226435
51
89.9942606
0
ARC
8
DEFAULT_255_2_778
10
15.318004
20
1.3555374
40
1.4529831
50
74.6259513
51
81.9284012
0
ARC
8
DEFAULT_255_2_778
10
18.3433926
20
2.3007631
40
0.3685869
50
192.191284
51
220.0433651
0
ARC
8
DEFAULT_255_2_778
10
18.9998636
20
2.4359065
40
1.0388128
50
180.0177965
51
191.8308228
0
ARC
8
DEFAULT_255_2_778
10
18.9894547
20
2.4355827
40
1.0284039
50
178.9668122
51
179.999935
0
ARC
8
DEFAULT_255_2_778
10
18.8186617
20
2.2860576
40
1.6148944
50
179.2169839
51
180.0009588
0
ARC
8
DEFAULT_255_2_778
10
18.8217315
20
2.2859859
40
1.6179643
50
179.9984193
51
194.7544927
0
ARC
8
DEFAULT_255_2_778
10
17.9309387
20
2.0512582
40
0.6967645
50
194.744404
51
225.378603
0
ARC
8
DEFAULT_255_2_778
10
18.0261292
20
2.1889547
40
0.8621224
50
227.3041134
51
254.4159137
0
ARC
8
DEFAULT_255_2_778
10
18.2112469
20
2.7237791
40
1.4274375
50
253.0257501
51
260.7102926
0
ARC
8
DEFAULT_255_2_778
10
18.2418117
20
2.8842208
40
1.5907149
50
260.5566932
51
262.9225429
0
ARC
8
DEFAULT_255_2_778
10
18.3888302
20
3.9420545
40
2.6586482
50
262.5871798
51
269.2626842
0
ARC
8
DEFAULT_255_2_778
10
18.5879944
20
3.09893
40
1.1977175
50
251.7855313
51
263.8854719
0
ARC
8
DEFAULT_255_2_778
10
18.3212882
20
2.2935282
40
0.3493099
50
221.6846965
51
252.0469983
0
ARC
8
DEFAULT_255_2_778
10
20.4869544
20
3.8558172
40
1.9355913
50
269.960442
51
281.3118326
0
ARC
8
DEFAULT_255_2_778
10
20.472853
20
3.3644764
40
1.4443064
50
258.7381552
51
270.5063993
0
ARC
8
DEFAULT_255_2_778
10
20.3486649
20
2.7684158
40
0.8354873
50
238.0918409
51
259.1078126
0
ARC
8
DEFAULT_255_2_778
10
20.2434779
20
2.5858626
40
0.6249623
50
217.6137216
51
237.4319918
0
ARC
8
DEFAULT_255_2_778
10
20.5431822
20
2.8023092
40
0.994542
50
193.5545554
51
216.9533042
0
ARC
8
DEFAULT_255_2_778
10
21.0959545
20
2.9450587
40
1.5654015
50
181.4453709
51
193.8920108
0
ARC
8
DEFAULT_255_2_778
10
21.6010585
20
2.974085
40
2.0711409
50
179.9859716
51
181.8956426
0
ARC
8
DEFAULT_255_2_778
10
21.7562231
20
2.974258
40
2.2263055
50
179.9570639
51
179.9914036
0
ARC
8
DEFAULT_255_2_778
10
21.2719005
20
2.9888315
40
1.7420302
50
169.3696365
51
180.4244564
0
ARC
8
DEFAULT_255_2_778
10
20.6192759
20
3.1164291
40
1.0770796
50
150.9379521
51
169.6364986
0
ARC
8
DEFAULT_255_2_778
10
20.4065337
20
3.2248455
40
0.8385029
50
140.3290988
51
150.3520184
0
ARC
8
DEFAULT_255_2_778
10
20.3370263
20
3.2757338
40
0.7525334
50
99.3234699
51
139.933032
0
ARC
8
DEFAULT_255_2_778
10
20.4292848
20
2.8590748
40
1.1788697
50
89.6824666
51
100.4675276
0
ARC
8
DEFAULT_255_2_778
10
20.4463795
20
2.4624697
40
1.5754921
50
89.9989762
51
90.3840884
0
ARC
8
DEFAULT_255_2_778
10
20.4461017
20
2.4587283
40
1.5792337
50
77.4662697
51
89.9889016
0
ARC
8
DEFAULT_255_2_778
10
20.4256573
20
2.3313973
40
1.7079842
50
67.269477
51
77.7237515
0
ARC
8
DEFAULT_255_2_778
10
20.3853558
20
2.4053125
40
2.2888463
50
67.8556107
51
89.9934741
0
ARC
8
DEFAULT_255_2_778
10
20.385655
20
2.397503
40
2.2966559
50
90.0009601
51
90.3052827
0
ARC
8
DEFAULT_255_2_778
10
20.3474873
20
3.0249065
40
1.6694213
50
89.1100012
51
89.999387
0
ARC
8
DEFAULT_255_2_778
10
20.3474137
20
3.0285707
40
1.665757
50
89.9968555
51
112.919034
0
ARC
8
DEFAULT_255_2_778
10
20.278913
20
3.2083743
40
1.4734879
50
113.1884192
51
137.6802121
0
ARC
8
DEFAULT_255_2_778
10
20.3874606
20
3.1271721
40
1.6084715
50
138.1447504
51
160.8911951
0
ARC
8
DEFAULT_255_2_778
10
20.7602095
20
2.9916592
40
2.0050525
50
160.71912
51
180.0022132
0
ARC
8
DEFAULT_255_2_778
10
20.7578458
20
2.9915573
40
2.0026888
50
179.9993003
51
180.4471965
0
ARC
8
DEFAULT_255_2_778
10
20.9959498
20
2.9555991
40
2.2408239
50
179.4802428
51
180.0005186
0
ARC
8
DEFAULT_255_2_778
10
21.0096852
20
2.9560376
40
2.2545593
50
180.0116597
51
197.1366924
0
ARC
8
DEFAULT_255_2_778
10
20.2589246
20
2.7178761
40
1.4669682
50
196.8877065
51
221.3753364
0
ARC
8
DEFAULT_255_2_778
10
20.1808148
20
2.6729621
40
1.3787838
50
222.1202998
51
248.2733491
0
ARC
8
DEFAULT_255_2_778
10
20.2913253
20
2.9245969
40
1.6534787
50
247.9438101
51
262.525585
0
ARC
8
DEFAULT_255_2_778
10
20.3899043
20
3.599931
40
2.3359188
50
262.28296
51
270.199015
0
ARC
8
DEFAULT_255_2_778
10
20.4003616
20
3.0077864
40
1.7437616
50
269.922996
51
270.0256765
0
ARC
8
DEFAULT_255_2_778
10
20.4087213
20
3.7578794
40
2.4938663
50
269.8258919
51
281.8237278
0
ARC
8
DEFAULT_255_2_778
10
20.3264406
20
4.2018069
40
2.9452527
50
281.6208956
51
285.563489
0
ARC
8
DEFAULT_255_2_778
10
20.7665455
20
2.6419156
40
1.3244853
50
285.3281735
51
292.3522607
0
ARC
8
DEFAULT_255_2_778
10
20.9894895
20
2.0813853
40
0.7213196
50
292.906462
51
295.332246
0
ARC
8
DEFAULT_255_2_778
10
20.5403108
20
3.7044914
40
1.77477
50
280.6208863
51
291.5538563
0
ARC
8
DEFAULT_255_2_778
10
23.055712
20
3.1497967
40
1.6069379
50
19.4743846
51
42.0469543
0
ARC
8
DEFAULT_255_2_778
10
23.2504767
20
3.3149745
40
1.3517027
50
42.376785
51
68.2017161
0
ARC
8
DEFAULT_255_2_778
10
23.1352654
20
3.0672673
40
1.6245499
50
67.6730387
51
89.9955991
0
ARC
8
DEFAULT_255_2_778
10
23.1354113
20
3.0675735
40
1.6242437
50
90.0007448
51
90.6065082
0
ARC
8
DEFAULT_255_2_778
10
23.0997025
20
3.089796
40
1.6020373
50
89.3377899
51
89.9992925
0
ARC
8
DEFAULT_255_2_778
10
23.0997559
20
3.090272
40
1.6015612
50
90.0012005
51
112.4902
0
ARC
8
DEFAULT_255_2_778
10
23.0413218
20
3.2469188
40
1.4344878
50
112.7271154
51
137.0988169
0
ARC
8
DEFAULT_255_2_778
10
23.1557199
20
3.1552094
40
1.5807538
50
137.486472
51
160.5019052
0
ARC
8
DEFAULT_255_2_778
10
23.5798963
20
3.0069467
40
2.0300922
50
160.5532562
51
179.9428499
0
ARC
8
DEFAULT_255_2_778
10
23.5427214
20
3.0089629
40
1.9929163
50
179.9997507
51
180.8376978
0
ARC
8
DEFAULT_255_2_778
10
23.615504
20
2.9549166
40
2.0656362
50
179.3090468
51
179.9994575
0
ARC
8
DEFAULT_255_2_778
10
23.6108763
20
2.9549009
40
2.0610085
50
179.9990178
51
199.293565
0
ARC
8
DEFAULT_255_2_778
10
23.1779703
20
2.8023335
40
1.6020061
50
199.259121
51
221.9930652
0
ARC
8
DEFAULT_255_2_778
10
23.0482442
20
2.7042709
40
1.4400495
50
222.5464917
51
246.7943615
0
ARC
8
DEFAULT_255_2_778
10
23.0971247
20
2.8370684
40
1.5813811
50
247.0624975
51
270.0041855
0
ARC
8
DEFAULT_255_2_778
10
23.0972217
20
2.841528
40
1.5858407
50
270.0006668
51
270.7586108
0
ARC
8
DEFAULT_255_2_778
10
23.137286
20
2.8645426
40
1.6088293
50
269.3209116
51
270.0005128
0
ARC
8
DEFAULT_255_2_778
10
23.1378789
20
2.8588299
40
1.6031166
50
269.9793242
51
292.7769914
0
ARC
8
DEFAULT_255_2_778
10
23.199261
20
2.7020897
40
1.4348413
50
292.9401433
51
317.3808056
0
ARC
8
DEFAULT_255_2_778
10
23.0973274
20
2.7741761
40
1.5587444
50
317.9680329
51
341.2807508
0
ARC
8
DEFAULT_255_2_778
10
22.5706171
20
2.9550583
40
2.1156449
50
341.2191052
51
0.0016668
0
ARC
8
DEFAULT_255_2_778
10
22.57212
20
2.9551342
40
2.1141422
50
359.9996099
51
0.6692016
0
ARC
8
DEFAULT_255_2_778
10
22.6606789
20
3.0069198
40
2.0256204
50
359.2336241
51
0.000736
0
ARC
8
DEFAULT_255_2_778
10
22.6549037
20
3.0068164
40
2.0313956
50
0.0036513
51
19.4376624
0
ARC
8
DEFAULT_255_2_778
10
23.1453475
20
2.5978993
40
0.6835793
50
268.6983702
51
324.5806323
0
ARC
8
DEFAULT_255_2_778
10
23.118221
20
2.8725939
40
0.9581676
50
269.9998244
51
270.6935711
0
ARC
8
DEFAULT_255_2_778
10
23.1037192
20
2.6560681
40
0.7417835
50
243.7451447
51
271.1199692
0
ARC
8
DEFAULT_255_2_778
10
23.091162
20
2.5960358
40
0.6825609
50
215.2883231
51
242.4611874
0
ARC
8
DEFAULT_255_2_778
10
23.3599123
20
2.7957554
40
1.0173356
50
193.8104592
51
215.7257896
0
ARC
8
DEFAULT_255_2_778
10
23.9365819
20
2.9463726
40
1.6133112
50
181.9582689
51
194.1160854
0
ARC
8
DEFAULT_255_2_778
10
24.4932584
20
2.9819258
40
2.1709404
50
179.9762325
51
182.3940069
0
ARC
8
DEFAULT_255_2_778
10
24.1017961
20
2.9953604
40
1.7795222
50
169.4971241
51
180.4035663
0
ARC
8
DEFAULT_255_2_778
10
23.4529633
20
3.1209488
40
1.1186794
50
151.1603287
51
169.7640583
0
ARC
8
DEFAULT_255_2_778
10
23.2481241
20
3.2231598
40
0.8899917
50
143.357383
51
150.5633978
0
ARC
8
DEFAULT_255_2_778
10
23.0910311
20
3.3513567
40
0.687494
50
87.9762108
51
144.1162414
0
ARC
8
DEFAULT_255_2_778
10
23.1181509
20
3.0779265
40
0.9604997
50
89.9959914
51
90.1694885
0
ARC
8
DEFAULT_255_2_778
10
23.1327353
20
3.2893997
40
0.7491674
50
64.1253995
51
91.110339
0
ARC
8
DEFAULT_255_2_778
10
23.1493607
20
3.3578429
40
0.6804936
50
35.6365064
51
62.8699022
0
ARC
8
DEFAULT_255_2_778
10
22.8869628
20
3.1622034
40
1.0077584
50
13.5318203
51
35.9843604
0
ARC
8
DEFAULT_255_2_778
10
22.3216447
20
3.0163661
40
1.5915355
50
1.843709
51
13.8742853
0
ARC
8
DEFAULT_255_2_778
10
21.7920596
20
2.9836043
40
2.1219585
50
359.9789953
51
2.2678062
0
ARC
8
DEFAULT_255_2_778
10
22.0881543
20
2.9700563
40
1.8259084
50
349.634151
51
0.400718
0
ARC
8
DEFAULT_255_2_778
10
22.7566453
20
2.8427177
40
1.1454263
50
331.8774271
51
349.8830987
0
ARC
8
DEFAULT_255_2_778
10
22.9760081
20
2.7357775
40
0.9015996
50
323.676956
51
331.3001578
0
ARC
8
DEFAULT_255_2_778
10
12.8414797
20
4.2454454
40
1.9960229
50
89.6286029
51
100.1589732
0
ARC
8
DEFAULT_255_2_778
10
12.7123405
20
4.9397036
40
1.2898799
50
99.9519163
51
117.0745562
0
ARC
8
DEFAULT_255_2_778
10
12.5786393
20
5.2132142
40
0.9855029
50
117.3907547
51
137.2537927
0
ARC
8
DEFAULT_255_2_778
10
12.7358156
20
5.0821745
40
1.1899174
50
137.7570962
51
165.3114681
0
ARC
8
DEFAULT_255_2_778
10
13.2810185
20
4.9281482
40
1.7563907
50
164.9608342
51
177.8945628
0
ARC
8
DEFAULT_255_2_778
10
13.805375
20
4.892602
40
2.281757
50
177.4863127
51
180.0219868
0
ARC
8
DEFAULT_255_2_778
10
13.5383596
20
4.892034
40
1.2588837
50
180.0011181
51
180.4691396
0
ARC
8
DEFAULT_255_2_778
10
13.5594102
20
4.8911559
40
1.2799346
50
167.3146049
51
179.9617898
0
ARC
8
DEFAULT_255_2_778
10
12.8700054
20
5.0485659
40
0.5727951
50
145.2415785
51
167.5322772
0
ARC
8
DEFAULT_255_2_778
10
12.803854
20
5.0836756
40
0.499769
50
111.9776385
51
140.6990143
0
ARC
8
DEFAULT_255_2_778
10
12.8999686
20
4.8208245
40
0.7795439
50
90.0026437
51
111.2984454
0
ARC
8
DEFAULT_255_2_778
10
12.8999384
20
4.8214429
40
0.7789255
50
88.3020728
51
90.0004249
0
ARC
8
DEFAULT_255_2_778
10
12.9290112
20
4.1748139
40
1.425225
50
90.0019349
51
90.2409309
0
ARC
8
DEFAULT_255_2_778
10
12.928569
20
4.1882619
40
1.4117771
50
78.773792
51
89.9840088
0
ARC
8
DEFAULT_255_2_778
10
12.9790935
20
4.4023548
40
1.1922995
50
65.5377026
51
78.0524879
0
ARC
8
DEFAULT_255_2_778
10
12.7583535
20
3.6434591
40
2.6134459
50
70.8327433
51
77.6703524
0
ARC
8
DEFAULT_255_2_778
10
12.8803453
20
4.2008087
40
2.0429018
50
77.674951
51
89.9696561
0
ARC
8
DEFAULT_255_2_778
10
12.8814297
20
4.2314607
40
2.0122496
50
90.0000699
51
90.7748337
0
LINE
8
DEFAULT_255_2_778
10
5.4427181
20
4.5705264
11
1.8443181
21
0.9722264
0
LINE
8
DEFAULT_255_2_778
10
1.8443181
20
0.9722264
11
1.8356181
21
0.9809264
0
LINE
8
DEFAULT_255_2_778
10
1.8356181
20
0.9809264
11
1.2265181
21
0.3554264
0
LINE
8
DEFAULT_255_2_778
10
7.7353181
20
6.0440264
11
8.9167181
21
6.2498264
0
LINE
8
DEFAULT_255_2_778
10
7.7393181
20
6.8584264
11
7.7393181
21
6.8557264
0
LINE
8
DEFAULT_255_2_778
10
8.3015181
20
5.1142264
11
8.3015181
21
5.1174264
0
LINE
8
DEFAULT_255_2_778
10
5.1405181
20
5.3098264
11
5.4731181
21
5.6423264
0
LINE
8
DEFAULT_255_2_778
10
5.1405181
20
5.3127264
11
5.1405181
21
5.3098264
0
LINE
8
DEFAULT_255_2_778
10
7.7401181
20
3.6119264
11
5.9197181
21
1.7948264
0
LINE
8
DEFAULT_255_2_778
10
5.9277181
20
1.1794264
11
6.9868181
21
0.1168264
0
LINE
8
DEFAULT_255_2_778
10
7.3371181
20
0.6158264
11
6.6799181
21
1.2720264
0
LINE
8
DEFAULT_255_2_778
10
6.6904181
20
1.7667264
11
8.1314181
21
3.2053264
0
LINE
8
DEFAULT_255_2_778
10
8.1314181
20
3.2053264
11
8.1311181
21
3.2045264
0
LINE
8
DEFAULT_255_2_778
10
4.3290181
20
4.4978264
11
4.6598181
21
4.8285264
0
LINE
8
DEFAULT_255_2_778
10
1.6324181
20
7.9156264
11
1.0503181
21
8.4906264
0
LINE
8
DEFAULT_255_2_778
10
4.0729181
20
4.6806264
11
4.0697181
21
4.6787264
0
LINE
8
DEFAULT_255_2_778
10
2.8281181
20
4.2803264
11
3.3633181
21
3.7577264
0
LINE
8
DEFAULT_255_2_778
10
3.5070181
20
3.6783264
11
3.8509181
21
4.0223264
0
LINE
8
DEFAULT_255_2_778
10
2.8262181
20
4.2803264
11
2.8281181
21
4.2803264
0
LINE
8
DEFAULT_255_2_778
10
14.1065181
20
4.5472264
11
14.2001181
21
3.9347264
0
LINE
8
DEFAULT_255_2_778
10
15.7056181
20
3.4095264
11
15.7056181
21
3.2846264
0
LINE
8
DEFAULT_255_2_778
10
13.8681181
20
1.8932264
11
13.8908181
21
1.8419264
0
LINE
8
DEFAULT_255_2_778
10
16.4366181
20
1.4230264
11
16.4366181
21
3.4034264
0
LINE
8
DEFAULT_255_2_778
10
16.3710181
20
3.9313264
11
16.3393181
21
4.0284264
0
LINE
8
DEFAULT_255_2_778
10
16.3393181
20
4.0284264
11
16.3398181
21
4.0289264
0
LINE
8
DEFAULT_255_2_778
10
15.7032181
20
2.7565264
11
15.7059181
21
1.9170264
0
LINE
8
DEFAULT_255_2_778
10
17.9612181
20
2.4541264
11
17.9598181
21
6.1966264
0
LINE
8
DEFAULT_255_2_778
10
17.9598181
20
6.1966264
11
17.2039181
21
6.0718264
0
LINE
8
DEFAULT_255_2_778
10
17.2039181
20
6.0718264
11
17.2039181
21
2.3081264
0
LINE
8
DEFAULT_255_2_778
10
18.3546181
20
1.2836264
11
18.4604181
21
1.9080264
0
LINE
8
DEFAULT_255_2_778
10
18.0604181
20
2.0612264
11
18.0612181
21
2.0636264
0
LINE
8
DEFAULT_255_2_778
10
21.0856181
20
3.9067264
11
21.2481181
21
4.5253264
0
LINE
8
DEFAULT_255_2_778
10
21.2981181
20
1.4294264
11
21.1923181
21
2.0538264
0
LINE
8
DEFAULT_255_2_778
10
20.8674181
20
1.9601264
11
20.8666181
21
1.9578264
0
LINE
8
DEFAULT_255_2_778
10
24.5705181
20
3.6828264
11
24.5707181
21
3.6855264
0
LINE
8
DEFAULT_255_2_778
10
23.7024181
20
2.2017264
11
23.7024181
21
2.2017264
0
LINE
8
DEFAULT_255_2_778
10
11.5236181
20
4.8917264
11
11.5236181
21
1.3953264
0
LINE
8
DEFAULT_255_2_778
10
11.5236181
20
1.3953264
11
12.2795181
21
1.3953264
0
LINE
8
DEFAULT_255_2_778
10
12.2795181
20
1.3953264
11
12.2795181
21
4.0318264
0
LINE
8
DEFAULT_255_2_778
10
12.2795181
20
4.0318264
11
13.4667181
21
4.0318264
0
LINE
8
DEFAULT_255_2_778
10
13.4667181
20
4.0318264
11
13.4667181
21
4.6629264
0
LINE
8
DEFAULT_255_2_778
10
13.4667181
20
4.6629264
11
12.2795181
21
4.6629264
0
LINE
8
DEFAULT_255_2_778
10
12.2795181
20
4.6629264
11
12.2795181
21
4.8817264
0
LINE
8
DEFAULT_255_2_778
10
12.3994181
20
5.3751264
11
12.4171181
21
5.4002264
0
LINE
8
DEFAULT_255_2_778
10
13.2034181
20
5.5730264
11
13.2259181
21
5.5688264
0
LINE
8
DEFAULT_255_2_778
10
13.4728181
20
5.4876264
11
13.6164181
21
6.1120264
0
LINE
8
DEFAULT_255_2_778
10
12.8542181
20
6.2435264
11
12.8544181
21
6.2414264
0
ENDSEC
0
EOF