0
SECTION
2
HEADER
9
$MEASUREMENT
70
1
0
ENDSEC
0
SECTION
2
TABLES
0
TABLE
2
LTYPE
0
LTYPE
72
65
70
64
2
CONTINUOUS
3
______
73
0
40
0
0
ENDTAB
0
TABLE
2
LAYER
0
LAYER
2
DEFAULT_255_2_778
70
0
62
255
6
CONTINUOUS
0
ENDTAB
0
ENDSEC
0
SECTION
2
ENTITIES
0
ARC
8
DEFAULT_255_2_778
10
10.0741987
20
4.24348
40
4.3824967
50
165.1360844
51
180.0437124
0
ARC
8
DEFAULT_255_2_778
10
10.0254623
20
4.2543052
40
4.3326146
50
142.7660327
51
165.1091195
0
ARC
8
DEFAULT_255_2_778
10
9.9576392
20
4.3204052
40
4.2386366
50
104.7363019
51
142.9226887
0
ARC
8
DEFAULT_255_2_778
10
9.9274019
20
4.380102
40
4.1732355
50
89.9601657
51
104.5433001
0
ARC
8
DEFAULT_255_2_778
10
9.9336569
20
4.3877629
40
4.1655749
50
74.5879335
51
90.0461267
0
ARC
8
DEFAULT_255_2_778
10
9.8854771
20
4.3002709
40
4.262788
50
24.4408509
51
74.2761646
0
ARC
8
DEFAULT_255_2_778
10
9.8070078
20
4.2494965
40
4.3552554
50
7.1721494
51
24.621839
0
ARC
8
DEFAULT_255_2_778
10
9.7183577
20
4.2372133
40
4.4447456
50
359.9861188
51
7.1865747
0
ARC
8
DEFAULT_255_2_778
10
9.7859088
20
4.2329447
40
4.3771957
50
345.1819
51
0.0417782
0
ARC
8
DEFAULT_255_2_778
10
9.8233496
20
4.2254853
40
4.339093
50
323.214885
51
345.1506823
0
ARC
8
DEFAULT_255_2_778
10
9.8932784
20
4.1546754
40
4.2407118
50
282.834414
51
323.4153358
0
ARC
8
DEFAULT_255_2_778
10
9.9321116
20
4.0619153
40
4.1416791
50
269.9749849
51
282.5956703
0
ARC
8
DEFAULT_255_2_778
10
9.9279204
20
4.0651831
40
4.1449473
50
253.4831173
51
270.0329388
0
ARC
8
DEFAULT_255_2_778
10
9.992401
20
4.1997075
40
4.2923172
50
202.3050742
51
253.1684274
0
ARC
8
DEFAULT_255_2_778
10
10.0398694
20
4.2296211
40
4.3475979
50
185.6915255
51
202.4323713
0
ARC
8
DEFAULT_255_2_778
10
10.1259176
20
4.2396244
40
4.4342143
50
179.9907994
51
185.709879
0
ARC
8
DEFAULT_255_2_778
10
9.9014105
20
5.9956158
40
0.7831649
50
1.2014075
51
87.8637835
0
ARC
8
DEFAULT_255_2_778
10
9.9706103
20
6.0227121
40
0.7565828
50
93.0311323
51
179.9898676
0
ARC
8
DEFAULT_255_2_778
10
9.9880488
20
6.0228687
40
0.7740213
50
180.0016839
51
180.801866
0
ARC
8
DEFAULT_255_2_778
10
9.952744
20
2.4658431
40
0.7386777
50
179.4265259
51
180.0012169
0
ARC
8
DEFAULT_255_2_778
10
9.9398283
20
2.4660406
40
0.725762
50
180.0168243
51
269.1797543
0
ARC
8
DEFAULT_255_2_778
10
9.941878
20
2.5823388
40
0.8420778
50
269.1535801
51
269.2328351
0
ARC
8
DEFAULT_255_2_778
10
9.9414002
20
2.4972726
40
0.7570131
50
269.1827882
51
270.0004088
0
ARC
8
DEFAULT_255_2_778
10
9.9411019
20
2.4838322
40
0.7435729
50
270.0234078
51
358.4513363
0
LINE
8
DEFAULT_255_2_778
10
5.2022033
20
2.6812364
11
2.7455033
21
2.6812364
0
LINE
8
DEFAULT_255_2_778
10
2.7455033
20
2.6812364
11
2.7455033
21
-0.1895636
0
LINE
8
DEFAULT_255_2_778
10
2.7455033
20
-0.1895636
11
0.2447033
21
-0.1895636
0
LINE
8
DEFAULT_255_2_778
10
0.2447033
20
-0.1895636
11
0.2447033
21
8.6917364
0
LINE
8
DEFAULT_255_2_778
10
0.2447033
20
8.6917364
11
5.5893033
21
8.6917364
0
LINE
8
DEFAULT_255_2_778
10
5.5893033
20
8.6917364
11
5.7539033
21
6.2628364
0
LINE
8
DEFAULT_255_2_778
10
5.7539033
20
6.2628364
11
2.7635033
21
6.2628364
0
LINE
8
DEFAULT_255_2_778
10
2.7635033
20
6.2628364
11
2.7635033
21
5.1050364
0
LINE
8
DEFAULT_255_2_778
10
2.7635033
20
5.1050364
11
5.2022033
21
5.1050364
0
LINE
8
DEFAULT_255_2_778
10
5.2022033
20
5.1050364
11
5.2022033
21
2.6812364
0
LINE
8
DEFAULT_255_2_778
10
15.5077033
20
4.4020364
11
12.8823033
21
-0.1821636
0
LINE
8
DEFAULT_255_2_778
10
12.8823033
20
-0.1821636
11
15.5741033
21
-0.1807636
0
LINE
8
DEFAULT_255_2_778
10
15.5741033
20
-0.1807636
11
16.8579033
21
2.0641364
0
LINE
8
DEFAULT_255_2_778
10
16.8579033
20
2.0641364
11
18.1543033
21
-0.1768636
0
LINE
8
DEFAULT_255_2_778
10
18.1543033
20
-0.1768636
11
20.9219033
21
-0.1768636
0
LINE
8
DEFAULT_255_2_778
10
20.9219033
20
-0.1768636
11
18.2496033
21
4.4311364
0
LINE
8
DEFAULT_255_2_778
10
18.2496033
20
4.4311364
11
20.6801033
21
8.6793364
0
LINE
8
DEFAULT_255_2_778
10
20.6801033
20
8.6793364
11
18.0035033
21
8.6793364
0
LINE
8
DEFAULT_255_2_778
10
18.0035033
20
8.6793364
11
16.8915033
21
6.7663364
0
LINE
8
DEFAULT_255_2_778
10
16.8915033
20
6.7663364
11
15.8001033
21
8.6793364
0
LINE
8
DEFAULT_255_2_778
10
15.8001033
20
8.6793364
11
13.0288033
21
8.6793364
0
LINE
8
DEFAULT_255_2_778
10
13.0288033
20
8.6793364
11
15.5077033
21
4.4020364
0
LINE
8
DEFAULT_255_2_778
10
5.6917033
20
4.2403364
11
5.6917033
21
4.2401364
0
LINE
8
DEFAULT_255_2_778
10
10.6844033
20
2.4666364
11
10.6844033
21
6.0120364
0
LINE
8
DEFAULT_255_2_778
10
9.2141033
20
6.0120364
11
9.2141033
21
2.4732364
0
LINE
8
DEFAULT_255_2_778
10
10.6844033
20
2.4637364
11
10.6844033
21
2.4666364
0
ENDSEC
0
EOF