0
SECTION
2
HEADER
9
$MEASUREMENT
70
1
0
ENDSEC
0
SECTION
2
TABLES
0
TABLE
2
LTYPE
0
LTYPE
72
65
70
64
2
CONTINUOUS
3
______
73
0
40
0
0
ENDTAB
0
TABLE
2
LAYER
0
LAYER
2
DEFAULT_255_2_778
70
0
62
255
6
CONTINUOUS
0
ENDTAB
0
ENDSEC
0
SECTION
2
ENTITIES
0
ARC
8
DEFAULT_255_2_778
10
-826.5107256
20
849.8827603
40
1186.2628893
50
314.7346197
51
314.9806952
0
ARC
8
DEFAULT_255_2_778
10
2.2207088
20
0.1437411
40
0.6038928
50
136.0776905
51
159.0563873
0
ARC
8
DEFAULT_255_2_778
10
2.0222561
20
0.2254991
40
0.3893646
50
159.8539446
51
179.641555
0
ARC
8
DEFAULT_255_2_778
10
1.9836256
20
0.2278951
40
0.3507265
50
179.9934834
51
196.0414652
0
ARC
8
DEFAULT_255_2_778
10
2.0297035
20
0.2429173
40
0.3991649
50
196.286122
51
213.0161204
0
ARC
8
DEFAULT_255_2_778
10
2.1330801
20
0.3084566
40
0.5215604
50
212.8654528
51
222.7904149
0
ARC
8
DEFAULT_255_2_778
10
2.1638477
20
0.3303344
40
0.5590222
50
222.2937139
51
238.902552
0
ARC
8
DEFAULT_255_2_778
10
2.0835831
20
0.1966459
40
0.4030901
50
238.8571253
51
269.8618683
0
ARC
8
DEFAULT_255_2_778
10
2.0812326
20
0.2277641
40
0.4342093
50
270.1819234
51
284.1352364
0
ARC
8
DEFAULT_255_2_778
10
2.0442438
20
0.3616452
40
0.5730786
50
284.4525217
51
300.8852768
0
ARC
8
DEFAULT_255_2_778
10
1.9484403
20
0.5328458
40
0.7692011
50
300.4634896
51
306.616627
0
ARC
8
DEFAULT_255_2_778
10
-0.0280278
20
2.9863564
40
3.9193076
50
308.4148293
51
317.401581
0
ARC
8
DEFAULT_255_2_778
10
-6463.4564808
20
6468.199518
40
9145.8460883
50
314.993123
51
315.074361
0
ARC
8
DEFAULT_255_2_778
10
12.6960515
20
8.6596583
40
1.6657313
50
44.7496682
51
47.4199789
0
ARC
8
DEFAULT_255_2_778
10
11.8216645
20
7.7125901
40
2.9547176
50
47.3611164
51
49.2125654
0
ARC
8
DEFAULT_255_2_778
10
10.872586
20
6.6149302
40
4.4057881
50
49.1926385
51
50.751504
0
ARC
8
DEFAULT_255_2_778
10
10.0022073
20
5.5512408
40
5.7801945
50
50.7411058
51
52.2437698
0
ARC
8
DEFAULT_255_2_778
10
9.4226929
20
4.8044915
40
6.7254303
50
52.2357586
51
54.0080532
0
ARC
8
DEFAULT_255_2_778
10
9.325476
20
4.672593
40
6.8892809
50
53.998529
51
54.6021973
0
ARC
8
DEFAULT_255_2_778
10
9.7587207
20
5.2976505
40
6.1288147
50
54.5189474
51
58.5490487
0
ARC
8
DEFAULT_255_2_778
10
10.8099811
20
7.0164204
40
4.1140397
50
58.5492834
51
62.4409534
0
ARC
8
DEFAULT_255_2_778
10
11.5145024
20
8.3669035
40
2.5908342
50
62.4357455
51
66.8589059
0
ARC
8
DEFAULT_255_2_778
10
11.9138704
20
9.3036404
40
1.5725173
50
66.8261254
51
72.4009253
0
ARC
8
DEFAULT_255_2_778
10
12.1149137
20
9.9427426
40
0.902543
50
72.2992329
51
80.2273548
0
ARC
8
DEFAULT_255_2_778
10
12.1809676
20
10.3240893
40
0.5155183
50
80.268034
51
89.5738935
0
ARC
8
DEFAULT_255_2_778
10
12.1828219
20
10.5182659
40
0.3213334
50
89.6470175
51
100.1205589
0
ARC
8
DEFAULT_255_2_778
10
12.1623284
20
10.6281127
40
0.2095966
50
99.8821024
51
117.6219784
0
ARC
8
DEFAULT_255_2_778
10
12.1417528
20
10.6698957
40
0.1630401
50
118.0231615
51
134.7667628
0
ARC
8
DEFAULT_255_2_778
10
12.5084037
20
8.060938
40
0.3999836
50
359.0850238
51
359.9975478
0
ARC
8
DEFAULT_255_2_778
10
12.5140069
20
8.0609278
40
0.3943803
50
359.9990072
51
72.6923086
0
ARC
8
DEFAULT_255_2_778
10
12.4371292
20
7.9047574
40
0.5669909
50
69.9693682
51
79.8129642
0
ARC
8
DEFAULT_255_2_778
10
12.4540045
20
7.9951322
40
0.4750566
50
79.8883967
51
89.9130369
0
ARC
8
DEFAULT_255_2_778
10
12.4902855
20
7.8630004
40
0.6082283
50
93.3516965
51
135.5007059
0
ARC
8
DEFAULT_255_2_778
10
13.6243161
20
6.5190262
40
2.3647552
50
131.5297962
51
135.3555899
0
ARC
8
DEFAULT_255_2_778
10
-17928.5411477
20
17943.8520785
40
25368.2722248
50
314.9838644
51
315.0076844
0
ARC
8
DEFAULT_255_2_778
10
8.4504822
20
-3.2347027
40
5.6039654
50
135.0599506
51
135.2573412
0
ARC
8
DEFAULT_255_2_778
10
5.3973142
20
-0.2764733
40
1.3538594
50
133.2238743
51
148.7652614
0
ARC
8
DEFAULT_255_2_778
10
4.6022108
20
0.2136058
40
0.4199321
50
149.6855665
51
178.5069112
0
ARC
8
DEFAULT_255_2_778
10
4.5155067
20
0.2254555
40
0.3330867
50
180.1561627
51
203.9040673
0
ARC
8
DEFAULT_255_2_778
10
4.6190062
20
0.2710406
40
0.44618
50
203.8702176
51
217.4594407
0
ARC
8
DEFAULT_255_2_778
10
4.7495327
20
0.3671231
40
0.6082352
50
217.1657705
51
223.23962
0
ARC
8
DEFAULT_255_2_778
10
4.7854118
20
0.3893041
40
0.6496228
50
222.4969484
51
232.1990359
0
ARC
8
DEFAULT_255_2_778
10
4.6561795
20
0.2210092
40
0.4374377
50
232.0629217
51
246.7549888
0
ARC
8
DEFAULT_255_2_778
10
4.6142612
20
0.1247211
40
0.3324227
50
246.8436121
51
269.904436
0
ARC
8
DEFAULT_255_2_778
10
4.5944499
20
0.2579706
40
0.4660697
50
272.3680004
51
304.9766435
0
ARC
8
DEFAULT_255_2_778
10
3.9603224
20
1.196962
40
1.5990838
50
304.3075058
51
316.4469016
0
ARC
8
DEFAULT_255_2_778
10
-27029.5674039
20
27061.3374074
40
38251.6027664
50
314.9718736
51
314.9878412
0
ARC
8
DEFAULT_255_2_778
10
12.2169723
20
8.1857094
40
0.7102398
50
308.5752197
51
346.5158746
0
ARC
8
DEFAULT_255_2_778
10
12.4635501
20
8.0846558
40
0.4487518
50
351.728752
51
356.0509854
0
ARC
8
DEFAULT_255_2_778
10
7.5238731
20
8.4904027
40
1.0135736
50
22.4492418
51
48.3148993
0
ARC
8
DEFAULT_255_2_778
10
-10722.3142971
20
-10716.4808825
40
15171.8535099
50
44.987225
51
45.02555
0
ARC
8
DEFAULT_255_2_778
10
0.4822789
20
15.9802353
40
0.6971444
50
39.3805092
51
80.0872624
0
ARC
8
DEFAULT_255_2_778
10
0.5575007
20
16.1888195
40
0.4802457
50
84.648523
51
90.0252203
0
ARC
8
DEFAULT_255_2_778
10
0.5573426
20
16.1661835
40
0.5028816
50
90.0060711
51
92.325636
0
ARC
8
DEFAULT_255_2_778
10
0.5260777
20
16.2960703
40
0.3727388
50
88.330631
51
90.0012508
0
ARC
8
DEFAULT_255_2_778
10
0.5263004
20
16.2968316
40
0.3719776
50
90.0355502
51
157.6217244
0
ARC
8
DEFAULT_255_2_778
10
0.6858292
20
16.2326236
40
0.5439393
50
157.7653178
51
168.6359933
0
ARC
8
DEFAULT_255_2_778
10
0.5927868
20
16.2521074
40
0.4488825
50
168.7341048
51
179.9023224
0
ARC
8
DEFAULT_255_2_778
10
0.7124992
20
16.2832682
40
0.5694061
50
183.0599634
51
224.472923
0
ARC
8
DEFAULT_255_2_778
10
1.5594283
20
16.9664341
40
1.6557525
50
220.8079184
51
225.1857474
0
ARC
8
DEFAULT_255_2_778
10
8732.1562263
20
8739.7714658
40
12343.0757596
50
224.9744497
51
225.0215582
0
ARC
8
DEFAULT_255_2_778
10
8.3181079
20
9.2851636
40
1.0053302
50
221.7638923
51
247.7558638
0
ARC
8
DEFAULT_255_2_778
10
11.7612408
20
5.9632229
40
1.2721029
50
313.7075956
51
328.9396463
0
ARC
8
DEFAULT_255_2_778
10
12.4785508
20
5.5283957
40
0.4332994
50
329.2562393
51
358.391149
0
ARC
8
DEFAULT_255_2_778
10
12.5762698
20
5.5153263
40
0.3354108
50
0.1544211
51
25.5777725
0
ARC
8
DEFAULT_255_2_778
10
12.4672291
20
5.4636945
40
0.456057
50
25.5143449
51
39.3741801
0
ARC
8
DEFAULT_255_2_778
10
12.31491
20
5.3420841
40
0.6509553
50
39.1434552
51
46.8824458
0
ARC
8
DEFAULT_255_2_778
10
12.378888
20
5.4189891
40
0.5511207
50
46.2728614
51
57.8560561
0
ARC
8
DEFAULT_255_2_778
10
12.4674909
20
5.5615023
40
0.3833126
50
57.7360964
51
75.8455668
0
ARC
8
DEFAULT_255_2_778
10
12.4819048
20
5.6100374
40
0.332733
50
76.2085015
51
90.0157248
0
ARC
8
DEFAULT_255_2_778
10
12.5018344
20
5.4698445
40
0.4733493
50
92.4241287
51
126.0655434
0
ARC
8
DEFAULT_255_2_778
10
12.9602994
20
4.7846454
40
1.2975434
50
124.6176363
51
136.0946993
0
ARC
8
DEFAULT_255_2_778
10
9.9765117
20
1.9991869
40
1.1608559
50
134.5152829
51
142.9665899
0
ARC
8
DEFAULT_255_2_778
10
9.6415332
20
2.2491278
40
0.7429166
50
142.7948283
51
156.0643413
0
ARC
8
DEFAULT_255_2_778
10
9.4180565
20
2.3467495
40
0.4990543
50
155.8989537
51
179.5771839
0
ARC
8
DEFAULT_255_2_778
10
9.3894016
20
2.3509072
40
0.4703861
50
180.0578612
51
192.0948886
0
ARC
8
DEFAULT_255_2_778
10
9.4998264
20
2.3791484
40
0.5842941
50
192.5338916
51
209.9604916
0
ARC
8
DEFAULT_255_2_778
10
9.764202
20
2.527374
40
0.8873727
50
209.7272897
51
219.7929071
0
ARC
8
DEFAULT_255_2_778
10
10.0814528
20
2.786817
40
1.297189
50
219.6295351
51
225.6543224
0
ARC
8
DEFAULT_255_2_778
10
12.2376319
20
1.494588
40
1.9130436
50
223.0796858
51
235.7392763
0
ARC
8
DEFAULT_255_2_778
10
11.7266349
20
0.7241863
40
0.9887133
50
235.080138
51
269.3412156
0
ARC
8
DEFAULT_255_2_778
10
11.7141129
20
0.7205091
40
0.9849716
50
270.0671345
51
278.1254188
0
ARC
8
DEFAULT_255_2_778
10
11.7021922
20
0.8124406
40
1.0776658
50
278.0620112
51
281.0766895
0
ARC
8
DEFAULT_255_2_778
10
12.1349117
20
1.5093992
40
1.7690023
50
262.6706802
51
269.992447
0
ARC
8
DEFAULT_255_2_778
10
12.1346929
20
1.4968224
40
1.7564255
50
269.9995325
51
270.7582375
0
ARC
8
DEFAULT_255_2_778
10
12.6304456
20
-6.0284394
40
5.7883083
50
93.8260677
51
94.6823609
0
ARC
8
DEFAULT_255_2_778
10
11.6970758
20
7.8884303
40
8.1598257
50
273.8446511
51
274.4406427
0
ARC
8
DEFAULT_255_2_778
10
12.2912591
20
0.7920848
40
1.0396652
50
272.072671
51
290.6117317
0
ARC
8
DEFAULT_255_2_778
10
12.5321487
20
0.1342393
40
0.339184
50
291.6445568
51
343.5930165
0
ARC
8
DEFAULT_255_2_778
10
12.348384
20
0.1877437
40
0.5305786
50
343.6556748
51
359.4284321
0
ARC
8
DEFAULT_255_2_778
10
12.119162
20
0.2004516
40
0.7599875
50
358.6427879
51
359.9919787
0
ARC
8
DEFAULT_255_2_778
10
12.3520601
20
0.2089564
40
0.5271597
50
359.0640314
51
17.0235457
0
ARC
8
DEFAULT_255_2_778
10
12.522266
20
0.2502806
40
0.3524642
50
18.7008413
51
81.7535966
0
ARC
8
DEFAULT_255_2_778
10
12.3425643
20
-0.5219487
40
1.1444514
50
78.3932559
51
91.128642
0
ARC
8
DEFAULT_255_2_778
10
12.3200217
20
-1.668083
40
2.2903635
50
90.0000006
51
90.1514362
0
ARC
8
DEFAULT_255_2_778
10
12.3393863
20
-3.2796038
40
3.9019591
50
90.3732378
51
92.3581573
0
ARC
8
DEFAULT_255_2_778
10
12.1379696
20
1.7156596
40
1.0973699
50
270.0093136
51
272.1342212
0
ARC
8
DEFAULT_255_2_778
10
12.1291488
20
1.522941
40
0.9046961
50
244.5337607
51
270.5699377
0
ARC
8
DEFAULT_255_2_778
10
12.2827297
20
1.7838783
40
1.2066072
50
222.3106385
51
243.2771517
0
ARC
8
DEFAULT_255_2_778
10
11.1014028
20
2.8452468
40
1.1236915
50
221.3878421
51
228.5077601
0
ARC
8
DEFAULT_255_2_778
10
10.7317625
20
2.5225156
40
0.6329978
50
209.8919135
51
221.592322
0
ARC
8
DEFAULT_255_2_778
10
10.4918882
20
2.3877017
40
0.3578581
50
187.0826772
51
210.3187508
0
ARC
8
DEFAULT_255_2_778
10
10.4322448
20
2.376149
40
0.2972737
50
180.0039129
51
186.2904173
0
ARC
8
DEFAULT_255_2_778
10
10.4355184
20
2.3760424
40
0.3005472
50
173.3503934
51
179.9835439
0
ARC
8
DEFAULT_255_2_778
10
10.5203556
20
2.3593104
40
0.3868108
50
149.4407637
51
172.3437623
0
ARC
8
DEFAULT_255_2_778
10
10.8318791
20
2.1844257
40
0.7440222
50
139.6911877
51
150.0409496
0
ARC
8
DEFAULT_255_2_778
10
11.3566715
20
1.7446522
40
1.4287111
50
133.6909179
51
139.8569906
0
ARC
8
DEFAULT_255_2_778
10
11.8419979
20
1.2535652
40
2.1190847
50
133.8619008
51
134.0072925
0
ARC
8
DEFAULT_255_2_778
10
-63.8184038
20
79.2310906
40
106.5317147
50
314.141398
51
315.6321632
0
LINE
8
DEFAULT_255_2_778
10
12.3374249
20
4.737494
11
12.3896363
21
4.790421
0
ARC
8
DEFAULT_255_2_778
10
510.9434486
20
-486.9574315
40
700.2655598
50
135.364656
51
135.3937655
0
ARC
8
DEFAULT_255_2_778
10
7.0855306
20
8.1193067
40
1.1257047
50
222.3235777
51
247.8133468
0
ARC
8
DEFAULT_255_2_778
10
6.2626727
20
7.2039663
40
0.9992812
50
23.2016115
51
50.4790689
0
ARC
8
DEFAULT_255_2_778
10
31.9579926
20
34.243239
40
36.3043396
50
226.2537129
51
226.3493417
0
ARC
8
DEFAULT_255_2_778
10
9.7586907
20
11.0478119
40
4.1976921
50
225.5926801
51
226.2279923
0
ARC
8
DEFAULT_255_2_778
10
-1379.8757431
20
-1373.6797553
40
1957.5758692
50
44.8971759
51
45.0793971
0
ARC
8
DEFAULT_255_2_778
10
1.0691538
20
12.9094912
40
0.621475
50
46.080738
51
64.3706992
0
ARC
8
DEFAULT_255_2_778
10
1.1730522
20
13.1246891
40
0.3825095
50
64.459486
51
89.3399494
0
ARC
8
DEFAULT_255_2_778
10
1.1774028
20
13.1762254
40
0.3309478
50
89.9903352
51
96.3774557
0
ARC
8
DEFAULT_255_2_778
10
1.1827001
20
13.1515565
40
0.3560615
50
96.7836731
51
121.4647314
0
ARC
8
DEFAULT_255_2_778
10
1.2592955
20
13.0232539
40
0.5054821
50
121.2791101
51
135.1813263
0
ARC
8
DEFAULT_255_2_778
10
1.2530648
20
13.0157702
40
0.5064304
50
134.0837971
51
151.9884513
0
ARC
8
DEFAULT_255_2_778
10
1.1417139
20
13.0765089
40
0.3796002
50
152.1888077
51
179.9567157
0
ARC
8
DEFAULT_255_2_778
10
1.1911615
20
13.0794739
40
0.4290561
50
180.3576538
51
198.2737291
0
ARC
8
DEFAULT_255_2_778
10
1.3498191
20
13.1321079
40
0.5962164
50
198.2959693
51
212.0690973
0
ARC
8
DEFAULT_255_2_778
10
1.501189
20
13.2209916
40
0.771697
50
211.6943182
51
215.6656075
0
ARC
8
DEFAULT_255_2_778
10
2.5103481
20
13.9709713
40
2.0289581
50
216.256232
51
225.752988
0
ARC
8
DEFAULT_255_2_778
10
1567.7669285
20
1574.7604643
40
2212.4793766
50
224.9188906
51
225.1077721
0
ARC
8
DEFAULT_255_2_778
10
5.514443
20
6.3033004
40
0.5388485
50
226.2815025
51
254.223332
0
ARC
8
DEFAULT_255_2_778
10
5.1542492
20
6.0863883
40
0.7961343
50
17.7613066
51
48.706034
0
ARC
8
DEFAULT_255_2_778
10
-1492.9159176
20
-1489.032302
40
2117.2995863
50
44.9449164
51
45.0722972
0
ARC
8
DEFAULT_255_2_778
10
1.6220218
20
9.3063624
40
1.0146828
50
44.1045346
51
66.1293761
0
ARC
8
DEFAULT_255_2_778
10
1.809317
20
9.7004175
40
0.5786619
50
67.2989057
51
86.3414199
0
ARC
8
DEFAULT_255_2_778
10
1.8237288
20
9.8294968
40
0.4489681
50
87.1257457
51
89.9883287
0
ARC
8
DEFAULT_255_2_778
10
1.8210826
20
9.8868489
40
0.3916255
50
89.5994702
51
131.4072637
0
ARC
8
DEFAULT_255_2_778
10
1.8877743
20
9.8022792
40
0.4992004
50
130.7284234
51
137.8389729
0
ARC
8
DEFAULT_255_2_778
10
1.7950272
20
9.8621164
40
0.3906972
50
135.2132547
51
180.0617944
0
ARC
8
DEFAULT_255_2_778
10
1.7968279
20
9.8616819
40
0.3924975
50
179.9980853
51
180.8520553
0
ARC
8
DEFAULT_255_2_778
10
1.7948979
20
9.8614015
40
0.3905635
50
180.8151295
51
217.9061791
0
ARC
8
DEFAULT_255_2_778
10
3.9029844
20
11.2773446
40
2.9292045
50
214.4234679
51
225.3533264
0
ARC
8
DEFAULT_255_2_778
10
471.8293032
20
475.7104901
40
662.211388
50
224.7878493
51
225.0886056
0
LINE
8
DEFAULT_255_2_778
10
8.4096363
20
7.1920508
11
2.7573363
21
1.5368508
0
LINE
8
DEFAULT_255_2_778
10
2.7573363
20
1.5368508
11
2.7435363
21
1.5506508
0
LINE
8
DEFAULT_255_2_778
10
2.7435363
20
1.5506508
11
1.7857363
21
0.5626508
0
LINE
8
DEFAULT_255_2_778
10
12.0211363
20
9.5084508
11
13.8790363
21
9.8323508
0
LINE
8
DEFAULT_255_2_778
10
12.0269363
20
10.7856508
11
12.0211363
21
10.7856508
0
LINE
8
DEFAULT_255_2_778
10
12.9112363
20
8.0537508
11
12.9083363
21
8.0545508
0
LINE
8
DEFAULT_255_2_778
10
7.9375363
20
8.3543508
11
8.4606363
21
8.8774508
0
LINE
8
DEFAULT_255_2_778
10
7.9375363
20
8.3546508
11
7.9375363
21
8.3543508
0
LINE
8
DEFAULT_255_2_778
10
12.0254363
20
5.6844508
11
9.1626363
21
2.8269508
0
LINE
8
DEFAULT_255_2_778
10
9.1747363
20
1.8591508
11
10.8403363
21
0.1879508
0
LINE
8
DEFAULT_255_2_778
10
11.3904363
20
0.9716508
11
10.3569363
21
2.0035508
0
LINE
8
DEFAULT_255_2_778
10
12.6395363
20
5.0436508
11
12.6402363
21
5.0436508
0
LINE
8
DEFAULT_255_2_778
10
6.6604363
20
7.0769508
11
7.1811363
21
7.5976508
0
LINE
8
DEFAULT_255_2_778
10
2.4199363
20
12.4522508
11
1.5002363
21
13.3571508
0
LINE
8
DEFAULT_255_2_778
10
6.2532363
20
7.3613508
11
6.2532363
21
7.3613508
0
LINE
8
DEFAULT_255_2_778
10
4.3006363
20
6.7356508
11
5.1420363
21
5.9138508
0
LINE
8
DEFAULT_255_2_778
10
5.3679363
20
5.7847508
11
5.9124363
21
6.3292508
0
LINE
8
DEFAULT_255_2_778
10
4.2998363
20
6.7327508
11
4.3006363
21
6.7356508
0
ENDSEC
0
EOF