0
SECTION
2
HEADER
9
$MEASUREMENT
70
1
0
ENDSEC
0
SECTION
2
TABLES
0
TABLE
2
LTYPE
0
LTYPE
72
65
70
64
2
CONTINUOUS
3
______
73
0
40
0
0
ENDTAB
0
TABLE
2
LAYER
0
LAYER
2
DEFAULT_255_2_778
70
0
62
255
6
CONTINUOUS
0
ENDTAB
0
ENDSEC
0
SECTION
2
ENTITIES
0
LINE
8
DEFAULT_255_2_778
10
0.2646312
20
12.2915317
11
12.6333312
21
12.2915317
0
LINE
8
DEFAULT_255_2_778
10
12.6333312
20
12.2915317
11
12.6333312
21
8.9048317
0
LINE
8
DEFAULT_255_2_778
10
12.6333312
20
8.9048317
11
0.2646312
21
8.9048317
0
LINE
8
DEFAULT_255_2_778
10
0.2646312
20
8.9048317
11
0.2646312
21
12.2915317
0
LINE
8
DEFAULT_255_2_778
10
13.8112683
20
12.2915317
11
17.1979683
21
12.2915317
0
LINE
8
DEFAULT_255_2_778
10
17.1979683
20
12.2915317
11
17.1979683
21
8.9048317
0
LINE
8
DEFAULT_255_2_778
10
17.1979683
20
8.9048317
11
13.8112683
21
8.9048317
0
LINE
8
DEFAULT_255_2_778
10
13.8112683
20
8.9048317
11
13.8112683
21
12.2915317
0
LINE
8
DEFAULT_255_2_778
10
7.0378336
20
7.7269293
11
17.1978336
21
7.7269293
0
LINE
8
DEFAULT_255_2_778
10
17.1978336
20
7.7269293
11
17.1978336
21
4.3402293
0
LINE
8
DEFAULT_255_2_778
10
17.1978336
20
4.3402293
11
7.0378336
21
4.3402293
0
LINE
8
DEFAULT_255_2_778
10
7.0378336
20
4.3402293
11
7.0378336
21
7.7269293
0
LINE
8
DEFAULT_255_2_778
10
0.2645336
20
3.1623293
11
17.1978336
21
3.1623293
0
LINE
8
DEFAULT_255_2_778
10
17.1978336
20
3.1623293
11
17.1978336
21
-0.2243707
0
LINE
8
DEFAULT_255_2_778
10
17.1978336
20
-0.2243707
11
0.2645336
21
-0.2243707
0
LINE
8
DEFAULT_255_2_778
10
0.2645336
20
-0.2243707
11
0.2645336
21
3.1623293
0
ENDSEC
0
EOF