0
SECTION
2
HEADER
9
$MEASUREMENT
70
1
0
ENDSEC
0
SECTION
2
TABLES
0
TABLE
2
LTYPE
0
LTYPE
72
65
70
64
2
CONTINUOUS
3
______
73
0
40
0
0
ENDTAB
0
TABLE
2
LAYER
0
LAYER
2
DEFAULT_255_2_778
70
0
62
255
6
CONTINUOUS
0
ENDTAB
0
ENDSEC
0
SECTION
2
ENTITIES
0
ARC
8
DEFAULT_255_2_778
10
9.1701046
20
6.9133836
40
0.5418908
50
214.6858468
51
214.7768634
0
ARC
8
DEFAULT_255_2_778
10
9.3281338
20
7.0095833
40
0.7266614
50
204.9264737
51
213.8321141
0
ARC
8
DEFAULT_255_2_778
10
10.2671632
20
7.4541149
40
1.765585
50
199.793169
51
205.16547
0
ARC
8
DEFAULT_255_2_778
10
12.2150241
20
8.15479
40
3.8356353
50
195.3110892
51
199.7884509
0
ARC
8
DEFAULT_255_2_778
10
13.6768865
20
8.5766015
40
5.3570346
50
195.0593931
51
195.5337778
0
ARC
8
DEFAULT_255_2_778
10
14.3188715
20
8.7462805
40
6.0210587
50
192.6376295
51
195.0313321
0
ARC
8
DEFAULT_255_2_778
10
13.7570935
20
8.623844
40
5.4461047
50
191.0502665
51
192.6737973
0
ARC
8
DEFAULT_255_2_778
10
12.4498822
20
8.3667199
40
4.1138473
50
190.1649266
51
191.0251468
0
ARC
8
DEFAULT_255_2_778
10
6.519298
20
9.1297944
40
1.1718193
50
306.4174779
51
310.3312824
0
ARC
8
DEFAULT_255_2_778
10
6.5487031
20
9.0905449
40
1.1227781
50
305.0821985
51
306.3990226
0
ARC
8
DEFAULT_255_2_778
10
6.5970232
20
9.0173192
40
1.0350865
50
292.6189996
51
305.2230671
0
ARC
8
DEFAULT_255_2_778
10
6.6242686
20
8.9554147
40
0.9674658
50
279.0557692
51
292.5395671
0
ARC
8
DEFAULT_255_2_778
10
6.6222455
20
8.9708287
40
0.9830061
50
269.9770367
51
279.0308137
0
ARC
8
DEFAULT_255_2_778
10
6.6220015
20
8.9949234
40
1.0071007
50
263.4625068
51
269.9914642
0
ARC
8
DEFAULT_255_2_778
10
6.6206381
20
8.985408
40
0.9974919
50
258.4259224
51
263.4780857
0
ARC
8
DEFAULT_255_2_778
10
5.3291129
20
12.8325151
40
1.4991216
50
265.2413224
51
269.8468792
0
ARC
8
DEFAULT_255_2_778
10
5.4025794
20
13.6514535
40
2.3213379
50
259.3324381
51
265.111127
0
ARC
8
DEFAULT_255_2_778
10
5.5092648
20
14.2668901
40
2.9459009
50
257.9046768
51
259.5090769
0
ARC
8
DEFAULT_255_2_778
10
5.5199602
20
14.3202776
40
3.0003445
50
255.9480026
51
257.9185952
0
ARC
8
DEFAULT_255_2_778
10
5.3829055
20
13.7768828
40
2.4399334
50
254.4871428
51
255.9718574
0
ARC
8
DEFAULT_255_2_778
10
5.0409827
20
12.5526549
40
1.1688565
50
252.8091094
51
254.5872083
0
ARC
8
DEFAULT_255_2_778
10
4.7153427
20
11.5080043
40
0.0746672
50
246.9488447
51
254.6043777
0
ARC
8
DEFAULT_255_2_778
10
3.1385873
20
8.0168231
40
0.5902392
50
304.3492072
51
311.1529138
0
ARC
8
DEFAULT_255_2_778
10
2.8475423
20
8.4386709
40
1.1027428
50
299.9304866
51
304.4671208
0
ARC
8
DEFAULT_255_2_778
10
2.5561152
20
8.9359966
40
1.679154
50
298.1051772
51
300.0812935
0
ARC
8
DEFAULT_255_2_778
10
2.1564818
20
9.6944944
40
2.5364812
50
294.7629599
51
297.9964917
0
ARC
8
DEFAULT_255_2_778
10
1.3800509
20
11.3869287
40
4.3985152
50
291.3439905
51
294.7126144
0
ARC
8
DEFAULT_255_2_778
10
0.6844051
20
13.1391526
40
6.2837577
50
289.248132
51
291.4368326
0
ARC
8
DEFAULT_255_2_778
10
0.6624653
20
13.1930285
40
6.3418555
50
288.2885178
51
289.2748077
0
ARC
8
DEFAULT_255_2_778
10
0.9800756
20
12.2285009
40
5.3263809
50
287.2571815
51
288.300389
0
ARC
8
DEFAULT_255_2_778
10
0.8020285
20
9.3138406
40
2.4543381
50
288.3857545
51
294.2176181
0
ARC
8
DEFAULT_255_2_778
10
0.8427153
20
9.1880375
40
2.3221239
50
284.4856152
51
288.4121557
0
ARC
8
DEFAULT_255_2_778
10
0.9518499
20
8.7605586
40
1.8809362
50
281.2823018
51
284.5240897
0
ARC
8
DEFAULT_255_2_778
10
1.1210128
20
7.901247
40
1.0051375
50
278.5479374
51
281.4091132
0
ARC
8
DEFAULT_255_2_778
10
1.2579925
20
6.9865915
40
0.0802836
50
275.6572009
51
278.9000417
0
ARC
8
DEFAULT_255_2_778
10
6.8974965
20
0.2876437
40
0.7326499
50
106.3529383
51
118.3043736
0
ARC
8
DEFAULT_255_2_778
10
7.1422985
20
-0.5394379
40
1.5951986
50
97.2365097
51
106.425888
0
ARC
8
DEFAULT_255_2_778
10
7.2520835
20
-1.2810194
40
2.3447534
50
92.365046
51
97.6151917
0
ARC
8
DEFAULT_255_2_778
10
7.2445924
20
-1.0664531
40
2.1300611
50
90.0418259
51
92.4018867
0
ARC
8
DEFAULT_255_2_778
10
7.2442127
20
-0.6252386
40
1.6888465
50
88.0839963
51
90.0398704
0
ARC
8
DEFAULT_255_2_778
10
7.2543332
20
-0.2970314
40
1.3604847
50
87.1741093
51
88.0478376
0
ARC
8
DEFAULT_255_2_778
10
8.6199254
20
3.0909978
40
0.6753848
50
148.9166673
51
158.7394437
0
ARC
8
DEFAULT_255_2_778
10
8.9929364
20
2.8684864
40
1.1097187
50
142.0290477
51
149.0208114
0
ARC
8
DEFAULT_255_2_778
10
9.3663733
20
2.5836744
40
1.5793501
50
139.0406717
51
142.2190613
0
ARC
8
DEFAULT_255_2_778
10
9.9230612
20
2.0886988
40
2.3242318
50
132.7527758
51
138.8219777
0
ARC
8
DEFAULT_255_2_778
10
10.7884066
20
1.1572324
40
3.5956271
50
127.5424126
51
132.8021885
0
ARC
8
DEFAULT_255_2_778
10
11.1783051
20
0.6642915
40
4.2240743
50
124.6672013
51
127.6614874
0
ARC
8
DEFAULT_255_2_778
10
10.993279
20
0.9334066
40
3.8974911
50
122.7624586
51
124.6803827
0
ARC
8
DEFAULT_255_2_778
10
10.5886519
20
1.5644098
40
3.1479002
50
120.6514785
51
122.7845259
0
ARC
8
DEFAULT_255_2_778
10
9.7849099
20
4.6919036
40
0.672688
50
184.0261916
51
190.1292085
0
ARC
8
DEFAULT_255_2_778
10
10.1940976
20
4.7223124
40
1.0830021
50
179.8572378
51
184.1110333
0
ARC
8
DEFAULT_255_2_778
10
10.8879603
20
4.7176019
40
1.776877
50
174.9691312
51
179.7610962
0
ARC
8
DEFAULT_255_2_778
10
11.8672686
20
4.6356919
40
2.7595989
50
171.7496341
51
175.058067
0
ARC
8
DEFAULT_255_2_778
10
12.7342333
20
4.5110316
40
3.6354798
50
167.8699861
51
171.7659992
0
ARC
8
DEFAULT_255_2_778
10
12.4764028
20
4.5699962
40
3.3710172
50
165.652611
51
167.9289645
0
ARC
8
DEFAULT_255_2_778
10
11.7288108
20
4.7599465
40
2.5996724
50
164.3124177
51
165.6255527
0
ARC
8
DEFAULT_255_2_778
10
11.220799
20
4.9021093
40
2.0721443
50
163.3912827
51
164.2987331
0
ARC
8
DEFAULT_255_2_778
10
9.0308926
20
2.8410593
40
1.7246152
50
138.6871432
51
148.5260762
0
ARC
8
DEFAULT_255_2_778
10
8.4730291
20
3.1576895
40
1.0837175
50
147.404134
51
164.7029805
0
ARC
8
DEFAULT_255_2_778
10
11.8113947
20
-1.5268333
40
5.6317806
50
140.4739001
51
142.7351613
0
ARC
8
DEFAULT_255_2_778
10
10.2423152
20
-0.3352744
40
3.6615477
50
142.7072866
51
145.6526015
0
ARC
8
DEFAULT_255_2_778
10
9.2589217
20
0.3387449
40
2.4693394
50
145.690935
51
148.373983
0
ARC
8
DEFAULT_255_2_778
10
7.2823405
20
-1.6247841
40
3.2608196
50
92.2150902
51
94.7599412
0
ARC
8
DEFAULT_255_2_778
10
7.2371071
20
-1.1126979
40
2.7467472
50
94.7060434
51
99.3298968
0
ARC
8
DEFAULT_255_2_778
10
7.1465475
20
-0.5554914
40
2.1822306
50
99.3554179
51
103.6562071
0
ARC
8
DEFAULT_255_2_778
10
6.9043353
20
0.3148946
40
1.279614
50
102.3186026
51
124.7155082
0
ARC
8
DEFAULT_255_2_778
10
6.6688063
20
0.7006808
40
0.8287785
50
126.5204185
51
127.054408
0
ARC
8
DEFAULT_255_2_778
10
1.0436138
20
8.5137911
40
2.2053493
50
282.1693762
51
286.5992841
0
ARC
8
DEFAULT_255_2_778
10
0.7860219
20
9.3862969
40
3.1150833
50
286.5551902
51
291.0219612
0
ARC
8
DEFAULT_255_2_778
10
0.6410906
20
9.7785136
40
3.53319
50
290.93418
51
291.611547
0
ARC
8
DEFAULT_255_2_778
10
1.0059653
20
12.2926589
40
5.9661983
50
287.8292777
51
288.9432795
0
ARC
8
DEFAULT_255_2_778
10
0.8887287
20
12.6389996
40
6.3318401
50
288.929288
51
290.4154665
0
ARC
8
DEFAULT_255_2_778
10
1.2279155
20
11.7451252
40
5.3757985
50
290.3507088
51
293.5499976
0
ARC
8
DEFAULT_255_2_778
10
1.6035234
20
10.8642612
40
4.4182329
50
293.6488697
51
293.9208848
0
ARC
8
DEFAULT_255_2_778
10
2.1167882
20
9.7479342
40
3.1897183
50
293.6238527
51
299.6947241
0
ARC
8
DEFAULT_255_2_778
10
5.0338381
20
12.1361033
40
1.3448976
50
255.6101551
51
259.1724426
0
ARC
8
DEFAULT_255_2_778
10
-5.4485903
20
-42.020333
40
53.8166947
50
78.9404645
51
79.0422141
0
ARC
8
DEFAULT_255_2_778
10
5.1519037
20
10.7201059
40
0.0508638
50
28.0176324
51
46.824468
0
ARC
8
DEFAULT_255_2_778
10
6.1073317
20
7.6880994
40
0.1809158
50
241.5722099
51
247.1146236
0
ARC
8
DEFAULT_255_2_778
10
6.3486585
20
8.2358053
40
0.779414
50
246.4284506
51
249.5485495
0
ARC
8
DEFAULT_255_2_778
10
6.5187504
20
8.6876297
40
1.2621925
50
249.480588
51
252.8777582
0
ARC
8
DEFAULT_255_2_778
10
6.5860474
20
8.9000668
40
1.4850281
50
252.80945
51
254.4399039
0
ARC
8
DEFAULT_255_2_778
10
6.621091
20
9.028441
40
1.6180979
50
254.4638759
51
258.8217129
0
ARC
8
DEFAULT_255_2_778
10
6.6340541
20
9.0910921
40
1.6820736
50
258.8022477
51
264.4141373
0
ARC
8
DEFAULT_255_2_778
10
6.6321749
20
9.0707279
40
1.6616231
50
264.4102771
51
268.2284442
0
ARC
8
DEFAULT_255_2_778
10
6.6409293
20
8.9324574
40
1.5237451
50
267.7386822
51
270.0001372
0
ARC
8
DEFAULT_255_2_778
10
6.6407999
20
8.933107
40
1.5243948
50
270.0050003
51
303.4565984
0
ARC
8
DEFAULT_255_2_778
10
14.1417532
20
8.7002214
40
6.4095708
50
193.7100447
51
195.3110137
0
ARC
8
DEFAULT_255_2_778
10
12.7863142
20
8.3276211
40
5.0038526
50
195.2942917
51
197.4954738
0
ARC
8
DEFAULT_255_2_778
10
10.7716254
20
7.6692836
40
2.8845309
50
197.0543792
51
204.9824466
0
ARC
8
DEFAULT_255_2_778
10
9.32401
20
7.0012191
40
1.2902206
50
205.2412684
51
213.5958948
0
ARC
8
DEFAULT_255_2_778
10
13.2870923
20
4.3947448
40
4.7689115
50
167.7475709
51
168.5293352
0
ARC
8
DEFAULT_255_2_778
10
12.8221631
20
4.4857094
40
4.2951799
50
168.4851691
51
171.5973396
0
ARC
8
DEFAULT_255_2_778
10
11.7280898
20
4.6427173
40
3.1899106
50
171.5155553
51
176.4246392
0
ARC
8
DEFAULT_255_2_778
10
10.8257213
20
4.7034961
40
2.2855125
50
176.5346317
51
179.9237463
0
ARC
8
DEFAULT_255_2_778
10
10.4447603
20
4.7061357
40
1.9045495
50
179.987903
51
181.4332386
0
ARC
8
DEFAULT_255_2_778
10
10.0421527
20
2.1517745
40
2.9219355
50
120.9185501
51
123.6647392
0
ARC
8
DEFAULT_255_2_778
10
10.4806119
20
1.4897363
40
3.7159998
50
123.6329533
51
126.7460288
0
ARC
8
DEFAULT_255_2_778
10
10.5249937
20
1.4255403
40
3.793993
50
126.7030865
51
130.6298978
0
ARC
8
DEFAULT_255_2_778
10
9.9916322
20
2.028566
40
2.9890531
50
130.3977177
51
139.0777363
0
LINE
8
DEFAULT_255_2_778
10
9.2682066
20
5.6014989
11
8.7350066
21
6.5910989
0
LINE
8
DEFAULT_255_2_778
10
8.7350066
20
6.5910989
11
8.7250066
21
6.6042989
0
LINE
8
DEFAULT_255_2_778
10
8.4006066
20
7.6406989
11
8.3773066
21
7.7631989
0
LINE
8
DEFAULT_255_2_778
10
8.3773066
20
7.7631989
11
7.4434066
21
8.3756989
0
LINE
8
DEFAULT_255_2_778
10
7.4434066
20
8.3756989
11
7.2777066
21
8.2364989
0
LINE
8
DEFAULT_255_2_778
10
6.4205066
20
8.0081989
11
6.4205066
21
9.4448989
0
LINE
8
DEFAULT_255_2_778
10
6.4205066
20
9.4448989
11
6.0598066
21
10.6285989
0
LINE
8
DEFAULT_255_2_778
10
6.0598066
20
10.6285989
11
5.8447066
21
10.8735989
0
LINE
8
DEFAULT_255_2_778
10
5.8447066
20
10.8735989
11
5.8413066
21
10.8801989
0
LINE
8
DEFAULT_255_2_778
10
5.8413066
20
10.8801989
11
5.5503066
21
11.2241989
0
LINE
8
DEFAULT_255_2_778
10
5.5503066
20
11.2241989
11
5.4643066
21
11.3333989
0
LINE
8
DEFAULT_255_2_778
10
5.4643066
20
11.3333989
11
5.3251066
21
11.3333989
0
LINE
8
DEFAULT_255_2_778
10
4.6861066
20
11.4392989
11
4.5107066
21
11.4921989
0
LINE
8
DEFAULT_255_2_778
10
4.5107066
20
11.4921989
11
3.4577066
21
10.3332989
0
LINE
8
DEFAULT_255_2_778
10
3.4577066
20
10.3332989
11
3.7487066
21
8.1615989
0
LINE
8
DEFAULT_255_2_778
10
3.7487066
20
8.1615989
11
3.6958066
21
7.7213989
0
LINE
8
DEFAULT_255_2_778
10
3.6958066
20
7.7213989
11
3.5270066
21
7.5723989
0
LINE
8
DEFAULT_255_2_778
10
2.5602066
20
7.1418989
11
2.4610066
21
7.1119989
0
LINE
8
DEFAULT_255_2_778
10
2.4610066
20
7.1119989
11
2.3517066
21
6.9532989
0
LINE
8
DEFAULT_255_2_778
10
2.3517066
20
6.9532989
11
1.9212066
21
7.1252989
0
LINE
8
DEFAULT_255_2_778
10
1.9212066
20
7.1252989
11
1.8088066
21
7.0754989
0
LINE
8
DEFAULT_255_2_778
10
1.2659066
20
6.9066989
11
1.1071066
21
6.8868989
0
LINE
8
DEFAULT_255_2_778
10
1.1071066
20
6.8868989
11
0.8319066
21
6.2975989
0
LINE
8
DEFAULT_255_2_778
10
0.8319066
20
6.2975989
11
0.4086066
21
5.7885989
0
LINE
8
DEFAULT_255_2_778
10
0.4086066
20
5.7885989
11
0.5211066
21
4.1729989
0
LINE
8
DEFAULT_255_2_778
10
0.5211066
20
4.1729989
11
0.4713066
21
3.3982989
0
LINE
8
DEFAULT_255_2_778
10
0.4713066
20
3.3982989
11
0.2496066
21
2.5410989
0
LINE
8
DEFAULT_255_2_778
10
0.2496066
20
2.5410989
11
1.1899066
21
1.3689989
0
LINE
8
DEFAULT_255_2_778
10
1.1899066
20
1.3689989
11
1.5807066
21
1.3191989
0
LINE
8
DEFAULT_255_2_778
10
1.5807066
20
1.3191989
11
1.9776066
21
0.5709989
0
LINE
8
DEFAULT_255_2_778
10
1.9776066
20
0.5709989
11
2.4046066
21
0.3161989
0
LINE
8
DEFAULT_255_2_778
10
2.4046066
20
0.3161989
11
3.8448066
21
0.5675989
0
LINE
8
DEFAULT_255_2_778
10
3.8448066
20
0.5675989
11
4.8978066
21
-0.2262011
0
LINE
8
DEFAULT_255_2_778
10
4.8978066
20
-0.2262011
11
5.8715066
21
-0.2262011
0
LINE
8
DEFAULT_255_2_778
10
5.8715066
20
-0.2262011
11
6.5501066
21
0.9326989
0
LINE
8
DEFAULT_255_2_778
10
7.3214066
20
1.0617989
11
7.3711066
21
1.0583989
0
LINE
8
DEFAULT_255_2_778
10
7.3711066
20
1.0583989
11
7.7320066
21
1.4689989
0
LINE
8
DEFAULT_255_2_778
10
7.7320066
20
1.4689989
11
7.8712066
21
1.6509989
0
LINE
8
DEFAULT_255_2_778
10
7.8712066
20
1.6509989
11
8.0135066
21
1.8229989
0
LINE
8
DEFAULT_255_2_778
10
8.0135066
20
1.8229989
11
8.0897066
21
1.9123989
0
LINE
8
DEFAULT_255_2_778
10
8.0897066
20
1.9123989
11
7.9905066
21
3.3358989
0
LINE
8
DEFAULT_255_2_778
10
8.9838066
20
4.2724989
11
9.1592066
21
4.3751989
0
LINE
8
DEFAULT_255_2_778
10
9.1592066
20
4.3751989
11
9.1227066
21
4.5735989
0
LINE
8
DEFAULT_255_2_778
10
9.2351066
20
5.4943989
11
9.2682066
21
5.6014989
0
LINE
8
DEFAULT_255_2_778
10
7.4277066
20
3.4435989
11
7.4145066
21
3.3972989
0
LINE
8
DEFAULT_255_2_778
10
7.4145066
20
3.3972989
11
7.4246066
21
3.2315989
0
LINE
8
DEFAULT_255_2_778
10
7.4246066
20
3.2315989
11
7.4973066
21
2.1997989
0
LINE
8
DEFAULT_255_2_778
10
7.4973066
20
2.1997989
11
7.5039066
21
2.1004989
0
LINE
8
DEFAULT_255_2_778
10
7.5039066
20
2.1004989
11
7.4674066
21
2.0573989
0
LINE
8
DEFAULT_255_2_778
10
6.1694066
20
1.3620989
11
6.1231066
21
1.3289989
0
LINE
8
DEFAULT_255_2_778
10
6.1231066
20
1.3289989
11
5.5669066
21
0.3754989
0
LINE
8
DEFAULT_255_2_778
10
5.5669066
20
0.3754989
11
5.5503066
21
0.3423989
0
LINE
8
DEFAULT_255_2_778
10
5.5503066
20
0.3423989
11
5.0968066
21
0.3423989
0
LINE
8
DEFAULT_255_2_778
10
5.0968066
20
0.3423989
11
4.0009066
21
1.1667989
0
LINE
8
DEFAULT_255_2_778
10
4.0009066
20
1.1667989
11
2.5250066
21
0.9074989
0
LINE
8
DEFAULT_255_2_778
10
2.5250066
20
0.9074989
11
2.4192066
21
0.9704989
0
LINE
8
DEFAULT_255_2_778
10
2.4192066
20
0.9704989
11
1.9622066
21
1.8435989
0
LINE
8
DEFAULT_255_2_778
10
1.9622066
20
1.8435989
11
1.5019066
21
1.8999989
0
LINE
8
DEFAULT_255_2_778
10
1.5019066
20
1.8999989
11
0.8894066
21
2.6672989
0
LINE
8
DEFAULT_255_2_778
10
0.8894066
20
2.6672989
11
1.0550066
21
3.3022989
0
LINE
8
DEFAULT_255_2_778
10
1.0550066
20
3.3022989
11
1.1113066
21
4.1663989
0
LINE
8
DEFAULT_255_2_778
10
1.1113066
20
4.1663989
11
1.1013066
21
4.3319989
0
LINE
8
DEFAULT_255_2_778
10
1.1013066
20
4.3319989
11
1.0119066
21
5.5932989
0
LINE
8
DEFAULT_255_2_778
10
1.0119066
20
5.5932989
11
1.3331066
21
5.9806989
0
LINE
8
DEFAULT_255_2_778
10
1.3331066
20
5.9806989
11
1.5085066
21
6.3579989
0
LINE
8
DEFAULT_255_2_778
10
1.9424066
20
6.4936989
11
2.5779066
21
6.2388989
0
LINE
8
DEFAULT_255_2_778
10
2.5779066
20
6.2388989
11
2.8327066
21
6.6129989
0
LINE
8
DEFAULT_255_2_778
10
3.6969066
20
6.9770989
11
4.1472066
21
6.5499989
0
LINE
8
DEFAULT_255_2_778
10
4.1472066
20
6.5499989
11
4.1736066
21
6.7849989
0
LINE
8
DEFAULT_255_2_778
10
4.1736066
20
6.7849989
11
4.3324066
21
8.1554989
0
LINE
8
DEFAULT_255_2_778
10
4.3324066
20
8.1554989
11
4.0678066
21
10.1353989
0
LINE
8
DEFAULT_255_2_778
10
4.0678066
20
10.1353989
11
4.2398066
21
10.3240989
0
LINE
8
DEFAULT_255_2_778
10
4.2398066
20
10.3240989
11
4.2927066
21
10.3835989
0
LINE
8
DEFAULT_255_2_778
10
4.2927066
20
10.3835989
11
4.6499066
21
10.7804989
0
LINE
8
DEFAULT_255_2_778
10
4.6499066
20
10.7804989
11
4.6996066
21
10.8333989
0
LINE
8
DEFAULT_255_2_778
10
4.8750066
20
10.7968989
11
5.1767066
21
10.7571989
0
LINE
8
DEFAULT_255_2_778
10
5.1767066
20
10.7571989
11
5.1867066
21
10.7571989
0
LINE
8
DEFAULT_255_2_778
10
5.1968066
20
10.7439989
11
5.3127066
21
10.6047989
0
LINE
8
DEFAULT_255_2_778
10
5.3127066
20
10.6047989
11
5.4484066
21
10.4523989
0
LINE
8
DEFAULT_255_2_778
10
5.4484066
20
10.4523989
11
5.5410066
21
10.3629989
0
LINE
8
DEFAULT_255_2_778
10
5.5410066
20
10.3629989
11
5.8521066
21
9.3532989
0
LINE
8
DEFAULT_255_2_778
10
5.8521066
20
9.3532989
11
5.8521066
21
7.6051989
0
LINE
8
DEFAULT_255_2_778
10
5.8521066
20
7.6051989
11
5.8556066
21
7.6051989
0
LINE
8
DEFAULT_255_2_778
10
5.8556066
20
7.6051989
11
6.0212066
21
7.5289989
0
LINE
8
DEFAULT_255_2_778
10
7.4812066
20
7.6612989
11
7.8156066
21
7.4427989
0
LINE
8
DEFAULT_255_2_778
10
7.8156066
20
7.4427989
11
7.8619066
21
7.4128989
0
LINE
8
DEFAULT_255_2_778
10
7.8619066
20
7.4128989
11
7.9148066
21
7.1810989
0
LINE
8
DEFAULT_255_2_778
10
8.2493066
20
6.2872989
11
8.6567066
21
5.5292989
0
LINE
8
DEFAULT_255_2_778
10
8.6567066
20
5.5292989
11
8.6268066
21
5.4067989
0
LINE
8
DEFAULT_255_2_778
10
7.7331066
20
3.9864989
11
7.7355066
21
3.9795989
0
LINE
8
DEFAULT_255_2_778
10
5.0536682
20
0.2833459
11
3.8683682
21
1.0845459
0
LINE
8
DEFAULT_255_2_778
10
3.8683682
20
1.0845459
11
2.6300682
21
0.8331459
0
LINE
8
DEFAULT_255_2_778
10
2.6300682
20
0.8331459
11
2.3321682
21
1.0384459
0
LINE
8
DEFAULT_255_2_778
10
2.3321682
20
1.0384459
11
1.7236682
21
1.7899459
0
LINE
8
DEFAULT_255_2_778
10
1.7236682
20
1.7899459
11
1.4061682
21
1.8626459
0
LINE
8
DEFAULT_255_2_778
10
1.4061682
20
1.8626459
11
0.8200682
21
2.6505459
0
LINE
8
DEFAULT_255_2_778
10
0.8200682
20
2.6505459
11
0.8962682
21
4.1370459
0
LINE
8
DEFAULT_255_2_778
10
0.8962682
20
4.1370459
11
0.9822682
21
5.5374459
0
LINE
8
DEFAULT_255_2_778
10
0.9822682
20
5.5374459
11
1.3198682
21
6.5338459
0
LINE
8
DEFAULT_255_2_778
10
1.3198682
20
6.5338459
11
2.0448682
21
6.6397459
0
LINE
8
DEFAULT_255_2_778
10
2.0448682
20
6.6397459
11
2.5250682
21
6.3124459
0
LINE
8
DEFAULT_255_2_778
10
2.5250682
20
6.3124459
11
2.8626682
21
6.6960459
0
LINE
8
DEFAULT_255_2_778
10
2.8626682
20
6.6960459
11
3.6108682
21
7.1193459
0
LINE
8
DEFAULT_255_2_778
10
3.6108682
20
7.1193459
11
4.0908682
21
6.8910459
0
LINE
8
DEFAULT_255_2_778
10
4.0908682
20
6.8910459
11
4.1371682
21
8.6193459
0
LINE
8
DEFAULT_255_2_778
10
4.1371682
20
8.6193459
11
3.9254682
21
10.0726459
0
LINE
8
DEFAULT_255_2_778
10
3.9254682
20
10.0726459
11
4.4810682
21
10.8804459
0
LINE
8
DEFAULT_255_2_778
10
4.4810682
20
10.8804459
11
4.2128682
21
10.1660459
0
LINE
8
DEFAULT_255_2_778
10
4.2128682
20
10.1660459
11
4.6961682
21
10.7817459
0
LINE
8
DEFAULT_255_2_778
10
4.6961682
20
10.7817459
11
5.3118682
21
10.4907459
0
LINE
8
DEFAULT_255_2_778
10
5.3118682
20
10.4907459
11
5.9143682
21
9.4588459
0
LINE
8
DEFAULT_255_2_778
10
5.9143682
20
9.4588459
11
6.0466682
21
7.7239459
0
LINE
8
DEFAULT_255_2_778
10
6.0466682
20
7.7239459
11
6.8544682
21
7.6908459
0
LINE
8
DEFAULT_255_2_778
10
6.8544682
20
7.6908459
11
7.4404682
21
7.8628459
0
LINE
8
DEFAULT_255_2_778
10
7.4404682
20
7.8628459
11
8.0032682
21
7.5612459
0
LINE
8
DEFAULT_255_2_778
10
8.0032682
20
7.5612459
11
8.1619682
21
6.9654459
0
LINE
8
DEFAULT_255_2_778
10
8.1619682
20
6.9654459
11
8.8803682
21
5.5782459
0
LINE
8
DEFAULT_255_2_778
10
8.8803682
20
5.5782459
11
8.6982682
21
5.1014459
0
LINE
8
DEFAULT_255_2_778
10
8.6982682
20
5.1014459
11
8.6982682
21
4.7008459
0
LINE
8
DEFAULT_255_2_778
10
8.6982682
20
4.7008459
11
7.5560682
21
3.8401459
0
LINE
8
DEFAULT_255_2_778
10
7.5560682
20
3.8401459
11
7.6190682
21
2.1415459
0
LINE
8
DEFAULT_255_2_778
10
7.6190682
20
2.1415459
11
7.2750682
21
1.5819459
0
LINE
8
DEFAULT_255_2_778
10
7.2750682
20
1.5819459
11
6.3490682
21
1.3932459
0
LINE
8
DEFAULT_255_2_778
10
6.3490682
20
1.3932459
11
5.5677682
21
0.3706459
0
LINE
8
DEFAULT_255_2_778
10
5.5677682
20
0.3706459
11
5.0536682
21
0.2833459
0
LINE
8
DEFAULT_255_2_778
10
7.7950409
20
6.9148161
11
7.6791409
21
7.3752161
0
LINE
8
DEFAULT_255_2_778
10
7.6791409
20
7.3752161
11
7.5534409
21
7.2196161
0
LINE
8
DEFAULT_255_2_778
10
7.5534409
20
7.2196161
11
7.5137409
21
6.6039161
0
LINE
8
DEFAULT_255_2_778
10
7.5137409
20
6.6039161
11
8.0006409
21
5.8856161
0
LINE
8
DEFAULT_255_2_778
10
8.0006409
20
5.8856161
11
8.2421409
21
5.8525161
0
LINE
8
DEFAULT_255_2_778
10
8.2421409
20
5.8525161
11
7.7950409
21
6.9148161
0
LINE
8
DEFAULT_255_2_778
10
4.8454409
20
9.4548161
11
4.6004409
21
9.4284161
0
LINE
8
DEFAULT_255_2_778
10
4.6004409
20
9.4284161
11
4.3985409
21
10.0898161
0
LINE
8
DEFAULT_255_2_778
10
4.3985409
20
10.0898161
11
4.5673409
21
10.3650161
0
LINE
8
DEFAULT_255_2_778
10
4.5673409
20
10.3650161
11
4.6964409
21
10.3650161
0
LINE
8
DEFAULT_255_2_778
10
4.6964409
20
10.3650161
11
4.5673409
21
10.1234161
0
LINE
8
DEFAULT_255_2_778
10
4.5673409
20
10.1234161
11
4.6303409
21
9.7795161
0
LINE
8
DEFAULT_255_2_778
10
4.6303409
20
9.7795161
11
4.8454409
21
9.4548161
0
LINE
8
DEFAULT_255_2_778
10
5.0240409
20
10.2719161
11
5.1994409
21
9.8480161
0
LINE
8
DEFAULT_255_2_778
10
5.1994409
20
9.8480161
11
5.1994409
21
9.6660161
0
LINE
8
DEFAULT_255_2_778
10
5.1994409
20
9.6660161
11
5.0142409
21
9.5003161
0
LINE
8
DEFAULT_255_2_778
10
5.0142409
20
9.5003161
11
4.9578409
21
10.1560161
0
LINE
8
DEFAULT_255_2_778
10
4.9578409
20
10.1560161
11
5.0240409
21
10.2719161
0
LINE
8
DEFAULT_255_2_778
10
3.0706409
20
3.9086161
11
3.0341409
21
4.7288161
0
LINE
8
DEFAULT_255_2_778
10
3.0341409
20
4.7288161
11
3.4151409
21
5.9174161
0
LINE
8
DEFAULT_255_2_778
10
3.4151409
20
5.9174161
11
3.7130409
21
5.8247161
0
LINE
8
DEFAULT_255_2_778
10
3.7130409
20
5.8247161
11
3.7593409
21
5.4173161
0
LINE
8
DEFAULT_255_2_778
10
3.7593409
20
5.4173161
11
3.6566409
21
4.4304161
0
LINE
8
DEFAULT_255_2_778
10
3.6566409
20
4.4304161
11
3.5870409
21
4.1526161
0
LINE
8
DEFAULT_255_2_778
10
3.5870409
20
4.1526161
11
3.6664409
21
3.3713161
0
LINE
8
DEFAULT_255_2_778
10
3.6664409
20
3.3713161
11
3.4151409
21
3.4475161
0
LINE
8
DEFAULT_255_2_778
10
3.4151409
20
3.4475161
11
3.0706409
21
3.9086161
0
LINE
8
DEFAULT_255_2_778
10
1.9218409
20
6.5280161
11
2.3980409
21
6.1999161
0
LINE
8
DEFAULT_255_2_778
10
2.3980409
20
6.1999161
11
1.7955409
21
6.0544161
0
LINE
8
DEFAULT_255_2_778
10
1.7955409
20
6.0544161
11
2.2623409
21
5.9584161
0
LINE
8
DEFAULT_255_2_778
10
2.2623409
20
5.9584161
11
2.2623409
21
5.4684161
0
LINE
8
DEFAULT_255_2_778
10
2.2623409
20
5.4684161
11
2.1231409
21
4.3658161
0
LINE
8
DEFAULT_255_2_778
10
2.1231409
20
4.3658161
11
1.8982409
21
3.6409161
0
LINE
8
DEFAULT_255_2_778
10
1.8982409
20
3.6409161
11
2.4009409
21
4.2367161
0
LINE
8
DEFAULT_255_2_778
10
2.4009409
20
4.2367161
11
2.7750409
21
6.3523161
0
LINE
8
DEFAULT_255_2_778
10
2.7750409
20
6.3523161
11
1.9218409
21
6.5280161
0
LINE
8
DEFAULT_255_2_778
10
1.6307409
20
4.3664161
11
1.4818409
21
4.5648161
0
LINE
8
DEFAULT_255_2_778
10
1.4818409
20
4.5648161
11
1.7268409
21
5.5808161
0
LINE
8
DEFAULT_255_2_778
10
1.7268409
20
5.5808161
11
1.8855409
21
5.5742161
0
LINE
8
DEFAULT_255_2_778
10
1.8855409
20
5.5742161
11
1.9913409
21
5.3194161
0
LINE
8
DEFAULT_255_2_778
10
1.9913409
20
5.3194161
11
1.7268409
21
4.7897161
0
LINE
8
DEFAULT_255_2_778
10
1.7268409
20
4.7897161
11
1.6307409
21
4.3664161
0
LINE
8
DEFAULT_255_2_778
10
2.6303409
20
1.5848161
11
2.2795409
21
1.9685161
0
LINE
8
DEFAULT_255_2_778
10
2.2795409
20
1.9685161
11
2.2795409
21
1.7896161
0
LINE
8
DEFAULT_255_2_778
10
2.2795409
20
1.7896161
11
2.5276409
21
1.3292161
0
LINE
8
DEFAULT_255_2_778
10
2.5276409
20
1.3292161
11
2.8451409
21
1.2035161
0
LINE
8
DEFAULT_255_2_778
10
2.8451409
20
1.2035161
11
3.0933409
21
1.3559161
0
LINE
8
DEFAULT_255_2_778
10
3.0933409
20
1.3559161
11
2.9743409
21
1.5843161
0
LINE
8
DEFAULT_255_2_778
10
2.9743409
20
1.5843161
11
2.8684409
21
1.5843161
0
LINE
8
DEFAULT_255_2_778
10
2.8684409
20
1.5843161
11
2.7724409
21
1.4586161
0
LINE
8
DEFAULT_255_2_778
10
2.7724409
20
1.4586161
11
2.6303409
21
1.5848161
0
LINE
8
DEFAULT_255_2_778
10
4.7528409
20
7.6932161
11
4.6964409
21
7.2892161
0
LINE
8
DEFAULT_255_2_778
10
4.6964409
20
7.2892161
11
4.7824409
21
6.9680161
0
LINE
8
DEFAULT_255_2_778
10
4.7824409
20
6.9680161
11
5.0240409
21
6.9548161
0
LINE
8
DEFAULT_255_2_778
10
5.0240409
20
6.9548161
11
5.3055409
21
7.2300161
0
LINE
8
DEFAULT_255_2_778
10
5.3055409
20
7.2300161
11
5.1600409
21
7.4583161
0
LINE
8
DEFAULT_255_2_778
10
5.1600409
20
7.4583161
11
5.1401409
21
7.7562161
0
LINE
8
DEFAULT_255_2_778
10
5.1401409
20
7.7562161
11
4.9780409
21
8.1039161
0
LINE
8
DEFAULT_255_2_778
10
4.9780409
20
8.1039161
11
4.8091409
21
8.1039161
0
LINE
8
DEFAULT_255_2_778
10
4.8091409
20
8.1039161
11
4.6967409
21
7.8954161
0
LINE
8
DEFAULT_255_2_778
10
4.6967409
20
7.8954161
11
4.7528409
21
7.6932161
0
LINE
8
DEFAULT_255_2_778
10
6.4773409
20
7.0678161
11
6.7057409
21
7.1141161
0
LINE
8
DEFAULT_255_2_778
10
6.7057409
20
7.1141161
11
6.9242409
21
7.2300161
0
LINE
8
DEFAULT_255_2_778
10
6.9242409
20
7.2300161
11
6.8449409
21
7.3326161
0
LINE
8
DEFAULT_255_2_778
10
6.8449409
20
7.3326161
11
6.7054409
21
7.3326161
0
LINE
8
DEFAULT_255_2_778
10
6.7054409
20
7.3326161
11
6.4541409
21
7.2895161
0
LINE
8
DEFAULT_255_2_778
10
6.4541409
20
7.2895161
11
6.3977409
21
7.2001161
0
LINE
8
DEFAULT_255_2_778
10
6.3977409
20
7.2001161
11
6.4773409
21
7.0678161
0
LINE
8
DEFAULT_255_2_778
10
5.2722409
20
4.5383161
11
5.0968409
21
4.2272161
0
LINE
8
DEFAULT_255_2_778
10
5.0968409
20
4.2272161
11
5.1100409
21
3.8197161
0
LINE
8
DEFAULT_255_2_778
10
5.1100409
20
3.8197161
11
4.9544409
21
3.5848161
0
LINE
8
DEFAULT_255_2_778
10
4.9544409
20
3.5848161
11
4.7226409
21
3.5483161
0
LINE
8
DEFAULT_255_2_778
10
4.7226409
20
3.5483161
11
4.6530409
21
3.6840161
0
LINE
8
DEFAULT_255_2_778
10
4.6530409
20
3.6840161
11
4.7689409
21
3.9856161
0
LINE
8
DEFAULT_255_2_778
10
4.7689409
20
3.9856161
11
4.8285409
21
4.2671161
0
LINE
8
DEFAULT_255_2_778
10
4.8285409
20
4.2671161
11
5.0105409
21
4.5582161
0
LINE
8
DEFAULT_255_2_778
10
5.0105409
20
4.5582161
11
4.7689409
21
4.8662161
0
LINE
8
DEFAULT_255_2_778
10
4.7689409
20
4.8662161
11
4.7689409
21
5.6414161
0
LINE
8
DEFAULT_255_2_778
10
4.7689409
20
5.6414161
11
4.9145409
21
5.8830161
0
LINE
8
DEFAULT_255_2_778
10
4.9145409
20
5.8830161
11
5.1494409
21
5.9724161
0
LINE
8
DEFAULT_255_2_778
10
5.1494409
20
5.9724161
11
5.3081409
21
5.7538161
0
LINE
8
DEFAULT_255_2_778
10
5.3081409
20
5.7538161
11
5.3314409
21
5.2141161
0
LINE
8
DEFAULT_255_2_778
10
5.3314409
20
5.2141161
11
5.2722409
21
4.5383161
0
LINE
8
DEFAULT_255_2_778
10
3.1468409
20
2.5217161
11
3.1468409
21
2.7170161
0
LINE
8
DEFAULT_255_2_778
10
3.1468409
20
2.7170161
11
3.0243409
21
2.8757161
0
LINE
8
DEFAULT_255_2_778
10
3.0243409
20
2.8757161
11
2.8655409
21
2.9617161
0
LINE
8
DEFAULT_255_2_778
10
2.8655409
20
2.9617161
11
2.7695409
21
2.6442161
0
LINE
8
DEFAULT_255_2_778
10
2.7695409
20
2.6442161
11
2.8158409
21
2.3426161
0
LINE
8
DEFAULT_255_2_778
10
2.8158409
20
2.3426161
11
3.0909409
21
2.1441161
0
LINE
8
DEFAULT_255_2_778
10
3.0909409
20
2.1441161
11
3.3857409
21
2.0746161
0
LINE
8
DEFAULT_255_2_778
10
3.3857409
20
2.0746161
11
3.5249409
21
2.2500161
0
LINE
8
DEFAULT_255_2_778
10
3.5249409
20
2.2500161
11
3.5249409
21
2.4254161
0
LINE
8
DEFAULT_255_2_778
10
3.5249409
20
2.4254161
11
3.3328409
21
2.5180161
0
LINE
8
DEFAULT_255_2_778
10
3.3328409
20
2.5180161
11
3.1468409
21
2.5217161
0
LINE
8
DEFAULT_255_2_778
10
1.5672409
20
4.0139161
11
1.5672409
21
4.1462161
0
LINE
8
DEFAULT_255_2_778
10
1.5672409
20
4.1462161
11
1.4280409
21
4.1992161
0
LINE
8
DEFAULT_255_2_778
10
1.4280409
20
4.1992161
11
1.3222409
21
4.0272161
0
LINE
8
DEFAULT_255_2_778
10
1.3222409
20
4.0272161
11
1.4280409
21
3.8253161
0
LINE
8
DEFAULT_255_2_778
10
1.4280409
20
3.8253161
11
1.6101409
21
3.8253161
0
LINE
8
DEFAULT_255_2_778
10
1.6101409
20
3.8253161
11
1.5672409
21
4.0139161
0
LINE
8
DEFAULT_255_2_778
10
6.2257409
20
4.0677161
11
6.3548409
21
4.2828161
0
LINE
8
DEFAULT_255_2_778
10
6.3548409
20
4.2828161
11
6.5602409
21
4.4317161
0
LINE
8
DEFAULT_255_2_778
10
6.5602409
20
4.4317161
11
6.6760409
21
4.6733161
0
LINE
8
DEFAULT_255_2_778
10
6.6760409
20
4.6733161
11
6.5369409
21
5.0871161
0
LINE
8
DEFAULT_255_2_778
10
6.5369409
20
5.0871161
11
6.5602409
21
5.4311161
0
LINE
8
DEFAULT_255_2_778
10
6.5602409
20
5.4311161
11
6.5602409
21
5.6263161
0
LINE
8
DEFAULT_255_2_778
10
6.5602409
20
5.6263161
11
6.3980409
21
5.9740161
0
LINE
8
DEFAULT_255_2_778
10
6.3980409
20
5.9740161
11
6.4411409
21
6.1528161
0
LINE
8
DEFAULT_255_2_778
10
6.4411409
20
6.1528161
11
6.5371409
21
6.2820161
0
LINE
8
DEFAULT_255_2_778
10
6.5371409
20
6.2820161
11
7.0404409
21
5.0371161
0
LINE
8
DEFAULT_255_2_778
10
7.0404409
20
5.0371161
11
7.1131409
21
4.0105161
0
LINE
8
DEFAULT_255_2_778
10
7.1131409
20
4.0105161
11
6.8221409
21
3.5766161
0
LINE
8
DEFAULT_255_2_778
10
6.8221409
20
3.5766161
11
6.6104409
21
3.4938161
0
LINE
8
DEFAULT_255_2_778
10
6.6104409
20
3.4938161
11
6.3556409
21
3.6956161
0
LINE
8
DEFAULT_255_2_778
10
6.3556409
20
3.6956161
11
6.2257409
21
4.0677161
0
LINE
8
DEFAULT_255_2_778
10
6.9507409
20
2.8461161
11
7.0367409
21
2.4624161
0
LINE
8
DEFAULT_255_2_778
10
7.0367409
20
2.4624161
11
6.8745409
21
2.0788161
0
LINE
8
DEFAULT_255_2_778
10
6.8745409
20
2.0788161
11
6.9507409
21
2.8461161
0
LINE
8
DEFAULT_255_2_778
10
5.3119409
20
0.9395161
11
5.0340409
21
0.7940161
0
LINE
8
DEFAULT_255_2_778
10
5.0340409
20
0.7940161
11
4.7589409
21
0.9064161
0
LINE
8
DEFAULT_255_2_778
10
4.7589409
20
0.9064161
11
4.4377409
21
1.2805161
0
LINE
8
DEFAULT_255_2_778
10
4.4377409
20
1.2805161
11
4.9404409
21
1.0054161
0
LINE
8
DEFAULT_255_2_778
10
4.9404409
20
1.0054161
11
5.1158409
21
0.9061161
0
LINE
8
DEFAULT_255_2_778
10
5.1158409
20
0.9061161
11
5.3119409
21
0.9395161
0
LINE
8
DEFAULT_255_2_778
10
4.9777409
20
1.7867161
11
4.7660409
21
1.9719161
0
LINE
8
DEFAULT_255_2_778
10
4.7660409
20
1.9719161
11
4.7594409
21
2.1473161
0
LINE
8
DEFAULT_255_2_778
10
4.7594409
20
2.1473161
11
4.6202409
21
2.4648161
0
LINE
8
DEFAULT_255_2_778
10
4.6202409
20
2.4648161
11
4.7594409
21
2.6040161
0
LINE
8
DEFAULT_255_2_778
10
4.7594409
20
2.6040161
11
4.9944409
21
2.4648161
0
LINE
8
DEFAULT_255_2_778
10
4.9944409
20
2.4648161
11
5.0803409
21
2.0812161
0
LINE
8
DEFAULT_255_2_778
10
5.0803409
20
2.0812161
11
4.9777409
21
1.7867161
0
LINE
8
DEFAULT_255_2_778
10
6.0439833
20
6.7989772
11
7.0758833
21
7.0471772
0
LINE
8
DEFAULT_255_2_778
10
7.0758833
20
7.0471772
11
7.0758833
21
6.6132772
0
LINE
8
DEFAULT_255_2_778
10
7.0758833
20
6.6132772
11
7.5557833
21
5.9147772
0
LINE
8
DEFAULT_255_2_778
10
7.5557833
20
5.9147772
11
8.0357833
21
5.3286772
0
LINE
8
DEFAULT_255_2_778
10
8.0357833
20
5.3286772
11
8.4061833
21
5.2493772
0
LINE
8
DEFAULT_255_2_778
10
8.4061833
20
5.2493772
11
8.5318833
21
5.6498772
0
LINE
8
DEFAULT_255_2_778
10
8.5318833
20
5.6498772
11
8.1973833
21
6.4311772
0
LINE
8
DEFAULT_255_2_778
10
8.1973833
20
6.4311772
11
8.7006833
21
5.9147772
0
LINE
8
DEFAULT_255_2_778
10
8.7006833
20
5.9147772
11
8.8032833
21
5.4083772
0
LINE
8
DEFAULT_255_2_778
10
8.8032833
20
5.4083772
11
8.5318833
21
4.5476772
0
LINE
8
DEFAULT_255_2_778
10
8.5318833
20
4.5476772
11
7.5581833
21
3.8919772
0
LINE
8
DEFAULT_255_2_778
10
7.5581833
20
3.8919772
11
7.5581833
21
5.0402772
0
LINE
8
DEFAULT_255_2_778
10
7.5581833
20
5.0402772
11
6.7114833
21
6.5298772
0
LINE
8
DEFAULT_255_2_778
10
6.7114833
20
6.5298772
11
5.9116833
21
6.5298772
0
LINE
8
DEFAULT_255_2_778
10
5.9116833
20
6.5298772
11
6.0439833
21
6.7981772
0
LINE
8
DEFAULT_255_2_778
10
5.6404833
20
3.1104772
11
6.0444833
21
2.8087772
0
LINE
8
DEFAULT_255_2_778
10
6.0444833
20
2.8087772
11
6.0444833
21
4.3216772
0
LINE
8
DEFAULT_255_2_778
10
6.0444833
20
4.3216772
11
6.1405833
21
5.4175772
0
LINE
8
DEFAULT_255_2_778
10
6.1405833
20
5.4175772
11
6.1968833
21
6.2023772
0
LINE
8
DEFAULT_255_2_778
10
6.1968833
20
6.2023772
11
6.5577833
21
6.4174772
0
LINE
8
DEFAULT_255_2_778
10
6.5577833
20
6.4174772
11
5.9121833
21
6.4407772
0
LINE
8
DEFAULT_255_2_778
10
5.9121833
20
6.4407772
11
5.7036833
21
4.7389772
0
LINE
8
DEFAULT_255_2_778
10
5.7036833
20
4.7389772
11
5.4555833
21
3.3220772
0
LINE
8
DEFAULT_255_2_778
10
5.4555833
20
3.3220772
11
5.4158833
21
2.2954772
0
LINE
8
DEFAULT_255_2_778
10
5.4158833
20
2.2954772
11
5.6404833
21
3.1104772
0
LINE
8
DEFAULT_255_2_778
10
1.9614833
20
1.9721772
11
1.7264833
21
2.6010772
0
LINE
8
DEFAULT_255_2_778
10
1.7264833
20
2.6010772
11
1.6735833
21
2.3462772
0
LINE
8
DEFAULT_255_2_778
10
1.6735833
20
2.3462772
11
1.3825833
21
2.7601772
0
LINE
8
DEFAULT_255_2_778
10
1.3825833
20
2.7601772
11
1.2335833
21
3.9520772
0
LINE
8
DEFAULT_255_2_778
10
1.2335833
20
3.9520772
11
1.4685833
21
5.6268772
0
LINE
8
DEFAULT_255_2_778
10
1.4685833
20
5.6268772
11
1.6703833
21
6.0573772
0
LINE
8
DEFAULT_255_2_778
10
1.6703833
20
6.0573772
11
2.2789833
21
6.2028772
0
LINE
8
DEFAULT_255_2_778
10
2.2789833
20
6.2028772
11
2.6297833
21
5.9745772
0
LINE
8
DEFAULT_255_2_778
10
2.6297833
20
5.9745772
11
1.8849833
21
6.6963772
0
LINE
8
DEFAULT_255_2_778
10
1.8849833
20
6.6963772
11
1.3221833
21
6.4415772
0
LINE
8
DEFAULT_255_2_778
10
1.3221833
20
6.4415772
11
0.9385833
21
5.7395772
0
LINE
8
DEFAULT_255_2_778
10
0.9385833
20
5.7395772
11
0.9385833
21
4.8225772
0
LINE
8
DEFAULT_255_2_778
10
0.9385833
20
4.8225772
11
0.8226833
21
2.8228772
0
LINE
8
DEFAULT_255_2_778
10
0.8226833
20
2.8228772
11
1.3253833
21
1.8967772
0
LINE
8
DEFAULT_255_2_778
10
1.3253833
20
1.8967772
11
2.0503833
21
1.5856772
0
LINE
8
DEFAULT_255_2_778
10
2.0503833
20
1.5856772
11
1.9643833
21
1.9692772
0
LINE
8
DEFAULT_255_2_778
10
2.6302833
20
0.8273772
11
2.1204833
21
1.1818772
0
LINE
8
DEFAULT_255_2_778
10
2.1204833
20
1.1818772
11
2.3056833
21
1.3572772
0
LINE
8
DEFAULT_255_2_778
10
2.3056833
20
1.3572772
11
2.5273833
21
1.1191772
0
LINE
8
DEFAULT_255_2_778
10
2.5273833
20
1.1191772
11
2.7358833
21
1.0331772
0
LINE
8
DEFAULT_255_2_778
10
2.7358833
20
1.0331772
11
3.3316833
21
1.3575772
0
LINE
8
DEFAULT_255_2_778
10
3.3316833
20
1.3575772
11
2.9877833
21
1.9700772
0
LINE
8
DEFAULT_255_2_778
10
2.9877833
20
1.9700772
11
3.6068833
21
1.5033772
0
LINE
8
DEFAULT_255_2_778
10
3.6068833
20
1.5033772
11
4.0566833
21
1.1196772
0
LINE
8
DEFAULT_255_2_778
10
4.0566833
20
1.1196772
11
2.6302833
21
0.8273772
0
LINE
8
DEFAULT_255_2_778
10
7.3710833
20
3.5313772
11
7.5562833
21
2.4883772
0
LINE
8
DEFAULT_255_2_778
10
7.5562833
20
2.4883772
11
7.3975833
21
1.7070772
0
LINE
8
DEFAULT_255_2_778
10
7.3975833
20
1.7070772
11
7.0763833
21
1.5350772
0
LINE
8
DEFAULT_255_2_778
10
7.0763833
20
1.5350772
11
6.3281833
21
1.2900772
0
LINE
8
DEFAULT_255_2_778
10
6.3281833
20
1.2900772
11
5.4179833
21
0.1909772
0
LINE
8
DEFAULT_255_2_778
10
5.4179833
20
0.1909772
11
4.8980833
21
0.3166772
0
LINE
8
DEFAULT_255_2_778
10
4.8980833
20
0.3166772
11
3.9280833
21
1.0945772
0
LINE
8
DEFAULT_255_2_778
10
3.9280833
20
1.0945772
11
4.2127833
21
1.0482772
0
LINE
8
DEFAULT_255_2_778
10
4.2127833
20
1.0482772
11
4.9377833
21
0.7042772
0
LINE
8
DEFAULT_255_2_778
10
4.9377833
20
0.7042772
11
5.3118833
21
0.7077772
0
LINE
8
DEFAULT_255_2_778
10
5.3118833
20
0.7077772
11
6.7583833
21
2.4264772
0
LINE
8
DEFAULT_255_2_778
10
6.7583833
20
2.4264772
11
6.5731833
21
1.7311772
0
LINE
8
DEFAULT_255_2_778
10
6.5731833
20
1.7311772
11
6.9504833
21
1.8634772
0
LINE
8
DEFAULT_255_2_778
10
6.9504833
20
1.8634772
11
7.2051833
21
2.0653772
0
LINE
8
DEFAULT_255_2_778
10
7.2051833
20
2.0653772
11
7.3710833
21
3.5313772
0
LINE
8
DEFAULT_255_2_778
10
7.2080967
20
2.6474207
11
7.2808967
21
2.2966207
0
LINE
8
DEFAULT_255_2_778
10
7.2808967
20
2.2966207
11
7.1684967
21
1.8595207
0
LINE
8
DEFAULT_255_2_778
10
7.1684967
20
1.8595207
11
6.9533967
21
1.8661207
0
LINE
8
DEFAULT_255_2_778
10
6.9533967
20
1.8661207
11
7.0890967
21
2.1143207
0
LINE
8
DEFAULT_255_2_778
10
7.0890967
20
2.1143207
11
7.2080967
21
2.6474207
0
LINE
8
DEFAULT_255_2_778
10
1.7952967
20
3.4089207
11
2.1762967
21
3.5909207
0
LINE
8
DEFAULT_255_2_778
10
2.1762967
20
3.5909207
11
2.4974967
21
2.8030207
0
LINE
8
DEFAULT_255_2_778
10
2.4974967
20
2.8030207
11
2.6860967
21
3.7068207
0
LINE
8
DEFAULT_255_2_778
10
2.6860967
20
3.7068207
11
2.6860967
21
4.4741207
0
LINE
8
DEFAULT_255_2_778
10
2.6860967
20
4.4741207
11
3.1562967
21
6.3479207
0
LINE
8
DEFAULT_255_2_778
10
3.1562967
20
6.3479207
11
3.3351967
21
6.5066207
0
LINE
8
DEFAULT_255_2_778
10
3.3351967
20
6.5066207
11
3.6430967
21
6.6159207
0
LINE
8
DEFAULT_255_2_778
10
3.6430967
20
6.6159207
11
4.0603967
21
6.5331207
0
LINE
8
DEFAULT_255_2_778
10
4.0603967
20
6.5331207
11
3.9312967
21
6.9601207
0
LINE
8
DEFAULT_255_2_778
10
3.9312967
20
6.9601207
11
3.0935967
21
6.9104207
0
LINE
8
DEFAULT_255_2_778
10
3.0935967
20
6.9104207
11
2.6961967
21
6.4336207
0
LINE
8
DEFAULT_255_2_778
10
2.6961967
20
6.4336207
11
2.3926967
21
4.1992207
0
LINE
8
DEFAULT_255_2_778
10
2.3926967
20
4.1992207
11
1.7952967
21
3.4089207
0
LINE
8
DEFAULT_255_2_778
10
3.524335
20
7.0474168
11
4.110435
21
6.8654168
0
LINE
8
DEFAULT_255_2_778
10
4.110435
20
6.8654168
11
4.213035
21
6.0576168
0
LINE
8
DEFAULT_255_2_778
10
4.213035
20
6.0576168
11
4.153535
21
5.9615168
0
LINE
8
DEFAULT_255_2_778
10
4.153535
20
5.9615168
11
3.789435
21
6.1536168
0
LINE
8
DEFAULT_255_2_778
10
3.789435
20
6.1536168
11
3.385435
21
6.2034168
0
LINE
8
DEFAULT_255_2_778
10
3.385435
20
6.2034168
11
3.524635
21
6.2730168
0
LINE
8
DEFAULT_255_2_778
10
3.524635
20
6.2730168
11
3.868535
21
6.3127168
0
LINE
8
DEFAULT_255_2_778
10
3.868535
20
6.3127168
11
4.057235
21
6.2828168
0
LINE
8
DEFAULT_255_2_778
10
4.057235
20
6.2828168
11
3.766235
21
6.4415168
0
LINE
8
DEFAULT_255_2_778
10
3.766235
20
6.4415168
11
3.150535
21
6.3455168
0
LINE
8
DEFAULT_255_2_778
10
3.150535
20
6.3455168
11
3.524335
21
7.0474168
0
LINE
8
DEFAULT_255_2_778
10
1.921735
20
5.7396168
11
2.120235
21
5.9150168
0
LINE
8
DEFAULT_255_2_778
10
2.120235
20
5.9150168
11
1.723335
21
5.7925168
0
LINE
8
DEFAULT_255_2_778
10
1.723335
20
5.7925168
11
1.921735
21
5.7396168
0
LINE
8
DEFAULT_255_2_778
10
4.5671381
20
8.4082491
11
4.5671381
21
9.4411491
0
LINE
8
DEFAULT_255_2_778
10
4.5671381
20
9.4411491
11
4.4811381
21
10.1761491
0
LINE
8
DEFAULT_255_2_778
10
4.4811381
20
10.1761491
11
4.5671381
21
10.3878491
0
LINE
8
DEFAULT_255_2_778
10
4.5671381
20
10.3878491
11
4.8582381
21
10.4936491
0
LINE
8
DEFAULT_255_2_778
10
4.8582381
20
10.4936491
11
5.2550381
21
10.3777491
0
LINE
8
DEFAULT_255_2_778
10
5.2550381
20
10.3777491
11
5.7120381
21
9.5998491
0
LINE
8
DEFAULT_255_2_778
10
5.7120381
20
9.5998491
11
5.8244381
21
8.9080491
0
LINE
8
DEFAULT_255_2_778
10
5.8244381
20
8.9080491
11
5.9932381
21
9.3517491
0
LINE
8
DEFAULT_255_2_778
10
5.9932381
20
9.3517491
11
5.6059381
21
10.6032491
0
LINE
8
DEFAULT_255_2_778
10
5.6059381
20
10.6032491
11
4.9777381
21
11.0069491
0
LINE
8
DEFAULT_255_2_778
10
4.9777381
20
11.0069491
11
4.4811381
21
10.8778491
0
LINE
8
DEFAULT_255_2_778
10
4.4811381
20
10.8778491
11
3.9255381
21
10.2089491
0
LINE
8
DEFAULT_255_2_778
10
3.9255381
20
10.2089491
11
4.1372381
21
7.8885491
0
LINE
8
DEFAULT_255_2_778
10
4.1372381
20
7.8885491
11
4.2099381
21
5.4014491
0
LINE
8
DEFAULT_255_2_778
10
4.2099381
20
5.4014491
11
4.1271381
21
4.2627491
0
LINE
8
DEFAULT_255_2_778
10
4.1271381
20
4.2627491
11
4.0544381
21
3.5343491
0
LINE
8
DEFAULT_255_2_778
10
4.0544381
20
3.5343491
11
4.2099381
21
2.7728491
0
LINE
8
DEFAULT_255_2_778
10
4.2099381
20
2.7728491
11
4.3422381
21
3.7957491
0
LINE
8
DEFAULT_255_2_778
10
4.3422381
20
3.7957491
11
4.4779381
21
4.4571491
0
LINE
8
DEFAULT_255_2_778
10
4.4779381
20
4.4571491
11
4.5211381
21
5.9203491
0
LINE
8
DEFAULT_255_2_778
10
4.5211381
20
5.9203491
11
4.4152381
21
7.1916491
0
LINE
8
DEFAULT_255_2_778
10
4.4152381
20
7.1916491
11
4.5642381
21
8.0954491
0
LINE
8
DEFAULT_255_2_778
10
4.5642381
20
8.0954491
11
4.5671381
21
8.4082491
0
LINE
8
DEFAULT_255_2_778
10
7.7786381
20
7.5440491
11
7.5035381
21
7.8986491
0
LINE
8
DEFAULT_255_2_778
10
7.5035381
20
7.8986491
11
7.1463381
21
7.7298491
0
LINE
8
DEFAULT_255_2_778
10
7.1463381
20
7.7298491
11
7.1296381
21
7.5906491
0
LINE
8
DEFAULT_255_2_778
10
7.1296381
20
7.5906491
11
7.0402381
21
7.3887491
0
LINE
8
DEFAULT_255_2_778
10
7.0402381
20
7.3887491
11
7.2386381
21
7.5906491
0
LINE
8
DEFAULT_255_2_778
10
7.2386381
20
7.5906491
11
7.3709381
21
7.5906491
0
LINE
8
DEFAULT_255_2_778
10
7.3709381
20
7.5906491
11
7.2053381
21
7.2334491
0
LINE
8
DEFAULT_255_2_778
10
7.2053381
20
7.2334491
11
7.5265381
21
7.6144491
0
LINE
8
DEFAULT_255_2_778
10
7.5265381
20
7.6144491
11
7.5032381
21
7.4620491
0
LINE
8
DEFAULT_255_2_778
10
7.5032381
20
7.4620491
11
7.6090381
21
7.5811491
0
LINE
8
DEFAULT_255_2_778
10
7.6090381
20
7.5811491
11
7.7786381
21
7.5440491
0
LINE
8
DEFAULT_255_2_778
10
6.1726381
20
5.8523491
11
6.3118381
21
5.9153491
0
LINE
8
DEFAULT_255_2_778
10
6.3118381
20
5.9153491
11
6.0472381
21
5.9748491
0
LINE
8
DEFAULT_255_2_778
10
6.0472381
20
5.9748491
11
6.0472381
21
5.7398491
0
LINE
8
DEFAULT_255_2_778
10
6.0472381
20
5.7398491
11
6.1726381
21
5.8523491
0
LINE
8
DEFAULT_255_2_778
10
6.3546381
20
5.7068491
11
6.1197381
21
5.5843491
0
LINE
8
DEFAULT_255_2_778
10
6.1197381
20
5.5843491
11
5.9509381
21
5.6504491
0
LINE
8
DEFAULT_255_2_778
10
5.9509381
20
5.6504491
11
6.1660381
21
5.7398491
0
LINE
8
DEFAULT_255_2_778
10
6.1660381
20
5.7398491
11
6.3546381
21
5.7068491
0
ARC
8
DEFAULT_255_2_778
10
4.9700443
20
9.2688671
40
0.0863447
50
286.4212788
51
296.9028495
0
ARC
8
DEFAULT_255_2_778
10
4.0552363
20
11.2727563
40
2.2891005
50
294.626665
51
296.1452999
0
ARC
8
DEFAULT_255_2_778
10
2.4820753
20
14.5242691
40
5.9011647
50
295.9454675
51
295.9735698
0
ARC
8
DEFAULT_255_2_778
10
1.4663271
20
16.6030474
40
8.2148325
50
295.9926752
51
296.3525194
0
ARC
8
DEFAULT_255_2_778
10
1.3922511
20
16.7577829
40
8.3863702
50
296.3367516
51
296.4842119
0
ARC
8
DEFAULT_255_2_778
10
4.3079922
20
10.9056987
40
1.8481416
50
296.483858
51
296.5355031
0
ARC
8
DEFAULT_255_2_778
10
5.2484781
20
6.7421095
40
0.0009423
50
34.5996648
51
103.7021265
0
ARC
8
DEFAULT_255_2_778
10
5.2475382
20
6.7327272
40
0.0103227
50
86.0184417
51
90.263947
0
ARC
8
DEFAULT_255_2_778
10
5.2599884
20
6.5642504
40
0.1792356
50
93.9983728
51
100.843437
0
ARC
8
DEFAULT_255_2_778
10
5.5467641
20
4.8647557
40
1.9027165
50
99.6971627
51
101.1144483
0
ARC
8
DEFAULT_255_2_778
10
6.7887167
20
-1.4948023
40
8.3824089
50
101.0647583
51
101.804842
0
ARC
8
DEFAULT_255_2_778
10
8.0099656
20
-7.419773
40
14.4319183
50
101.7385275
51
101.7827894
0
ARC
8
DEFAULT_255_2_778
10
9.43407
20
-14.2256014
40
21.3851451
50
101.7943982
51
102.0730346
0
ARC
8
DEFAULT_255_2_778
10
10.0362119
20
-17.0589809
40
24.2817984
50
102.0640647
51
102.1734707
0
ARC
8
DEFAULT_255_2_778
10
8.0871675
20
-8.0280933
40
15.0429835
50
102.1702171
51
102.2368779
0
ARC
8
DEFAULT_255_2_778
10
4.9238659
20
6.5568286
40
0.1189618
50
102.1887743
51
102.3343581
0
LINE
8
DEFAULT_255_2_778
10
6.0800537
20
4.7066445
11
5.9144537
21
5.4739445
0
LINE
8
DEFAULT_255_2_778
10
5.9144537
20
5.4739445
11
6.1461537
21
5.4739445
0
LINE
8
DEFAULT_255_2_778
10
6.1461537
20
5.4739445
11
6.5369537
21
5.4871445
0
LINE
8
DEFAULT_255_2_778
10
6.5369537
20
5.4871445
11
6.1797537
21
5.3879445
0
LINE
8
DEFAULT_255_2_778
10
6.1797537
20
5.3879445
11
6.0800537
21
4.7066445
0
LINE
8
DEFAULT_255_2_778
10
5.3119537
20
8.4677445
11
4.8084537
21
8.4677445
0
LINE
8
DEFAULT_255_2_778
10
4.8084537
20
8.4677445
11
4.3978537
21
8.3486445
0
LINE
8
DEFAULT_255_2_778
10
4.3978537
20
8.3486445
11
4.5666537
21
8.2261445
0
LINE
8
DEFAULT_255_2_778
10
4.5666537
20
8.2261445
11
4.8081537
21
8.3684445
0
LINE
8
DEFAULT_255_2_778
10
4.8081537
20
8.3684445
11
5.1124537
21
8.3684445
0
LINE
8
DEFAULT_255_2_778
10
5.1124537
20
8.3684445
11
5.3119537
21
8.4677445
0
LINE
8
DEFAULT_255_2_778
10
4.9579537
20
8.7129445
11
4.9944537
21
8.6666445
0
LINE
8
DEFAULT_255_2_778
10
4.9944537
20
8.6666445
11
4.6965537
21
8.6169445
0
LINE
8
DEFAULT_255_2_778
10
4.6965537
20
8.6169445
11
4.7595537
21
8.7624445
0
LINE
8
DEFAULT_255_2_778
10
4.7595537
20
8.7624445
11
4.9579537
21
8.7129445
0
LINE
8
DEFAULT_255_2_778
10
4.8984537
20
9.2093445
11
4.9944537
21
9.1860445
0
LINE
8
DEFAULT_255_2_778
10
5.1336537
20
9.2522445
11
4.9944537
21
9.2688445
0
LINE
8
DEFAULT_255_2_778
10
4.9944537
20
9.2688445
11
4.8984537
21
9.2093445
0
LINE
8
DEFAULT_255_2_778
10
5.1995537
20
9.5469445
11
4.6962537
21
9.4212445
0
LINE
8
DEFAULT_255_2_778
10
4.6962537
20
9.4212445
11
4.3258537
21
9.4908445
0
LINE
8
DEFAULT_255_2_778
10
4.3258537
20
9.4908445
11
4.4946537
21
9.2659445
0
LINE
8
DEFAULT_255_2_778
10
4.4946537
20
9.2659445
11
4.5642537
21
9.2924445
0
LINE
8
DEFAULT_255_2_778
10
4.5642537
20
9.2924445
11
4.9550537
21
9.3223445
0
LINE
8
DEFAULT_255_2_778
10
4.9550537
20
9.3223445
11
5.0941537
21
9.3985445
0
LINE
8
DEFAULT_255_2_778
10
5.0941537
20
9.3985445
11
5.1995537
21
9.5469445
0
LINE
8
DEFAULT_255_2_778
10
5.9874537
20
7.2326445
11
5.9146537
21
6.6135445
0
LINE
8
DEFAULT_255_2_778
10
5.9146537
20
6.6135445
11
6.2258537
21
6.6963445
0
LINE
8
DEFAULT_255_2_778
10
6.2258537
20
6.6963445
11
6.2258537
21
7.2948445
0
LINE
8
DEFAULT_255_2_778
10
6.2258537
20
7.2948445
11
6.6761537
21
7.4371445
0
LINE
8
DEFAULT_255_2_778
10
6.6761537
20
7.4371445
11
6.0472537
21
7.7319445
0
LINE
8
DEFAULT_255_2_778
10
6.0472537
20
7.7319445
11
5.9874537
21
7.2326445
0
LINE
8
DEFAULT_255_2_778
10
5.1465537
20
6.8251445
11
4.9777537
21
6.9146445
0
LINE
8
DEFAULT_255_2_778
10
4.9777537
20
6.9146445
11
4.5671537
21
6.8648445
0
LINE
8
DEFAULT_255_2_778
10
4.5671537
20
6.8648445
11
5.0240537
21
7.1162445
0
LINE
8
DEFAULT_255_2_778
10
5.0240537
20
7.1162445
11
5.0672537
21
7.0103445
0
LINE
8
DEFAULT_255_2_778
10
5.0672537
20
7.0103445
11
5.5042537
21
6.9905445
0
LINE
8
DEFAULT_255_2_778
10
5.5042537
20
6.9905445
11
5.1465537
21
6.8251445
0
LINE
8
DEFAULT_255_2_778
10
5.0672537
20
6.5306445
11
5.2857537
21
6.5770445
0
LINE
8
DEFAULT_255_2_778
10
5.2857537
20
6.5770445
11
5.1764537
21
6.6399445
0
LINE
8
DEFAULT_255_2_778
10
5.1764537
20
6.6399445
11
5.2492537
21
6.7426445
0
LINE
8
DEFAULT_255_2_778
10
4.8984537
20
6.6730445
11
4.7626537
21
6.5672445
0
LINE
8
DEFAULT_255_2_778
10
4.7626537
20
6.5672445
11
5.0672537
21
6.5306445
0
LINE
8
DEFAULT_255_2_778
10
5.1563537
20
6.3124445
11
5.2489537
21
6.3124445
0
LINE
8
DEFAULT_255_2_778
10
5.2489537
20
6.3124445
11
5.1132537
21
6.3984445
0
LINE
8
DEFAULT_255_2_778
10
5.1132537
20
6.3984445
11
4.8584537
21
6.3124445
0
LINE
8
DEFAULT_255_2_778
10
4.8584537
20
6.3124445
11
5.1563537
21
6.3124445
0
ARC
8
DEFAULT_255_2_778
10
4.9352976
20
2.7885883
40
0.5041031
50
344.520438
51
347.3421267
0
ARC
8
DEFAULT_255_2_778
10
4.6412723
20
2.8577649
40
0.8061469
50
347.1242238
51
349.5795723
0
ARC
8
DEFAULT_255_2_778
10
4.5872184
20
2.8680211
40
0.8611645
50
349.5589247
51
349.666384
0
ARC
8
DEFAULT_255_2_778
10
20.6211995
20
1.722982
40
15.2476291
50
173.977886
51
174.9269548
0
ARC
8
DEFAULT_255_2_778
10
11.6765633
20
2.5148953
40
6.2680059
50
174.9075345
51
176.5266166
0
ARC
8
DEFAULT_255_2_778
10
7.8755587
20
2.7401551
40
2.4603422
50
176.3999954
51
179.6686745
0
ARC
8
DEFAULT_255_2_778
10
6.4148866
20
2.751303
40
0.9996335
50
179.8234921
51
183.0613395
0
ARC
8
DEFAULT_255_2_778
10
5.8625652
20
2.7203795
40
0.446451
50
182.8839
51
188.5835716
0
ARC
8
DEFAULT_255_2_778
10
9.2215664
20
6.9959472
40
0.8954258
50
207.0820901
51
214.8365992
0
ARC
8
DEFAULT_255_2_778
10
9.951221
20
7.3712824
40
1.7159563
50
201.4898961
51
207.1486796
0
ARC
8
DEFAULT_255_2_778
10
11.3807265
20
7.9328851
40
3.2518218
50
196.70412
51
201.4701678
0
ARC
8
DEFAULT_255_2_778
10
13.3046271
20
8.5232554
40
5.2642419
50
194.2056927
51
196.8398671
0
ARC
8
DEFAULT_255_2_778
10
14.5803396
20
8.8521763
40
6.5816652
50
192.8504684
51
194.2561688
0
ARC
8
DEFAULT_255_2_778
10
14.8894829
20
8.9240961
40
6.8990613
50
192.0182271
51
192.861785
0
ARC
8
DEFAULT_255_2_778
10
14.3258936
20
8.8050559
40
6.3230382
50
191.2375242
51
192.0265741
0
ARC
8
DEFAULT_255_2_778
10
12.710069
20
8.4844598
40
4.6757159
50
190.6865057
51
191.2428808
0
ARC
8
DEFAULT_255_2_778
10
10.1794435
20
8.0078789
40
2.1006056
50
190.2733902
51
190.7124658
0
ARC
8
DEFAULT_255_2_778
10
6.5021403
20
9.1911573
40
1.4843186
50
306.9924729
51
310.3674714
0
ARC
8
DEFAULT_255_2_778
10
6.5469488
20
9.1317527
40
1.4099095
50
303.5826244
51
306.9906501
0
ARC
8
DEFAULT_255_2_778
10
6.5978618
20
9.0528476
40
1.3160131
50
294.5935205
51
303.6361924
0
ARC
8
DEFAULT_255_2_778
10
6.6259632
20
8.9930278
40
1.2499249
50
284.8539771
51
294.5634293
0
ARC
8
DEFAULT_255_2_778
10
6.6247029
20
9.0004394
40
1.2574121
50
275.5665937
51
284.8229078
0
ARC
8
DEFAULT_255_2_778
10
6.6201359
20
9.0447557
40
1.3019623
50
269.98489
51
275.5774497
0
ARC
8
DEFAULT_255_2_778
10
6.6201352
20
9.0881609
40
1.3453674
50
264.5541008
51
269.9854079
0
ARC
8
DEFAULT_255_2_778
10
6.6224108
20
9.1142236
40
1.3715284
50
259.9922079
51
264.5627961
0
ARC
8
DEFAULT_255_2_778
10
6.6190916
20
9.0966876
40
1.3536826
50
256.2944347
51
260.001576
0
ARC
8
DEFAULT_255_2_778
10
6.6077248
20
9.0492465
40
1.3048991
50
254.9561383
51
256.2857731
0
ARC
8
DEFAULT_255_2_778
10
6.585978
20
8.9701488
40
1.2228678
50
252.1630606
51
254.9782085
0
ARC
8
DEFAULT_255_2_778
10
6.5300535
20
8.7969047
40
1.0408209
50
249.8061742
51
252.1724218
0
ARC
8
DEFAULT_255_2_778
10
6.437224
20
8.5452604
40
0.7726008
50
247.7727134
51
249.8251952
0
ARC
8
DEFAULT_255_2_778
10
6.3001461
20
8.2108372
40
0.4111746
50
246.0833807
51
247.8264261
0
ARC
8
DEFAULT_255_2_778
10
6.1758583
20
7.9300403
40
0.1041011
50
245.4555141
51
245.961773
0
ARC
8
DEFAULT_255_2_778
10
5.7880369
20
10.6515018
40
0.0621569
50
231.7126509
51
262.0264993
0
ARC
8
DEFAULT_255_2_778
10
5.9713733
20
10.922282
40
0.3890252
50
226.9016545
51
235.2309907
0
ARC
8
DEFAULT_255_2_778
10
6.5976679
20
11.6037557
40
1.3145688
50
223.0325329
51
227.2638362
0
ARC
8
DEFAULT_255_2_778
10
7.9154197
20
12.847329
40
3.1264475
50
221.0473567
51
223.2113708
0
ARC
8
DEFAULT_255_2_778
10
9.2070565
20
13.9830353
40
4.8463631
50
220.5097693
51
221.1456827
0
ARC
8
DEFAULT_255_2_778
10
10.4492164
20
15.0409532
40
6.4779717
50
219.4490074
51
220.4872205
0
ARC
8
DEFAULT_255_2_778
10
11.6547807
20
16.036512
40
8.0414666
50
218.9118944
51
219.4686436
0
ARC
8
DEFAULT_255_2_778
10
11.8574377
20
16.2012006
40
8.3026016
50
218.4370894
51
218.9177768
0
ARC
8
DEFAULT_255_2_778
10
10.6282818
20
15.2264198
40
6.7338373
50
218.1231942
51
218.4419699
0
ARC
8
DEFAULT_255_2_778
10
7.8900975
20
13.0786121
40
3.2537897
50
217.8980214
51
218.1369591
0
ARC
8
DEFAULT_255_2_778
10
5.324264
20
12.7922094
40
1.7122644
50
266.863774
51
269.9414687
0
ARC
8
DEFAULT_255_2_778
10
5.3731789
20
13.5182021
40
2.439863
50
260.4827826
51
266.6495486
0
ARC
8
DEFAULT_255_2_778
10
5.4923971
20
14.2872396
40
3.2180418
50
258.1398701
51
260.6533224
0
ARC
8
DEFAULT_255_2_778
10
5.5359232
20
14.5005598
40
3.4357538
50
256.5401922
51
258.1606372
0
ARC
8
DEFAULT_255_2_778
10
5.5023525
20
14.3615267
40
3.2927254
50
255.5127357
51
256.5451844
0
ARC
8
DEFAULT_255_2_778
10
5.3848503
20
13.9089673
40
2.8251611
50
254.5147989
51
255.5239225
0
ARC
8
DEFAULT_255_2_778
10
5.1583599
20
13.0921059
40
1.9774815
50
253.7819007
51
254.5198747
0
ARC
8
DEFAULT_255_2_778
10
4.8447177
20
12.0155828
40
0.8561996
50
253.2185915
51
253.8149629
0
ARC
8
DEFAULT_255_2_778
10
3.1001282
20
8.1014854
40
0.9454599
50
302.8455501
51
310.7042901
0
ARC
8
DEFAULT_255_2_778
10
2.6134215
20
8.8504809
40
1.838698
50
297.3277267
51
302.9285081
0
ARC
8
DEFAULT_255_2_778
10
1.9120457
20
10.2025131
40
3.361825
50
293.1197153
51
297.3687764
0
ARC
8
DEFAULT_255_2_778
10
1.1682958
20
11.9217327
40
5.2350118
50
290.6550737
51
293.2177687
0
ARC
8
DEFAULT_255_2_778
10
0.728765
20
13.0726001
40
6.4669454
50
289.3235788
51
290.7022057
0
ARC
8
DEFAULT_255_2_778
10
0.640649
20
13.3200333
40
6.7295972
50
288.5029634
51
289.3344396
0
ARC
8
DEFAULT_255_2_778
10
0.8274833
20
12.7588248
40
6.1381065
50
287.7313905
51
288.5116003
0
ARC
8
DEFAULT_255_2_778
10
1.3181673
20
11.2228652
40
4.5256729
50
287.1855823
51
287.7365833
0
ARC
8
DEFAULT_255_2_778
10
2.0550459
20
8.837221
40
2.0288175
50
286.7756962
51
287.2110462
0
ARC
8
DEFAULT_255_2_778
10
0.8246073
20
9.2769139
40
2.6723685
50
288.6504332
51
294.3279841
0
ARC
8
DEFAULT_255_2_778
10
0.8572636
20
9.1763489
40
2.5666415
50
284.3716533
51
288.677637
0
ARC
8
DEFAULT_255_2_778
10
0.9522025
20
8.8031172
40
2.1815249
50
281.2583445
51
284.3893062
0
ARC
8
DEFAULT_255_2_778
10
1.0889268
20
8.109059
40
1.47413
50
278.6549976
51
281.3131456
0
ARC
8
DEFAULT_255_2_778
10
1.2267761
20
7.2029862
40
0.557631
50
277.1947133
51
278.6622113
0
ARC
8
DEFAULT_255_2_778
10
6.8063576
20
0.5213842
40
0.8079873
50
110.3681679
51
125.6868132
0
ARC
8
DEFAULT_255_2_778
10
7.0292521
20
-0.0577476
40
1.428507
50
101.4891678
51
110.6645945
0
ARC
8
DEFAULT_255_2_778
10
7.1916321
20
-0.8294138
40
2.2170607
50
95.4118616
51
101.6293352
0
ARC
8
DEFAULT_255_2_778
10
7.2504836
20
-1.3828044
40
2.7735426
50
92.5658154
51
95.5440007
0
ARC
8
DEFAULT_255_2_778
10
7.2556527
20
-1.4710229
40
2.8619042
50
90.6303828
51
92.5901322
0
ARC
8
DEFAULT_255_2_778
10
7.2533579
20
-1.288941
40
2.6798081
50
90.0027711
51
90.6241527
0
ARC
8
DEFAULT_255_2_778
10
7.2534439
20
-1.0901483
40
2.4810154
50
89.3904304
51
90.0049785
0
ARC
8
DEFAULT_255_2_778
10
7.2563349
20
-0.8178364
40
2.2086883
50
88.9089158
51
89.39027
0
ARC
8
DEFAULT_255_2_778
10
7.2621745
20
-0.5135602
40
1.9043561
50
88.4582142
51
88.9102568
0
ARC
8
DEFAULT_255_2_778
10
7.2742752
20
-0.0706372
40
1.4612679
50
87.9535201
51
88.4652324
0
ARC
8
DEFAULT_255_2_778
10
7.2934434
20
0.4655504
40
0.9247378
50
87.553769
51
87.954053
0
ARC
8
DEFAULT_255_2_778
10
7.3172294
20
1.0190625
40
0.3707151
50
87.2346614
51
87.575323
0
ARC
8
DEFAULT_255_2_778
10
7.3723397
20
1.3927823
40
0.0373832
50
179.8834149
51
185.2743508
0
ARC
8
DEFAULT_255_2_778
10
7.4505219
20
1.3846509
40
0.1158566
50
155.2288724
51
175.9376331
0
ARC
8
DEFAULT_255_2_778
10
7.8290249
20
1.2270443
40
0.5257973
50
149.396553
51
156.9165883
0
ARC
8
DEFAULT_255_2_778
10
8.6904014
20
0.7269672
40
1.5218013
50
145.7580197
51
149.701473
0
ARC
8
DEFAULT_255_2_778
10
10.3487512
20
-0.3960488
40
3.5246191
50
143.2786949
51
145.8356196
0
ARC
8
DEFAULT_255_2_778
10
12.0100127
20
-1.61973
40
5.5878901
50
142.7246902
51
143.4064654
0
ARC
8
DEFAULT_255_2_778
10
13.4161876
20
-2.6932493
40
7.3570046
50
141.638686
51
142.7044974
0
ARC
8
DEFAULT_255_2_778
10
14.6708269
20
-3.6825807
40
8.954781
50
141.0782002
51
141.6572738
0
ARC
8
DEFAULT_255_2_778
10
14.8891483
20
-3.8580479
40
9.2348747
50
140.7309442
51
141.0822217
0
ARC
8
DEFAULT_255_2_778
10
14.1083084
20
-3.2186608
40
8.2256542
50
140.3562983
51
140.7362339
0
ARC
8
DEFAULT_255_2_778
10
12.1420371
20
-1.5897425
40
5.672304
50
140.1467046
51
140.3543497
0
ARC
8
DEFAULT_255_2_778
10
9.7067372
20
0.4436623
40
2.4996994
50
139.9907874
51
140.1563589
0
ARC
8
DEFAULT_255_2_778
10
8.5509651
20
3.1635149
40
0.8902019
50
148.4927848
51
163.821942
0
ARC
8
DEFAULT_255_2_778
10
9.1792648
20
2.7811205
40
1.6257174
50
137.6951691
51
148.5750266
0
ARC
8
DEFAULT_255_2_778
10
10.1182351
20
1.9349451
40
2.8897017
50
130.1597485
51
137.8178547
0
ARC
8
DEFAULT_255_2_778
10
10.9436422
20
0.9819862
40
4.1503539
50
126.8453846
51
130.3838563
0
ARC
8
DEFAULT_255_2_778
10
11.3135048
20
0.4942979
40
4.762422
50
124.7564258
51
126.8879602
0
ARC
8
DEFAULT_255_2_778
10
11.3380815
20
0.4606672
40
4.8040635
50
123.3945269
51
124.7685825
0
ARC
8
DEFAULT_255_2_778
10
11.133004
20
0.7719983
40
4.4312583
50
122.4983239
51
123.3963068
0
ARC
8
DEFAULT_255_2_778
10
10.7353558
20
1.3973917
40
3.6901505
50
121.6128125
51
122.5080877
0
ARC
8
DEFAULT_255_2_778
10
10.1190977
20
2.3988741
40
2.5142503
50
120.9493178
51
121.6160498
0
ARC
8
DEFAULT_255_2_778
10
9.3764589
20
3.6384208
40
1.0692634
50
120.434845
51
120.9798546
0
ARC
8
DEFAULT_255_2_778
10
9.7971443
20
4.7329691
40
0.9776896
50
183.9144401
51
190.1695896
0
ARC
8
DEFAULT_255_2_778
10
10.2162122
20
4.7637857
40
1.3978852
50
179.8988053
51
184.0020024
0
ARC
8
DEFAULT_255_2_778
10
10.8454218
20
4.7596475
40
2.0271032
50
174.9184767
51
179.8132516
0
ARC
8
DEFAULT_255_2_778
10
11.9377076
20
4.660729
40
3.1238581
50
170.1553482
51
174.8857815
0
ARC
8
DEFAULT_255_2_778
10
12.8805562
20
4.5059186
40
4.0793016
50
168.2923185
51
170.2771927
0
ARC
8
DEFAULT_255_2_778
10
13.2238778
20
4.4359139
40
4.4296859
50
166.8121389
51
168.3067795
0
ARC
8
DEFAULT_255_2_778
10
13.1264248
20
4.4592262
40
4.3294846
50
165.8786306
51
166.8182811
0
ARC
8
DEFAULT_255_2_778
10
12.7130549
20
4.5631995
40
3.9032391
50
165.2547127
51
165.8783182
0
ARC
8
DEFAULT_255_2_778
10
11.9473847
20
4.7654543
40
3.1113068
50
164.5409373
51
165.267855
0
ARC
8
DEFAULT_255_2_778
10
10.607268
20
5.1366682
40
1.7207273
50
163.955957
51
164.5601167
0
ARC
8
DEFAULT_255_2_778
10
9.3488288
20
5.4982599
40
0.4113695
50
163.7394316
51
163.9148563
0
ARC
8
DEFAULT_255_2_778
10
7.8123968
20
5.4000126
40
0.2217276
50
232.1079005
51
247.7150611
0
ARC
8
DEFAULT_255_2_778
10
8.0320861
20
5.6924169
40
0.5874448
50
224.7353824
51
232.7141676
0
ARC
8
DEFAULT_255_2_778
10
8.532038
20
6.1933057
40
1.2951414
50
219.9051133
51
224.9092853
0
ARC
8
DEFAULT_255_2_778
10
9.3873136
20
6.9153217
40
2.414422
50
216.9935985
51
220.028262
0
ARC
8
DEFAULT_255_2_778
10
10.6967737
20
7.9024599
40
4.054278
50
214.4818006
51
217.00058
0
ARC
8
DEFAULT_255_2_778
10
12.3811716
20
9.0645369
40
6.1006422
50
212.7882753
51
214.522135
0
ARC
8
DEFAULT_255_2_778
10
13.548788
20
9.8215545
40
7.4921845
50
211.8831602
51
212.8196379
0
ARC
8
DEFAULT_255_2_778
10
13.7803183
20
9.9667223
40
7.7654591
50
211.3240498
51
211.8903478
0
ARC
8
DEFAULT_255_2_778
10
13.177473
20
9.6007212
40
7.0602085
50
210.7976617
51
211.3301596
0
ARC
8
DEFAULT_255_2_778
10
11.5807773
20
8.6492843
40
5.2015344
50
210.4244914
51
210.8004664
0
ARC
8
DEFAULT_255_2_778
10
9.1185479
20
7.2040104
40
2.3464705
50
210.1447258
51
210.4397069
0
ARC
8
DEFAULT_255_2_778
10
6.7519126
20
6.9052643
40
0.209228
50
282.965954
51
296.2081609
0
ARC
8
DEFAULT_255_2_778
10
6.601381
20
7.5007652
40
0.8234247
50
278.4416123
51
283.8761244
0
ARC
8
DEFAULT_255_2_778
10
6.3811271
20
8.9430834
40
2.2824586
50
275.4063157
51
278.5955714
0
ARC
8
DEFAULT_255_2_778
10
6.1342171
20
11.4480321
40
4.7995377
50
273.8163771
51
275.5233093
0
ARC
8
DEFAULT_255_2_778
10
5.9306543
20
14.4278956
40
7.7863436
50
272.7492818
51
273.8515093
0
ARC
8
DEFAULT_255_2_778
10
5.8216319
20
16.6149096
40
9.9760704
50
272.1935005
51
272.7722287
0
ARC
8
DEFAULT_255_2_778
10
5.7971417
20
17.2293662
40
10.5910143
50
271.8543206
51
272.1986629
0
ARC
8
DEFAULT_255_2_778
10
5.827455
20
16.2650248
40
9.6261969
50
271.4919923
51
271.8597197
0
ARC
8
DEFAULT_255_2_778
10
5.9008785
20
13.4515214
40
6.8117357
50
271.2937425
51
271.4907916
0
ARC
8
DEFAULT_255_2_778
10
5.9878287
20
9.5782138
40
2.9374522
50
271.1428134
51
271.3039655
0
ARC
8
DEFAULT_255_2_778
10
6.3300154
20
8.7413355
40
1.3525104
50
260.1789114
51
269.8610559
0
ARC
8
DEFAULT_255_2_778
10
6.3300443
20
8.8282127
40
1.4393874
50
269.8682939
51
269.9964403
0
ARC
8
DEFAULT_255_2_778
10
6.3300028
20
8.7377529
40
1.3489277
50
269.9979636
51
280.6464538
0
ARC
8
DEFAULT_255_2_778
10
6.2497568
20
8.9811644
40
1.6033326
50
281.8577893
51
284.4008983
0
ARC
8
DEFAULT_255_2_778
10
6.2557762
20
8.9576597
40
1.5790693
50
284.4014603
51
284.7422514
0
ARC
8
DEFAULT_255_2_778
10
6.2803027
20
8.8696137
40
1.4876808
50
284.6916468
51
288.6418051
0
ARC
8
DEFAULT_255_2_778
10
6.4226259
20
8.4510425
40
1.0455766
50
288.5837357
51
291.465332
0
ARC
8
DEFAULT_255_2_778
10
6.6601004
20
7.8468355
40
0.3963771
50
291.4796962
51
292.8803293
0
ARC
8
DEFAULT_255_2_778
10
4.9092274
20
2.7871414
40
0.5268705
50
344.7373591
51
347.5144983
0
ARC
8
DEFAULT_255_2_778
10
4.6021386
20
2.8583741
40
0.8421028
50
347.2996471
51
349.7167095
0
ARC
8
DEFAULT_255_2_778
10
18.3355905
20
-0.5266815
40
13.3041076
50
165.6421095
51
165.9282078
0
ARC
8
DEFAULT_255_2_778
10
15.1863541
20
0.2804335
40
10.0530887
50
164.9608153
51
165.6476043
0
ARC
8
DEFAULT_255_2_778
10
12.4738404
20
1.0122394
40
7.2435943
50
163.7373227
51
164.9837421
0
ARC
8
DEFAULT_255_2_778
10
9.4418076
20
1.9029612
40
4.083445
50
161.3685901
51
163.8213331
0
ARC
8
DEFAULT_255_2_778
10
7.9707908
20
2.3908444
40
2.5336624
50
160.666507
51
161.195734
0
ARC
8
DEFAULT_255_2_778
10
7.192945
20
2.6681644
40
1.7078749
50
157.9433002
51
160.8061645
0
ARC
8
DEFAULT_255_2_778
10
6.3615712
20
3.006365
40
0.8103455
50
153.6132755
51
158.0315313
0
ARC
8
DEFAULT_255_2_778
10
6.0723524
20
3.1467074
40
0.4888952
50
152.3688768
51
153.2832436
0
ARC
8
DEFAULT_255_2_778
10
6.4544286
20
3.7899245
40
0.9154387
50
207.0617
51
207.9837811
0
ARC
8
DEFAULT_255_2_778
10
7.1668515
20
4.1667211
40
1.7213671
50
207.9324388
51
209.4463271
0
ARC
8
DEFAULT_255_2_778
10
7.1156942
20
4.1349378
40
1.6611955
50
209.3591307
51
212.8119233
0
ARC
8
DEFAULT_255_2_778
10
6.8126773
20
3.9426308
40
1.3023184
50
212.9251954
51
213.6275456
0
ARC
8
DEFAULT_255_2_778
10
6.3819071
20
3.645581
40
0.7791812
50
212.981689
51
221.9473031
0
ARC
8
DEFAULT_255_2_778
10
6.0115198
20
3.3145501
40
0.2824287
50
222.2265948
51
232.9869758
0
ARC
8
DEFAULT_255_2_778
10
5.9181239
20
3.1918301
40
0.1282147
50
233.2995842
51
245.0871383
0
ARC
8
DEFAULT_255_2_778
10
7.0010067
20
3.2513606
40
1.1504061
50
188.5614776
51
188.7908732
0
ARC
8
DEFAULT_255_2_778
10
8.7607886
20
3.5163026
40
2.9300202
50
188.1844834
51
188.5616718
0
ARC
8
DEFAULT_255_2_778
10
10.3842942
20
3.750245
40
4.5702943
50
187.7343695
51
188.189949
0
ARC
8
DEFAULT_255_2_778
10
11.5642904
20
3.9107867
40
5.7611616
50
187.1613856
51
187.7371204
0
ARC
8
DEFAULT_255_2_778
10
12.1828587
20
3.9890271
40
6.3846583
50
186.6255798
51
187.166021
0
ARC
8
DEFAULT_255_2_778
10
12.3707296
20
4.0110573
40
6.5738163
50
186.021304
51
186.6273782
0
ARC
8
DEFAULT_255_2_778
10
12.2373038
20
3.9973717
40
6.4396909
50
185.0691419
51
186.0247389
0
ARC
8
DEFAULT_255_2_778
10
11.6151101
20
3.9435155
40
5.8151723
50
183.536085
51
185.0822474
0
ARC
8
DEFAULT_255_2_778
10
10.3813722
20
3.8708786
40
4.5793045
50
180.8794418
51
183.5810633
0
ARC
8
DEFAULT_255_2_778
10
9.4584445
20
3.8518297
40
3.6561965
50
180.0070007
51
180.8029522
0
ARC
8
DEFAULT_255_2_778
10
8.4099416
20
3.8624289
40
2.6077169
50
174.9307363
51
180.2426984
0
ARC
8
DEFAULT_255_2_778
10
7.2408177
20
3.9650075
40
1.4341024
50
168.8924726
51
174.885732
0
ARC
8
DEFAULT_255_2_778
10
6.6100281
20
4.0901362
40
0.791024
50
160.5568078
51
168.9839198
0
ARC
8
DEFAULT_255_2_778
10
0.8950421
20
3.2215806
40
5.8632691
50
345.273897
51
345.8360139
0
ARC
8
DEFAULT_255_2_778
10
0.9811465
20
3.2004002
40
5.7745996
50
345.8307253
51
346.252423
0
ARC
8
DEFAULT_255_2_778
10
3.0314523
20
2.7081847
40
3.6660697
50
346.1097333
51
348.234104
0
ARC
8
DEFAULT_255_2_778
10
5.7335233
20
2.1493756
40
0.9068319
50
347.9864007
51
352.2542454
0
ARC
8
DEFAULT_255_2_778
10
6.4696479
20
2.0488807
40
0.1638797
50
352.3818152
51
358.9394623
0
ARC
8
DEFAULT_255_2_778
10
6.6108206
20
2.0473043
40
0.0227257
50
356.3244799
51
18.8915169
0
ARC
8
DEFAULT_255_2_778
10
6.6302447
20
2.0539973
40
0.0021814
50
17.7522072
51
85.4775523
0
ARC
8
DEFAULT_255_2_778
10
6.6306141
20
2.0530085
40
0.0031696
50
93.5712077
51
126.816682
0
ARC
8
DEFAULT_255_2_778
10
6.686877
20
1.9899564
40
0.0876631
50
131.5653721
51
142.7653825
0
ARC
8
DEFAULT_255_2_778
10
7.6935184
20
1.1527226
40
1.3968919
50
140.4072057
51
142.1517391
0
ARC
8
DEFAULT_255_2_778
10
11.0724367
20
-1.4905091
40
5.6868471
50
142.0108232
51
142.6794909
0
ARC
8
DEFAULT_255_2_778
10
17.418
20
-6.3382344
40
13.6722455
50
142.6457949
51
142.9597482
0
ARC
8
DEFAULT_255_2_778
10
28.3441709
20
-14.5840639
40
27.3607412
50
142.9591997
51
143.2079839
0
ARC
8
DEFAULT_255_2_778
10
47.2281477
20
-28.7116342
40
50.9444818
50
143.203792
51
143.3727618
0
ARC
8
DEFAULT_255_2_778
10
79.736435
20
-52.876624
40
91.4504748
50
143.3736576
51
143.5232094
0
ARC
8
DEFAULT_255_2_778
10
131.6397913
20
-91.257187
40
156.0029806
50
143.5212522
51
143.6283165
0
ARC
8
DEFAULT_255_2_778
10
113.1281814
20
-77.6388917
40
133.0217387
50
143.6229325
51
143.6281866
0
ARC
8
DEFAULT_255_2_778
10
202.6911326
20
-143.5873216
40
244.245466
50
143.6310363
51
143.7176031
0
ARC
8
DEFAULT_255_2_778
10
255.5305354
20
-182.3903651
40
309.8021482
50
143.7155708
51
143.7506637
0
ARC
8
DEFAULT_255_2_778
10
273.0935202
20
-195.2685732
40
331.5807311
50
143.7505512
51
143.777931
0
ARC
8
DEFAULT_255_2_778
10
268.0467465
20
-191.5722095
40
325.3250911
50
143.777888
51
143.7986634
0
ARC
8
DEFAULT_255_2_778
10
250.7094633
20
-178.8822441
40
303.8398262
50
143.7987199
51
143.8120595
0
ARC
8
DEFAULT_255_2_778
10
201.4802287
20
-142.8676737
40
242.8433768
50
143.8120837
51
143.8258801
0
ARC
8
DEFAULT_255_2_778
10
126.4583012
20
-88.0129487
40
149.9061375
50
143.8255704
51
143.8368652
0
ARC
8
DEFAULT_255_2_778
10
69.4870289
20
-46.372783
40
79.3396493
50
143.8367268
51
143.8441225
0
ARC
8
DEFAULT_255_2_778
10
5.8248982
20
3.9886696
40
1.875097
50
183.976216
51
184.357713
0
ARC
8
DEFAULT_255_2_778
10
8.0023503
20
4.1527823
40
4.0587245
50
184.3321425
51
184.7521546
0
ARC
8
DEFAULT_255_2_778
10
9.4969227
20
4.2769876
40
5.5584491
50
184.751737
51
185.3902483
0
ARC
8
DEFAULT_255_2_778
10
10.2180461
20
4.3443806
40
6.2827146
50
185.3843524
51
186.2162131
0
ARC
8
DEFAULT_255_2_778
10
9.9698278
20
4.3157419
40
6.0328549
50
186.2010828
51
187.7122009
0
ARC
8
DEFAULT_255_2_778
10
8.6719198
20
4.1362526
40
4.7226013
50
187.6674319
51
190.1469313
0
ARC
8
DEFAULT_255_2_778
10
6.6525415
20
3.7629753
40
2.6690718
50
189.896226
51
195.6173048
0
ARC
8
DEFAULT_255_2_778
10
5.2161005
20
3.3625618
40
1.1778672
50
195.6695704
51
202.7118508
0
ARC
8
DEFAULT_255_2_778
10
4.5985557
20
3.1017772
40
0.5075243
50
202.4713028
51
213.8633982
0
ARC
8
DEFAULT_255_2_778
10
4.3541945
20
2.9373926
40
0.2130171
50
213.7724631
51
230.5751558
0
ARC
8
DEFAULT_255_2_778
10
4.9886549
20
2.8719876
40
0.7760985
50
186.2609422
51
187.3392262
0
ARC
8
DEFAULT_255_2_778
10
6.1588186
20
3.0037646
40
1.9536569
50
185.814772
51
186.3599777
0
ARC
8
DEFAULT_255_2_778
10
7.1173526
20
3.1012286
40
2.9171331
50
185.0983429
51
185.8118403
0
ARC
8
DEFAULT_255_2_778
10
7.8988593
20
3.1712783
40
3.7017729
50
184.3223869
51
185.1033511
0
ARC
8
DEFAULT_255_2_778
10
8.1280474
20
3.189476
40
3.9316809
50
184.2802336
51
184.3351004
0
ARC
8
DEFAULT_255_2_778
10
8.409741
20
3.2099697
40
4.2141182
50
183.3717409
51
184.2722446
0
ARC
8
DEFAULT_255_2_778
10
8.6132327
20
3.2221845
40
4.4179761
50
182.2466542
51
183.3746661
0
ARC
8
DEFAULT_255_2_778
10
8.5447329
20
3.2199723
40
4.3494422
50
180.6574467
51
182.2529086
0
ARC
8
DEFAULT_255_2_778
10
8.340735
20
3.2172022
40
4.1454259
50
180.0016248
51
180.6515149
0
ARC
8
DEFAULT_255_2_778
10
7.9742353
20
3.2192155
40
3.7789268
50
177.4734811
51
180.0323076
0
ARC
8
DEFAULT_255_2_778
10
7.2721936
20
3.251527
40
3.0761435
50
174.1438534
51
177.4983064
0
ARC
8
DEFAULT_255_2_778
10
6.2385151
20
3.3691456
40
2.0358914
50
165.6189594
51
174.4685474
0
ARC
8
DEFAULT_255_2_778
10
5.5199648
20
3.5440768
40
1.2964405
50
160.4433354
51
165.2204921
0
ARC
8
DEFAULT_255_2_778
10
1.6970609
20
5.5055985
40
0.528398
50
103.4924207
51
104.1581941
0
ARC
8
DEFAULT_255_2_778
10
1.8706563
20
4.785046
40
1.2695667
50
102.6379099
51
103.5234421
0
ARC
8
DEFAULT_255_2_778
10
2.0012361
20
4.2040593
40
1.8650468
50
101.5271579
51
102.6472084
0
ARC
8
DEFAULT_255_2_778
10
2.0790627
20
3.823496
40
2.2534864
50
100.0580564
51
101.5324465
0
ARC
8
DEFAULT_255_2_778
10
2.1031059
20
3.6909488
40
2.3881956
50
99.3194365
51
100.0706469
0
ARC
8
DEFAULT_255_2_778
10
2.1055356
20
3.6772939
40
2.4020637
50
97.0725936
51
99.3238833
0
ARC
8
DEFAULT_255_2_778
10
2.0840726
20
3.8569395
40
2.2211425
50
94.0111673
51
97.0937321
0
ARC
8
DEFAULT_255_2_778
10
2.0608628
20
4.2003732
40
1.8769269
50
90.0737153
51
94.0377435
0
ARC
8
DEFAULT_255_2_778
10
2.0598979
20
4.5430487
40
1.5342506
50
86.4705198
51
90.0541441
0
ARC
8
DEFAULT_255_2_778
10
2.1085099
20
5.0965707
40
0.9788925
50
70.6551646
51
87.3159624
0
ARC
8
DEFAULT_255_2_778
10
2.2304241
20
5.4712341
40
0.5850677
50
59.4037568
51
69.7662115
0
LINE
8
DEFAULT_255_2_778
10
5.4344148
20
2.7135459
11
5.4577148
21
3.3226459
0
LINE
8
DEFAULT_255_2_778
10
5.4211148
20
2.6537459
11
5.4211148
21
2.6540459
0
LINE
8
DEFAULT_255_2_778
10
8.9533148
20
5.6104459
11
8.4866148
21
6.4844459
0
LINE
8
DEFAULT_255_2_778
10
8.1125148
20
7.6332459
11
7.4635148
21
8.0602459
0
LINE
8
DEFAULT_255_2_778
10
6.1326148
20
7.8353459
11
6.1326148
21
9.4413459
0
LINE
8
DEFAULT_255_2_778
10
6.1326148
20
9.4413459
11
5.7794148
21
10.5899459
0
LINE
8
DEFAULT_255_2_778
10
4.5975148
20
11.1958459
11
3.7567148
21
10.2687459
0
LINE
8
DEFAULT_255_2_778
10
3.7567148
20
10.2687459
11
4.0345148
21
8.1928459
0
LINE
8
DEFAULT_255_2_778
10
4.0345148
20
8.1928459
11
3.9186148
21
7.1927459
0
LINE
8
DEFAULT_255_2_778
10
3.9186148
20
7.1927459
11
3.7167148
21
7.3847459
0
LINE
8
DEFAULT_255_2_778
10
2.6406148
20
6.8947459
11
2.4586148
21
6.6301459
0
LINE
8
DEFAULT_255_2_778
10
2.4586148
20
6.6301459
11
1.9255148
21
6.8418459
0
LINE
8
DEFAULT_255_2_778
10
1.2966148
20
6.6497459
11
1.0717148
21
6.1698459
0
LINE
8
DEFAULT_255_2_778
10
1.0717148
20
6.1698459
11
0.7012148
21
5.7295459
0
LINE
8
DEFAULT_255_2_778
10
0.7012148
20
5.7295459
11
0.8071148
21
4.2066459
0
LINE
8
DEFAULT_255_2_778
10
0.8071148
20
4.2066459
11
0.7542148
21
3.3856459
0
LINE
8
DEFAULT_255_2_778
10
0.7542148
20
3.3856459
11
0.5679148
21
2.6381459
0
LINE
8
DEFAULT_255_2_778
10
0.5679148
20
2.6381459
11
1.3458148
21
1.6713459
0
LINE
8
DEFAULT_255_2_778
10
1.3458148
20
1.6713459
11
1.7696148
21
1.6184459
0
LINE
8
DEFAULT_255_2_778
10
1.7696148
20
1.6184459
11
2.1967148
21
0.8106459
0
LINE
8
DEFAULT_255_2_778
10
2.1967148
20
0.8106459
11
2.4613148
21
0.6519459
0
LINE
8
DEFAULT_255_2_778
10
2.4613148
20
0.6519459
11
3.9181148
21
0.9067459
0
LINE
8
DEFAULT_255_2_778
10
3.9181148
20
0.9067459
11
4.9941148
21
0.0989459
0
LINE
8
DEFAULT_255_2_778
10
4.9941148
20
0.0989459
11
5.7085148
21
0.0989459
0
LINE
8
DEFAULT_255_2_778
10
5.7085148
20
0.0989459
11
6.3350148
21
1.1776459
0
LINE
8
DEFAULT_255_2_778
10
7.7921148
20
2.0507459
11
7.6960148
21
3.4115459
0
LINE
8
DEFAULT_255_2_778
10
8.9539148
20
5.6134459
11
8.9533148
21
5.6104459
0
LINE
8
DEFAULT_255_2_778
10
8.4303148
20
4.7902459
11
7.8675148
21
4.4198459
0
LINE
8
DEFAULT_255_2_778
10
7.8675148
20
4.4198459
11
7.6754148
21
4.1288459
0
LINE
8
DEFAULT_255_2_778
10
7.6754148
20
4.1288459
11
7.6323148
21
4.5659459
0
LINE
8
DEFAULT_255_2_778
10
7.6323148
20
4.5659459
11
7.7283148
21
5.1948459
0
LINE
8
DEFAULT_255_2_778
10
7.0894148
20
6.0256459
11
6.8443148
21
6.7175459
0
LINE
8
DEFAULT_255_2_778
10
6.0464148
20
6.6413459
11
6.0993148
21
7.4086459
0
LINE
8
DEFAULT_255_2_778
10
6.8142148
20
7.4816459
11
7.4431148
21
7.6932459
0
LINE
8
DEFAULT_255_2_778
10
7.4431148
20
7.6932459
11
7.7738148
21
7.5541459
0
LINE
8
DEFAULT_255_2_778
10
7.7738148
20
7.5541459
11
7.8170148
21
7.4448459
0
LINE
8
DEFAULT_255_2_778
10
7.8170148
20
7.4448459
11
7.9162148
21
7.1802459
0
LINE
8
DEFAULT_255_2_778
10
7.9162148
20
7.1802459
11
8.2009148
21
6.4254459
0
LINE
8
DEFAULT_255_2_778
10
8.2009148
20
6.4254459
11
8.7036148
21
5.6440459
0
LINE
8
DEFAULT_255_2_778
10
8.7036148
20
5.6440459
11
8.6308148
21
5.4091459
0
LINE
8
DEFAULT_255_2_778
10
8.6308148
20
5.4091459
11
8.4303148
21
4.7902459
0
LINE
8
DEFAULT_255_2_778
10
4.6531148
20
10.7786459
11
4.6928148
21
10.7820459
0
LINE
8
DEFAULT_255_2_778
10
4.6928148
20
10.7820459
11
4.8748148
21
10.7952459
0
LINE
8
DEFAULT_255_2_778
10
4.8748148
20
10.7952459
11
5.0865148
21
10.8119459
0
LINE
8
DEFAULT_255_2_778
10
5.0865148
20
10.8119459
11
5.1759148
21
10.7555459
0
LINE
8
DEFAULT_255_2_778
10
5.1759148
20
10.7555459
11
5.1957148
21
10.7423459
0
LINE
8
DEFAULT_255_2_778
10
5.1957148
20
10.7423459
11
5.3844148
21
10.6198459
0
LINE
8
DEFAULT_255_2_778
10
5.3844148
20
10.6198459
11
5.4473148
21
10.4510459
0
LINE
8
DEFAULT_255_2_778
10
5.4473148
20
10.4510459
11
5.7982148
21
9.4985459
0
LINE
8
DEFAULT_255_2_778
10
5.7982148
20
9.4985459
11
5.8511148
21
7.6014459
0
LINE
8
DEFAULT_255_2_778
10
5.8511148
20
7.6014459
11
5.8643148
21
7.1675459
0
LINE
8
DEFAULT_255_2_778
10
5.8643148
20
7.1675459
11
5.7683148
21
5.5086459
0
LINE
8
DEFAULT_255_2_778
10
5.7683148
20
5.5086459
11
5.4571148
21
3.3205459
0
LINE
8
DEFAULT_255_2_778
10
5.4571148
20
3.3205459
11
5.4175148
21
2.6484459
0
LINE
8
DEFAULT_255_2_778
10
5.8641148
20
4.3534459
11
5.9170148
21
5.2141459
0
LINE
8
DEFAULT_255_2_778
10
5.9170148
20
5.2141459
11
5.9897148
21
6.2867459
0
LINE
8
DEFAULT_255_2_778
10
5.9897148
20
6.2867459
11
6.5525148
21
6.4158459
0
LINE
8
DEFAULT_255_2_778
10
6.5525148
20
6.4158459
11
7.2973148
21
4.8733459
0
LINE
8
DEFAULT_255_2_778
10
7.2973148
20
4.8733459
11
7.3669148
21
3.5258459
0
LINE
8
DEFAULT_255_2_778
10
7.3669148
20
3.5258459
11
7.4397148
21
2.1849459
0
LINE
8
DEFAULT_255_2_778
10
7.4397148
20
2.1849459
11
7.2047148
21
1.7147459
0
LINE
8
DEFAULT_255_2_778
10
7.2047148
20
1.7147459
11
6.5327148
21
1.5988459
0
LINE
8
DEFAULT_255_2_778
10
6.5327148
20
1.5988459
11
6.5657148
21
1.7311459
0
LINE
8
DEFAULT_255_2_778
10
5.4270148
20
0.4363459
11
5.0132148
21
0.4363459
0
LINE
8
DEFAULT_255_2_778
10
5.0132148
20
0.4363459
11
4.2088148
21
1.0506459
0
LINE
8
DEFAULT_255_2_778
10
4.2088148
20
1.0506459
11
3.3092148
21
1.7293459
0
LINE
8
DEFAULT_255_2_778
10
3.3092148
20
1.7293459
11
3.6400148
21
1.2266459
0
LINE
8
DEFAULT_255_2_778
10
3.6400148
20
1.2266459
11
2.9521148
21
0.9884459
0
LINE
8
DEFAULT_255_2_778
10
2.9521148
20
0.9884459
11
2.7203148
21
0.9091459
0
LINE
8
DEFAULT_255_2_778
10
2.7203148
20
0.9091459
11
2.6674148
21
0.9390459
0
LINE
8
DEFAULT_255_2_778
10
2.6674148
20
0.9390459
11
2.4753148
21
1.0482459
0
LINE
8
DEFAULT_255_2_778
10
2.4753148
20
1.0482459
11
1.7834148
21
2.2733459
0
LINE
8
DEFAULT_255_2_778
10
1.7834148
20
2.2733459
11
1.8562148
21
1.9293459
0
LINE
8
DEFAULT_255_2_778
10
1.8562148
20
1.9293459
11
1.4725148
21
2.0153459
0
LINE
8
DEFAULT_255_2_778
10
1.4725148
20
2.0153459
11
0.9793148
21
2.7040459
0
LINE
8
DEFAULT_255_2_778
10
0.9793148
20
2.7040459
11
0.9793148
21
3.4184459
0
LINE
8
DEFAULT_255_2_778
10
0.9793148
20
3.4184459
11
1.0852148
21
4.0269459
0
LINE
8
DEFAULT_255_2_778
10
1.0852148
20
4.0269459
11
1.1182148
21
5.5266459
0
LINE
8
DEFAULT_255_2_778
10
1.1182148
20
5.5266459
11
1.4791148
21
6.2814459
0
LINE
8
DEFAULT_255_2_778
10
1.4791148
20
6.2814459
11
1.8532148
21
6.4304459
0
LINE
8
DEFAULT_255_2_778
10
1.8532148
20
6.4304459
11
2.4822148
21
6.1129459
0
LINE
8
DEFAULT_255_2_778
10
2.4822148
20
6.1129459
11
2.5253148
21
5.9737459
0
LINE
8
DEFAULT_255_2_778
10
2.5253148
20
5.9737459
11
2.3332148
21
4.5899459
0
LINE
8
DEFAULT_255_2_778
10
2.3332148
20
4.5899459
11
1.7903148
21
3.4080459
0
LINE
8
DEFAULT_255_2_778
10
1.7903148
20
3.4080459
11
2.2401148
21
3.7589459
0
LINE
8
DEFAULT_255_2_778
10
2.2401148
20
3.7589459
11
2.4949148
21
2.8022459
0
LINE
8
DEFAULT_255_2_778
10
2.4949148
20
2.8022459
11
2.6007148
21
4.4939459
0
LINE
8
DEFAULT_255_2_778
10
2.6007148
20
4.4939459
11
2.8555148
21
6.4307459
0
LINE
8
DEFAULT_255_2_778
10
2.8555148
20
6.4307459
11
3.6334148
21
6.8275459
0
LINE
8
DEFAULT_255_2_778
10
3.6334148
20
6.8275459
11
3.8882148
21
6.7646459
0
LINE
8
DEFAULT_255_2_778
10
3.8882148
20
6.7646459
11
4.0601148
21
6.4471459
0
LINE
8
DEFAULT_255_2_778
10
4.0601148
20
6.4471459
11
4.1363148
21
5.6533459
0
LINE
8
DEFAULT_255_2_778
10
4.1363148
20
5.6533459
11
4.1363148
21
4.9778459
0
LINE
8
DEFAULT_255_2_778
10
4.1363148
20
4.9778459
11
3.9543148
21
3.8586459
0
LINE
8
DEFAULT_255_2_778
10
4.2983148
20
3.9780459
11
4.3843148
21
5.4877459
0
LINE
8
DEFAULT_255_2_778
10
4.3843148
20
5.4877459
11
4.2983148
21
6.8087459
0
LINE
8
DEFAULT_255_2_778
10
4.2983148
20
6.8087459
11
4.2983148
21
8.3055459
0
LINE
8
DEFAULT_255_2_778
10
4.2983148
20
8.3055459
11
4.1890148
21
9.2950459
0
LINE
8
DEFAULT_255_2_778
10
4.1890148
20
9.2950459
11
4.0964148
21
10.1160459
0
LINE
8
DEFAULT_255_2_778
10
4.0964148
20
10.1160459
11
4.2488148
21
10.3311459
0
LINE
8
DEFAULT_255_2_778
10
4.2488148
20
10.3311459
11
4.3149148
21
10.4272459
0
LINE
8
DEFAULT_255_2_778
10
4.3149148
20
10.4272459
11
4.5631148
21
10.7780459
0
LINE
8
DEFAULT_255_2_778
10
4.5631148
20
10.7780459
11
4.6531148
21
10.7786459
0
LINE
8
DEFAULT_255_2_778
10
2.1901148
20
6.2629459
11
1.5678148
21
6.0179459
0
LINE
8
DEFAULT_255_2_778
10
2.5282148
20
5.9748459
11
2.5282148
21
6.4317459
0
LINE
8
DEFAULT_255_2_778
10
2.5282148
20
6.4317459
11
2.2372148
21
6.2629459
0
ARC
8
DEFAULT_255_2_778
10
3.9445557
20
6.2832863
40
0.1941614
50
54.5796551
51
57.2017357
0
ARC
8
DEFAULT_255_2_778
10
3.8022597
20
6.0641327
40
0.4554583
50
57.0885323
51
60.79939
0
ARC
8
DEFAULT_255_2_778
10
3.7114971
20
5.9029765
40
0.640415
50
60.7452526
51
65.2061716
0
ARC
8
DEFAULT_255_2_778
10
3.6732043
20
5.8218454
40
0.7301261
50
65.1480685
51
68.1433715
0
ARC
8
DEFAULT_255_2_778
10
3.6525931
20
5.7695663
40
0.7863205
50
68.167643
51
74.7466599
0
ARC
8
DEFAULT_255_2_778
10
3.6426057
20
5.7335288
40
0.8237163
50
74.7359096
51
82.6802636
0
ARC
8
DEFAULT_255_2_778
10
3.6392137
20
5.7074558
40
0.850009
50
82.677405
51
90.0226815
0
ARC
8
DEFAULT_255_2_778
10
3.6394491
20
5.6672417
40
0.8902233
50
90.0368055
51
97.8728373
0
ARC
8
DEFAULT_255_2_778
10
3.6495015
20
5.5962613
40
0.9619116
50
97.8868434
51
105.511774
0
ARC
8
DEFAULT_255_2_778
10
3.6696668
20
5.5203996
40
1.0404034
50
105.4645533
51
108.9335319
0
ARC
8
DEFAULT_255_2_778
10
4.0052915
20
6.0257508
40
0.0944056
50
19.8536693
51
32.4442181
0
ARC
8
DEFAULT_255_2_778
10
3.9026344
20
5.9626312
40
0.2149093
50
31.9627762
51
48.5485971
0
ARC
8
DEFAULT_255_2_778
10
3.8236575
20
5.8776718
40
0.3308825
50
48.0372942
51
58.0746165
0
ARC
8
DEFAULT_255_2_778
10
3.7604393
20
5.7776864
40
0.4491753
50
57.9748717
51
65.5029728
0
ARC
8
DEFAULT_255_2_778
10
3.7097894
20
5.6690616
40
0.5690249
50
65.397275
51
69.8950996
0
LINE
8
DEFAULT_255_2_778
10
1.7265859
20
5.7925127
11
1.9382859
21
5.9150127
0
LINE
8
DEFAULT_255_2_778
10
1.9382859
20
5.9150127
11
2.1202859
21
5.9150127
0
LINE
8
DEFAULT_255_2_778
10
2.1202859
20
5.9150127
11
1.9218859
21
5.7925127
0
LINE
8
DEFAULT_255_2_778
10
1.9218859
20
5.7925127
11
1.7265859
21
5.7925127
0
LINE
8
DEFAULT_255_2_778
10
3.3320859
20
6.5045127
11
3.5966859
21
6.6204127
0
LINE
8
DEFAULT_255_2_778
10
3.5966859
20
6.6204127
11
4.0570859
21
6.6204127
0
LINE
8
DEFAULT_255_2_778
10
4.0570859
20
6.6204127
11
4.0570859
21
6.4415127
0
LINE
8
DEFAULT_255_2_778
10
3.9053859
20
6.2034127
11
3.5217859
21
6.2730127
0
LINE
8
DEFAULT_255_2_778
10
3.5217859
20
6.2730127
11
3.8921859
21
6.3457127
0
LINE
8
DEFAULT_255_2_778
10
3.8921859
20
6.3457127
11
4.2096859
21
6.2928127
0
LINE
8
DEFAULT_255_2_778
10
4.2096859
20
6.2928127
11
4.0940859
21
6.0578127
0
LINE
8
DEFAULT_255_2_778
10
7.2388859
20
7.2948127
11
7.5563859
21
7.7615127
0
LINE
8
DEFAULT_255_2_778
10
7.5563859
20
7.7615127
11
7.3711859
21
7.6985127
0
LINE
8
DEFAULT_255_2_778
10
7.3711859
20
7.6985127
11
7.2388859
21
7.2948127
0
ARC
8
DEFAULT_255_2_778
10
6.2584176
20
5.4768643
40
0.2541696
50
66.4015179
51
67.8307114
0
ARC
8
DEFAULT_255_2_778
10
6.1359634
20
5.1781274
40
0.5770297
50
67.7637071
51
69.8308773
0
ARC
8
DEFAULT_255_2_778
10
6.0654558
20
4.9870343
40
0.7807153
50
69.8091157
51
72.9527818
0
ARC
8
DEFAULT_255_2_778
10
6.0500601
20
4.9385428
40
0.8315896
50
72.9180892
51
74.1378672
0
ARC
8
DEFAULT_255_2_778
10
6.0565081
20
4.9630764
40
0.8062281
50
74.1021091
51
79.61334
0
ARC
8
DEFAULT_255_2_778
10
6.0821838
20
5.1148245
40
0.652341
50
79.4285714
51
89.6956117
0
ARC
8
DEFAULT_255_2_778
10
6.0846856
20
5.2670563
40
0.5001009
50
89.8895778
51
96.9479559
0
ARC
8
DEFAULT_255_2_778
10
6.0633034
20
5.4036028
40
0.3620014
50
96.2028648
51
122.2437022
0
ARC
8
DEFAULT_255_2_778
10
5.3261098
20
6.5460286
40
0.9976539
50
301.6671042
51
303.0477326
0
ARC
8
DEFAULT_255_2_778
10
5.6343976
20
6.0444563
40
0.4089147
50
299.1284494
51
301.7973189
0
ARC
8
DEFAULT_255_2_778
10
5.7878517
20
5.7668543
40
0.0917305
50
292.6273958
51
299.8037903
0
ARC
8
DEFAULT_255_2_778
10
5.8191924
20
5.691071
40
0.0097252
50
275.3462081
51
293.9731718
0
ARC
8
DEFAULT_255_2_778
10
5.8199157
20
5.6820157
40
0.0006536
50
183.3065048
51
286.2399039
0
ARC
8
DEFAULT_255_2_778
10
5.8404036
20
5.6711333
40
0.0237598
50
125.6854456
51
152.8430962
0
ARC
8
DEFAULT_255_2_778
10
6.0698245
20
5.4170907
40
0.3659248
50
127.0544679
51
131.6699473
0
ARC
8
DEFAULT_255_2_778
10
6.4862311
20
4.8747527
40
1.0496748
50
124.5817932
51
127.3557685
0
ARC
8
DEFAULT_255_2_778
10
6.7843212
20
4.4454833
40
1.5722913
50
121.355437
51
124.6465453
0
ARC
8
DEFAULT_255_2_778
10
6.8009624
20
4.4196751
40
1.6029897
50
120.552591
51
121.3833776
0
ARC
8
DEFAULT_255_2_778
10
6.6455487
20
4.6937359
40
1.2879891
50
113.8279073
51
120.7962157
0
ARC
8
DEFAULT_255_2_778
10
6.399667
20
5.2543874
40
0.6757936
50
104.5529934
51
113.9614031
0
ARC
8
DEFAULT_255_2_778
10
6.3104898
20
5.6008378
40
0.3180518
50
91.089202
51
104.686027
0
ARC
8
DEFAULT_255_2_778
10
6.3048525
20
5.7951698
40
0.123663
50
89.9369913
51
90.1893024
0
ARC
8
DEFAULT_255_2_778
10
6.3052025
20
5.721969
40
0.1968639
50
85.6985871
51
90.0622803
0
ARC
8
DEFAULT_255_2_778
10
6.2796792
20
5.8953514
40
0.0463555
50
29.6429571
51
39.5371671
0
ARC
8
DEFAULT_255_2_778
10
6.2461053
20
5.8684447
40
0.0893785
50
39.1386164
51
55.3220511
0
ARC
8
DEFAULT_255_2_778
10
6.2280088
20
5.8422088
40
0.1212502
50
55.3435178
51
74.1203854
0
ARC
8
DEFAULT_255_2_778
10
6.2127679
20
5.7886949
40
0.1768922
50
74.1148796
51
89.6109315
0
ARC
8
DEFAULT_255_2_778
10
6.210232
20
5.7417938
40
0.2238203
50
89.0432874
51
90.0050511
0
ARC
8
DEFAULT_255_2_778
10
6.2132901
20
5.6660399
40
0.29959
50
90.5886433
51
103.389054
0
ARC
8
DEFAULT_255_2_778
10
6.2610394
20
5.4587161
40
0.5123379
50
103.2149454
51
112.1942456
0
ARC
8
DEFAULT_255_2_778
10
6.3828393
20
5.1555571
40
0.8390467
50
112.0752891
51
118.5100384
0
ARC
8
DEFAULT_255_2_778
10
6.5568719
20
4.8277906
40
1.2101392
50
118.3434308
51
121.5837656
0
ARC
8
DEFAULT_255_2_778
10
5.2068586
20
6.6976013
40
0.0010578
50
59.9450713
51
101.2781697
0
ARC
8
DEFAULT_255_2_778
10
5.2064861
20
6.6900138
40
0.0086264
50
88.8994573
51
90.3847122
0
ARC
8
DEFAULT_255_2_778
10
5.2204616
20
6.4307706
40
0.2682373
50
92.9989195
51
97.3724941
0
ARC
8
DEFAULT_255_2_778
10
5.3820254
20
5.012712
40
1.6954437
50
96.6379145
51
98.2532806
0
ARC
8
DEFAULT_255_2_778
10
5.5178727
20
4.0579591
40
2.6598105
50
98.1969765
51
100.18968
0
ARC
8
DEFAULT_255_2_778
10
5.4631344
20
4.339692
40
2.3728412
50
100.0922662
51
103.6359009
0
ARC
8
DEFAULT_255_2_778
10
5.180709
20
5.4615037
40
1.2161085
50
103.164919
51
111.676477
0
ARC
8
DEFAULT_255_2_778
10
4.8878818
20
6.1977365
40
0.4237787
50
111.6520243
51
123.9241146
0
ARC
8
DEFAULT_255_2_778
10
4.7699466
20
6.3799368
40
0.2068094
50
124.9838665
51
130.8897632
0
ARC
8
DEFAULT_255_2_778
10
4.5941982
20
10.1748768
40
0.8175249
50
264.3821256
51
264.7502453
0
ARC
8
DEFAULT_255_2_778
10
4.6944046
20
11.2598107
40
1.9070765
50
264.7347005
51
265.257866
0
ARC
8
DEFAULT_255_2_778
10
4.7505964
20
11.9305782
40
2.5801934
50
265.2457367
51
265.7473917
0
ARC
8
DEFAULT_255_2_778
10
4.7736424
20
12.2378488
40
2.8883271
50
265.743479
51
266.3157231
0
ARC
8
DEFAULT_255_2_778
10
4.7785902
20
12.3111078
40
2.9617526
50
266.3112727
51
267.4067661
0
ARC
8
DEFAULT_255_2_778
10
4.762798
20
11.9272374
40
2.5775613
50
267.3713745
51
269.550958
0
ARC
8
DEFAULT_255_2_778
10
4.7574947
20
11.5003127
40
2.1506091
50
269.6031003
51
269.9992867
0
ARC
8
DEFAULT_255_2_778
10
4.7580658
20
11.2797872
40
1.9300838
50
269.982253
51
271.2404165
0
ARC
8
DEFAULT_255_2_778
10
4.788175
20
10.4272193
40
1.0771268
50
270.6209123
51
279.0639207
0
ARC
8
DEFAULT_255_2_778
10
4.9063377
20
9.6953554
40
0.3357894
50
278.8263831
51
292.8409699
0
ARC
8
DEFAULT_255_2_778
10
4.9930818
20
9.4885133
40
0.1114953
50
293.0202143
51
313.456012
0
ARC
8
DEFAULT_255_2_778
10
4.7007926
20
9.8355129
40
0.5650403
50
310.7687089
51
311.8747298
0
ARC
8
DEFAULT_255_2_778
10
4.3470637
20
10.2317879
40
1.0962252
50
311.8158462
51
313.5951309
0
ARC
8
DEFAULT_255_2_778
10
4.3237226
20
10.2585421
40
1.1316973
50
313.5169519
51
317.3967813
0
ARC
8
DEFAULT_255_2_778
10
4.4610995
20
10.1301639
40
0.9436796
50
317.4879211
51
318.2452574
0
ARC
8
DEFAULT_255_2_778
10
4.6924292
20
9.9309648
40
0.6384752
50
317.7562191
51
326.5348081
0
ARC
8
DEFAULT_255_2_778
10
5.0136021
20
9.7209311
40
0.254734
50
326.1097068
51
341.5078889
0
ARC
8
DEFAULT_255_2_778
10
5.1514923
20
9.6735031
40
0.1089277
50
342.1622597
51
359.0687749
0
ARC
8
DEFAULT_255_2_778
10
5.1958224
20
9.6726255
40
0.0645893
50
359.208019
51
23.6917909
0
ARC
8
DEFAULT_255_2_778
10
5.0344163
20
9.8554411
40
0.1635256
50
8.500091
51
9.9791945
0
ARC
8
DEFAULT_255_2_778
10
4.8338663
20
9.8249961
40
0.3663732
50
6.4216194
51
8.5731354
0
ARC
8
DEFAULT_255_2_778
10
4.778061
20
9.8181595
40
0.4225933
50
6.137951
51
6.4964954
0
ARC
8
DEFAULT_255_2_778
10
4.7187338
20
9.8119819
40
0.482241
50
2.9912376
51
6.1140389
0
ARC
8
DEFAULT_255_2_778
10
4.7119229
20
9.8114069
40
0.4890727
50
0.0140687
51
3.0168695
0
ARC
8
DEFAULT_255_2_778
10
4.7864511
20
9.809993
40
0.4145473
50
350.8453945
51
0.2120167
0
ARC
8
DEFAULT_255_2_778
10
4.8699856
20
9.7980819
40
0.3301853
50
347.6639268
51
350.5797396
0
ARC
8
DEFAULT_255_2_778
10
5.0086083
20
9.7552613
40
0.1860163
50
296.11726
51
351.4293102
0
ARC
8
DEFAULT_255_2_778
10
5.0176745
20
9.7531792
40
0.1803005
50
285.6683301
51
293.8209973
0
ARC
8
DEFAULT_255_2_778
10
4.8442425
20
9.9915905
40
0.4680743
50
297.2400187
51
298.3301628
0
ARC
8
DEFAULT_255_2_778
10
4.6108363
20
10.4430346
40
0.9762868
50
295.6219652
51
297.2920262
0
ARC
8
DEFAULT_255_2_778
10
4.532628
20
10.6045605
40
1.1557492
50
292.8773173
51
295.6551299
0
ARC
8
DEFAULT_255_2_778
10
4.5567137
20
10.5476652
40
1.0939658
50
291.7062995
51
292.8735175
0
ARC
8
DEFAULT_255_2_778
10
4.6512434
20
10.2979662
40
0.8270231
50
284.0239819
51
292.0197272
0
ARC
8
DEFAULT_255_2_778
10
4.7150844
20
10.0616531
40
0.5823017
50
282.7880766
51
283.5641925
0
ARC
8
DEFAULT_255_2_778
10
4.7511728
20
9.8820758
40
0.3992167
50
271.378061
51
283.441882
0
ARC
8
DEFAULT_255_2_778
10
4.7582323
20
9.7476371
40
0.2646747
50
269.9961311
51
270.5501491
0
ARC
8
DEFAULT_255_2_778
10
4.752242
20
9.6460122
40
0.1631591
50
242.9754948
51
272.0977878
0
ARC
8
DEFAULT_255_2_778
10
4.7263552
20
9.5876388
40
0.0994574
50
213.1318601
51
240.980185
0
ARC
8
DEFAULT_255_2_778
10
5.1056117
20
9.7723761
40
0.5206864
50
206.2192648
51
207.3352907
0
ARC
8
DEFAULT_255_2_778
10
5.6305744
20
10.0324872
40
1.1065557
50
205.0186274
51
206.2925745
0
ARC
8
DEFAULT_255_2_778
10
5.9595605
20
10.1861571
40
1.4696622
50
203.0389822
51
205.0232509
0
ARC
8
DEFAULT_255_2_778
10
6.0655587
20
10.231938
40
1.5851227
50
200.0520459
51
203.0623391
0
ARC
8
DEFAULT_255_2_778
10
6.0083349
20
10.2107956
40
1.5241187
50
199.8090137
51
200.0430149
0
ARC
8
DEFAULT_255_2_778
10
5.8912297
20
10.1705707
40
1.4003124
50
195.0630834
51
199.8843243
0
ARC
8
DEFAULT_255_2_778
10
5.497762
20
10.0689883
40
0.9939735
50
185.7954251
51
195.3030684
0
ARC
8
DEFAULT_255_2_778
10
5.1942014
20
10.0342342
40
0.6884662
50
180.1075383
51
185.4688738
0
ARC
8
DEFAULT_255_2_778
10
4.9420801
20
10.0417975
40
0.4364335
50
158.4777549
51
181.1626453
0
ARC
8
DEFAULT_255_2_778
10
4.827056
20
10.0799024
40
0.3155225
50
152.5851148
51
157.2519205
0
ARC
8
DEFAULT_255_2_778
10
4.8708126
20
9.9732236
40
0.4103129
50
140.504499
51
142.1166641
0
ARC
8
DEFAULT_255_2_778
10
5.1819637
20
9.7182832
40
0.8125676
50
138.0273711
51
140.5867572
0
ARC
8
DEFAULT_255_2_778
10
5.2375439
20
9.6699369
40
0.8862231
50
133.1732732
51
138.1066948
0
ARC
8
DEFAULT_255_2_778
10
5.164207
20
9.7468669
40
0.7799418
50
131.6076003
51
133.1110032
0
ARC
8
DEFAULT_255_2_778
10
4.9259662
20
10.0447975
40
0.399464
50
103.9550126
51
134.434124
0
ARC
8
DEFAULT_255_2_778
10
4.8587395
20
10.2589695
40
0.1759269
50
90.1423879
51
99.5236908
0
ARC
8
DEFAULT_255_2_778
10
4.8584501
20
10.281002
40
0.1538939
50
82.7887979
51
90.0550322
0
ARC
8
DEFAULT_255_2_778
10
4.8822648
20
10.3790688
40
0.0547946
50
92.5255226
51
94.7073734
0
ARC
8
DEFAULT_255_2_778
10
4.885535
20
10.3112334
40
0.1227085
50
89.9094545
51
92.6552996
0
ARC
8
DEFAULT_255_2_778
10
4.8847791
20
10.2512457
40
0.1826985
50
75.6178519
51
89.7021239
0
ARC
8
DEFAULT_255_2_778
10
4.8888834
20
10.2651178
40
0.1682425
50
62.1100162
51
75.7983603
0
ARC
8
DEFAULT_255_2_778
10
4.897022
20
10.2808824
40
0.1505021
50
45.0404175
51
62.0410797
0
ARC
8
DEFAULT_255_2_778
10
4.8752038
20
10.3392654
40
0.1368976
50
20.5762458
51
26.464223
0
ARC
8
DEFAULT_255_2_778
10
4.8107458
20
10.3088979
40
0.2081397
50
26.0404152
51
39.7733307
0
ARC
8
DEFAULT_255_2_778
10
4.8238629
20
10.3191883
40
0.1914755
50
39.9177445
51
40.5145023
0
ARC
8
DEFAULT_255_2_778
10
4.8490879
20
10.3444337
40
0.1559231
50
39.4835797
51
75.4737389
0
ARC
8
DEFAULT_255_2_778
10
4.851488
20
10.3446891
40
0.1550903
50
76.3084149
51
90.1921031
0
ARC
8
DEFAULT_255_2_778
10
4.9238545
20
10.0738511
40
0.4321188
50
99.7106451
51
101.7923173
0
ARC
8
DEFAULT_255_2_778
10
5.0095193
20
9.6555513
40
0.8590987
50
101.6836781
51
104.944753
0
ARC
8
DEFAULT_255_2_778
10
5.0317821
20
9.5664458
40
0.9509327
50
104.856217
51
110.8162322
0
ARC
8
DEFAULT_255_2_778
10
4.9789077
20
9.7044121
40
0.803182
50
110.7881452
51
116.6067938
0
ARC
8
DEFAULT_255_2_778
10
4.8007404
20
10.0195803
40
0.4419676
50
114.2536281
51
149.3369712
0
ARC
8
DEFAULT_255_2_778
10
4.4204223
20
10.2448535
40
0.000192
50
355.3012066
51
40.6420192
0
ARC
8
DEFAULT_255_2_778
10
4.4162454
20
10.2458457
40
0.0044829
50
325.6277643
51
347.0071117
0
ARC
8
DEFAULT_255_2_778
10
4.3546204
20
10.2809733
40
0.0754024
50
328.0500086
51
330.0374887
0
ARC
8
DEFAULT_255_2_778
10
4.6693442
20
10.0832769
40
0.2962634
50
147.8174954
51
151.4229683
0
ARC
8
DEFAULT_255_2_778
10
4.6713839
20
10.0838242
40
0.2977964
50
151.7031666
51
158.2287291
0
ARC
8
DEFAULT_255_2_778
10
4.7215157
20
10.0628709
40
0.3521252
50
158.0880193
51
159.886241
0
ARC
8
DEFAULT_255_2_778
10
4.7867528
20
10.040148
40
0.4211991
50
160.0354696
51
167.0384938
0
ARC
8
DEFAULT_255_2_778
10
4.9145174
20
10.010608
40
0.552334
50
167.0249868
51
173.6493521
0
ARC
8
DEFAULT_255_2_778
10
5.075777
20
9.992293
40
0.71463
50
173.6200706
51
179.3305766
0
ARC
8
DEFAULT_255_2_778
10
5.1833524
20
9.9893752
40
0.8222338
50
179.214848
51
180.0031062
0
ARC
8
DEFAULT_255_2_778
10
5.3400062
20
9.9921178
40
0.9788916
50
180.1631366
51
186.4618908
0
ARC
8
DEFAULT_255_2_778
10
5.676906
20
10.0294998
40
1.3178585
50
186.4283729
51
191.653501
0
ARC
8
DEFAULT_255_2_778
10
6.0958447
20
10.1153189
40
1.7454965
50
191.6347108
51
196.1275088
0
ARC
8
DEFAULT_255_2_778
10
6.6050153
20
10.2617255
40
2.2752975
50
196.1076048
51
199.8817633
0
ARC
8
DEFAULT_255_2_778
10
7.1450865
20
10.4551832
40
2.8489703
50
199.8467582
51
202.509816
0
LINE
8
DEFAULT_255_2_778
10
7.556668
20
7.8155785
11
7.513468
21
7.5245785
0
LINE
8
DEFAULT_255_2_778
10
7.513468
20
7.5245785
11
7.695568
21
7.7562785
0
LINE
8
DEFAULT_255_2_778
10
7.695568
20
7.7562785
11
7.556368
21
7.9944785
0
LINE
8
DEFAULT_255_2_778
10
7.556368
20
7.9944785
11
7.152368
21
7.7562785
0
LINE
8
DEFAULT_255_2_778
10
7.152368
20
7.7562785
11
7.076168
21
7.4583785
0
LINE
8
DEFAULT_255_2_778
10
7.076168
20
7.4583785
11
7.334368
21
7.7562785
0
LINE
8
DEFAULT_255_2_778
10
7.334368
20
7.7562785
11
7.556668
21
7.8155785
0
LINE
8
DEFAULT_255_2_778
10
5.864868
20
5.1869785
11
6.142668
21
5.4218785
0
LINE
8
DEFAULT_255_2_778
10
6.142668
20
5.4218785
11
6.539568
21
5.4848785
0
LINE
8
DEFAULT_255_2_778
10
6.539568
20
5.4848785
11
6.052768
21
5.5576785
0
LINE
8
DEFAULT_255_2_778
10
6.052768
20
5.5576785
11
5.870668
21
5.4946785
0
LINE
8
DEFAULT_255_2_778
10
5.870668
20
5.4946785
11
6.148468
21
5.6502785
0
LINE
8
DEFAULT_255_2_778
10
6.148468
20
5.6502785
11
6.360168
21
5.7097785
0
LINE
8
DEFAULT_255_2_778
10
5.923068
20
5.8586785
11
5.711468
21
5.1138785
0
LINE
8
DEFAULT_255_2_778
10
5.711468
20
5.1138785
11
5.864868
21
5.1869785
0
LINE
8
DEFAULT_255_2_778
10
5.120068
20
8.4214785
11
4.898368
21
8.4214785
0
LINE
8
DEFAULT_255_2_778
10
4.898368
20
8.4214785
11
4.481068
21
8.3685785
0
LINE
8
DEFAULT_255_2_778
10
4.481068
20
8.3685785
11
4.918168
21
8.5704785
0
LINE
8
DEFAULT_255_2_778
10
4.918168
20
8.5704785
11
5.024068
21
8.5174785
0
LINE
8
DEFAULT_255_2_778
10
5.024068
20
8.5174785
11
5.315068
21
8.5174785
0
LINE
8
DEFAULT_255_2_778
10
5.315068
20
8.5174785
11
5.120068
21
8.4214785
0
LINE
8
DEFAULT_255_2_778
10
4.898368
20
8.7622785
11
4.759168
21
8.7622785
0
LINE
8
DEFAULT_255_2_778
10
4.759168
20
8.7622785
11
4.696168
21
8.6661785
0
LINE
8
DEFAULT_255_2_778
10
4.696168
20
8.6661785
11
5.066668
21
8.6661785
0
LINE
8
DEFAULT_255_2_778
10
5.066668
20
8.6661785
11
4.898368
21
8.7622785
0
LINE
8
DEFAULT_255_2_778
10
4.881668
20
9.2120785
11
5.004168
21
9.2948785
0
LINE
8
DEFAULT_255_2_778
10
5.004168
20
9.2948785
11
5.129868
21
9.2517785
0
LINE
8
DEFAULT_255_2_778
10
5.129868
20
9.2517785
11
5.007368
21
9.2120785
0
LINE
8
DEFAULT_255_2_778
10
5.007368
20
9.2120785
11
4.881668
21
9.2120785
0
LINE
8
DEFAULT_255_2_778
10
5.007368
20
6.9630785
11
5.417968
21
6.9630785
0
LINE
8
DEFAULT_255_2_778
10
5.417968
20
6.9630785
11
4.994168
21
6.8704785
0
LINE
8
DEFAULT_255_2_778
10
4.994168
20
6.8704785
11
4.567068
21
6.8704785
0
LINE
8
DEFAULT_255_2_778
10
4.567068
20
6.8704785
11
5.007368
21
7.0524785
0
LINE
8
DEFAULT_255_2_778
10
5.007368
20
7.0524785
11
5.007368
21
6.9630785
0
LINE
8
DEFAULT_255_2_778
10
4.636968
20
6.5362785
11
5.303168
21
6.5362785
0
LINE
8
DEFAULT_255_2_778
10
5.303168
20
6.5362785
11
4.998868
21
6.6257785
0
LINE
8
DEFAULT_255_2_778
10
4.998868
20
6.6257785
11
5.207368
21
6.6984785
0
LINE
8
DEFAULT_255_2_778
10
4.634568
20
6.5362785
11
4.636968
21
6.5362785
0
LINE
8
DEFAULT_255_2_778
10
5.126968
20
6.3510785
11
5.246068
21
6.2881785
0
LINE
8
DEFAULT_255_2_778
10
5.246068
20
6.2881785
11
4.977768
21
6.2881785
0
LINE
8
DEFAULT_255_2_778
10
4.977768
20
6.2881785
11
5.126968
21
6.3510785
0
LINE
8
DEFAULT_255_2_778
10
1.150268
20
2.7932785
11
1.322268
21
2.6011785
0
LINE
8
DEFAULT_255_2_778
10
1.322268
20
2.6011785
11
1.150268
21
3.3229785
0
LINE
8
DEFAULT_255_2_778
10
1.150268
20
3.3229785
11
1.150268
21
2.7932785
0
LINE
8
DEFAULT_255_2_778
10
2.392768
20
1.5348785
11
2.617668
21
1.1840785
0
LINE
8
DEFAULT_255_2_778
10
2.617668
20
1.1840785
11
2.862668
21
1.1840785
0
LINE
8
DEFAULT_255_2_778
10
2.862668
20
1.1840785
11
2.680568
21
1.2898785
0
LINE
8
DEFAULT_255_2_778
10
2.680568
20
1.2898785
11
2.392768
21
1.5348785
0
LINE
8
DEFAULT_255_2_778
10
4.567068
20
1.1213785
11
4.977768
21
0.6643785
0
LINE
8
DEFAULT_255_2_778
10
4.977768
20
0.6643785
11
5.312168
21
0.7075785
0
LINE
8
DEFAULT_255_2_778
10
5.312168
20
0.7075785
11
5.067168
21
0.7704785
0
LINE
8
DEFAULT_255_2_778
10
5.067168
20
0.7704785
11
4.567068
21
1.1213785
0
LINE
8
DEFAULT_255_2_778
10
6.948368
20
1.8661785
11
7.203168
21
2.0680785
0
LINE
8
DEFAULT_255_2_778
10
7.203168
20
2.0680785
11
7.203168
21
2.4265785
0
LINE
8
DEFAULT_255_2_778
10
7.203168
20
2.4265785
11
7.074068
21
2.0889785
0
LINE
8
DEFAULT_255_2_778
10
7.074068
20
2.0889785
11
6.948368
21
1.8661785
0
LINE
8
DEFAULT_255_2_778
10
5.254968
20
9.6985785
11
5.195468
21
9.8837785
0
LINE
8
DEFAULT_255_2_778
10
4.513168
20
9.3644785
11
4.514168
21
9.3612785
0
LINE
8
DEFAULT_255_2_778
10
15.4539106
20
10.0809081
11
15.2594106
21
10.0245081
0
ARC
8
DEFAULT_255_2_778
10
23.5992987
20
-18.6727723
40
29.8845719
50
106.2047084
51
106.9331483
0
ARC
8
DEFAULT_255_2_778
10
25.7770028
20
-25.8772227
40
37.4109469
50
106.9101034
51
106.9996634
0
ARC
8
DEFAULT_255_2_778
10
-10.6422344
20
6.9155941
40
25.6556133
50
5.8785781
51
6.678087
0
ARC
8
DEFAULT_255_2_778
10
-2.7552333
20
7.7252765
40
17.7271605
50
4.8631242
51
5.886229
0
ARC
8
DEFAULT_255_2_778
10
-71.4157802
20
3.9173206
40
86.4871007
50
3.3300551
51
3.5204933
0
ARC
8
DEFAULT_255_2_778
10
-48.2628669
20
5.2629701
40
63.2951158
50
3.0969297
51
3.331433
0
ARC
8
DEFAULT_255_2_778
10
14.7011103
20
13.9344547
40
5.2573683
50
272.6022947
51
275.4792403
0
ARC
8
DEFAULT_255_2_778
10
14.396563
20
24.9736674
40
16.2925353
50
272.8375371
51
273.5263356
0
ARC
8
DEFAULT_255_2_778
10
14.7473855
20
19.1474039
40
10.455728
50
273.5712679
51
273.7032556
0
ARC
8
DEFAULT_255_2_778
10
15.4725772
20
8.1193717
40
0.5962254
50
89.9997523
51
94.7976552
0
ARC
8
DEFAULT_255_2_778
10
15.4721782
20
8.1065648
40
0.6090323
50
80.4224366
51
89.9622257
0
ARC
8
DEFAULT_255_2_778
10
15.5658602
20
8.450919
40
0.2563033
50
59.8190202
51
88.2895194
0
ARC
8
DEFAULT_255_2_778
10
15.6174617
20
8.5549795
40
0.1406188
50
54.6044537
51
56.6767371
0
ARC
8
DEFAULT_255_2_778
10
-3.0307745
20
-13.2162503
40
28.8061088
50
48.9657896
51
49.4434398
0
ARC
8
DEFAULT_255_2_778
10
15.7945971
20
8.4133187
40
0.1315058
50
29.3278453
51
49.0935098
0
ARC
8
DEFAULT_255_2_778
10
15.8712727
20
8.457153
40
0.0431922
50
1.6391371
51
28.4523734
0
ARC
8
DEFAULT_255_2_778
10
15.870106
20
8.4641059
40
0.0447084
50
283.5815993
51
352.6528425
0
ARC
8
DEFAULT_255_2_778
10
15.7898339
20
8.6454775
40
0.2424619
50
279.0113103
51
291.9854972
0
ARC
8
DEFAULT_255_2_778
10
17.1468715
20
2.1785
40
6.3656719
50
101.9591772
51
102.8990665
0
ARC
8
DEFAULT_255_2_778
10
18.7042491
20
-4.6483535
40
13.3679099
50
102.8737337
51
103.446503
0
ARC
8
DEFAULT_255_2_778
10
21.0657821
20
-16.9421627
40
25.8799615
50
102.2022513
51
102.8424698
0
ARC
8
DEFAULT_255_2_778
10
18.121566
20
-6.016155
40
14.5795571
50
101.1050876
51
101.8477532
0
ARC
8
DEFAULT_255_2_778
10
14.1404895
20
11.9448006
40
3.8218323
50
282.1735152
51
284.9776225
0
ARC
8
DEFAULT_255_2_778
10
14.3449575
20
8.1209332
40
0.6078532
50
0.01649
51
8.3216784
0
LINE
8
DEFAULT_255_2_778
10
14.9528106
20
8.1211081
11
14.9528106
21
8.0332081
0
ARC
8
DEFAULT_255_2_778
10
-503.8263739
20
-2.2553649
40
518.8811974
50
1.0648665
51
1.1361569
0
LINE
8
DEFAULT_255_2_778
10
14.9652106
20
7.3877081
11
14.9652106
21
6.7421081
0
ARC
8
DEFAULT_255_2_778
10
16.7809288
20
6.7568991
40
1.8157784
50
180.4667273
51
184.2119283
0
ARC
8
DEFAULT_255_2_778
10
19.3139195
20
6.9223635
40
4.3541315
50
183.9353254
51
185.1858524
0
ARC
8
DEFAULT_255_2_778
10
14.2665677
20
6.4621004
40
0.7141652
50
0.1842628
51
5.3596128
0
ARC
8
DEFAULT_255_2_778
10
14.6299655
20
6.4552394
40
0.3508834
50
342.2728368
51
1.4955321
0
ARC
8
DEFAULT_255_2_778
10
14.7897979
20
6.4094485
40
0.1847667
50
331.719484
51
340.7066919
0
ARC
8
DEFAULT_255_2_778
10
14.812728
20
6.3885879
40
0.1548721
50
265.9206255
51
334.4977091
0
ARC
8
DEFAULT_255_2_778
10
14.8058253
20
6.5351848
40
0.3011048
50
253.4808903
51
269.2170136
0
ARC
8
DEFAULT_255_2_778
10
15.2485819
20
8.4077362
40
2.2248782
50
251.655192
51
256.2619533
0
ARC
8
DEFAULT_255_2_778
10
14.8517131
20
7.2128336
40
0.9657926
50
245.4416499
51
251.6921118
0
ARC
8
DEFAULT_255_2_778
10
14.8521563
20
7.2008438
40
0.9550867
50
238.1447706
51
245.1185213
0
ARC
8
DEFAULT_255_2_778
10
15.3916936
20
8.1083021
40
2.0107279
50
237.3234733
51
238.7334639
0
ARC
8
DEFAULT_255_2_778
10
14.3665298
20
6.5402575
40
0.1383406
50
211.0516963
51
244.1038051
0
ARC
8
DEFAULT_255_2_778
10
14.3058743
20
6.4990644
40
0.065252
50
180.1232016
51
207.5341892
0
ARC
8
DEFAULT_255_2_778
10
14.3263529
20
6.4965236
40
0.085764
50
148.5211311
51
178.3960716
0
ARC
8
DEFAULT_255_2_778
10
14.2521952
20
6.5588736
40
0.0175949
50
273.3084763
51
320.187732
0
ARC
8
DEFAULT_255_2_778
10
14.2332466
20
6.6155949
40
0.07534
50
295.5247204
51
312.5671543
0
ARC
8
DEFAULT_255_2_778
10
13.948933
20
6.6749154
40
0.3543894
50
341.0975282
51
353.7634049
0
ARC
8
DEFAULT_255_2_778
10
13.2689508
20
6.7613045
40
1.0398012
50
353.101698
51
359.0456704
0
ARC
8
DEFAULT_255_2_778
10
12.4862481
20
6.7863535
40
1.8228521
50
358.6681919
51
0.0284251
0
ARC
8
DEFAULT_255_2_778
10
11.7477485
20
6.7840646
40
2.5613534
50
0.0714302
51
2.0248948
0
ARC
8
DEFAULT_255_2_778
10
10.5258067
20
6.7419327
40
3.7840212
50
2.0086903
51
3.51466
0
ARC
8
DEFAULT_255_2_778
10
54.0794536
20
9.3789552
40
39.8493856
50
183.2615922
51
183.4600996
0
ARC
8
DEFAULT_255_2_778
10
31.6311957
20
8.1047817
40
17.3649967
50
182.8894371
51
183.2783508
0
ARC
8
DEFAULT_255_2_778
10
18.7409677
20
7.462013
40
4.4587622
50
181.8808201
51
182.99005
0
ARC
8
DEFAULT_255_2_778
10
15.0803456
20
7.3410317
40
0.7961419
50
180.2391874
51
181.8252361
0
LINE
8
DEFAULT_255_2_778
10
14.2842106
20
7.3377081
11
14.2842106
21
7.8017081
0
ARC
8
DEFAULT_255_2_778
10
376.7741584
20
17.7971765
40
362.6277315
50
181.5061454
51
181.5795005
0
ARC
8
DEFAULT_255_2_778
10
13.1109407
20
6.6887166
40
1.9582146
50
53.6462127
51
55.5452574
0
ARC
8
DEFAULT_255_2_778
10
12.7950036
20
6.3778852
40
2.3947578
50
53.5193294
51
54.8148958
0
ARC
8
DEFAULT_255_2_778
10
13.8320017
20
8.07639
40
0.4295597
50
37.0338394
51
43.0257373
0
ARC
8
DEFAULT_255_2_778
10
10.9143338
20
5.4611335
40
4.347689
50
41.9855467
51
43.1929481
0
ARC
8
DEFAULT_255_2_778
10
6.2444514
20
1.1090478
40
10.731123
50
43.067824
51
43.2872296
0
ARC
8
DEFAULT_255_2_778
10
14.3386788
20
8.7285024
40
0.3852134
50
212.6422488
51
222.7725132
0
ARC
8
DEFAULT_255_2_778
10
14.0830758
20
8.5692831
40
0.084186
50
185.236183
51
215.2284727
0
ARC
8
DEFAULT_255_2_778
10
14.0306941
20
8.5596202
40
0.0315151
50
86.7928358
51
176.398014
0
ARC
8
DEFAULT_255_2_778
10
14.0508317
20
8.4760877
40
0.1164569
50
93.6535595
51
99.0779948
0
ARC
8
DEFAULT_255_2_778
10
15.455275
20
-3.0807631
40
11.7581441
50
96.3735056
51
96.8964567
0
ARC
8
DEFAULT_255_2_778
10
14.2565054
20
7.7218858
40
0.8892223
50
89.9867736
51
96.8783469
0
ARC
8
DEFAULT_255_2_778
10
5.0534477
20
8.372946
40
9.2063439
50
1.48237
51
4.4921387
0
ARC
8
DEFAULT_255_2_778
10
8.2252034
20
8.7804212
40
6.0144878
50
2.9886758
51
7.5455339
0
ARC
8
DEFAULT_255_2_778
10
80.813229
20
18.5199408
40
67.2240339
50
187.5200827
51
187.6506702
0
ARC
8
DEFAULT_255_2_778
10
125.9193811
20
24.4777175
40
112.7219466
50
187.429278
51
187.521773
0
ARC
8
DEFAULT_255_2_778
10
13.5431776
20
9.8598567
40
0.6020457
50
4.0624733
51
23.8426718
0
ARC
8
DEFAULT_255_2_778
10
13.7746479
20
9.9571519
40
0.35103
50
24.5893536
51
44.5952868
0
ARC
8
DEFAULT_255_2_778
10
14.0933023
20
10.2679635
40
0.0941285
50
184.848236
51
223.1332838
0
ARC
8
DEFAULT_255_2_778
10
14.0243687
20
10.2610541
40
0.0248801
50
104.8061763
51
182.4095484
0
ARC
8
DEFAULT_255_2_778
10
14.1264126
20
10.0636393
40
0.2465754
50
90.4187253
51
116.0802887
0
ARC
8
DEFAULT_255_2_778
10
14.2262797
20
11.9062055
40
1.5992325
50
266.3550393
51
269.9921811
0
ARC
8
DEFAULT_255_2_778
10
14.2258487
20
11.8727644
40
1.5657912
50
270.0077852
51
287.4470373
0
ARC
8
DEFAULT_255_2_778
10
17.1302867
20
3.1064285
40
7.6693886
50
104.1839595
51
108.5113709
0
ARC
8
DEFAULT_255_2_778
10
15.414798
20
9.8262395
40
0.734269
50
90.0614405
51
102.8889327
0
ARC
8
DEFAULT_255_2_778
10
15.4059656
20
9.7842632
40
0.7762866
50
68.0363813
51
89.4062099
0
ARC
8
DEFAULT_255_2_778
10
15.2928509
20
9.4294459
40
1.1479955
50
46.7861157
51
69.4241443
0
ARC
8
DEFAULT_255_2_778
10
16.0232094
20
10.2120684
40
0.0776074
50
17.0381963
51
44.1325911
0
ARC
8
DEFAULT_255_2_778
10
15.9880955
20
10.197164
40
0.1156152
50
0.0714342
51
19.0018373
0
ARC
8
DEFAULT_255_2_778
10
19.6554991
20
8.4120834
40
3.9752017
50
153.3146633
51
159.9167574
0
ARC
8
DEFAULT_255_2_778
10
16.5710801
20
9.5223409
40
0.6972786
50
158.5694215
51
180.2565166
0
ARC
8
DEFAULT_255_2_778
10
16.7352734
20
9.5234968
40
0.8614755
50
180.2845064
51
193.2731074
0
ARC
8
DEFAULT_255_2_778
10
15.6366065
20
9.2512388
40
0.2706508
50
3.2055967
51
15.9708879
0
ARC
8
DEFAULT_255_2_778
10
15.7580794
20
9.2612324
40
0.1488433
50
0.0194385
51
1.9793456
0
ARC
8
DEFAULT_255_2_778
10
15.8467898
20
9.254157
40
0.0605536
50
308.4098075
51
6.7581803
0
ARC
8
DEFAULT_255_2_778
10
15.8701045
20
9.2326284
40
0.0296063
50
268.0189356
51
298.895537
0
ARC
8
DEFAULT_255_2_778
10
15.8820828
20
9.3367661
40
0.1343569
50
238.6585519
51
264.4467666
0
ARC
8
DEFAULT_255_2_778
10
16.1053099
20
9.7621924
40
0.6145784
50
234.315224
51
241.5148908
0
ARC
8
DEFAULT_255_2_778
10
16.0895468
20
9.7875443
40
0.626583
50
213.1609252
51
236.8390748
0
ARC
8
DEFAULT_255_2_778
10
16.1376151
20
9.8754042
40
0.7164418
50
200.0305177
51
216.9430072
0
ARC
8
DEFAULT_255_2_778
10
16.1577879
20
9.8871575
40
0.7394317
50
185.1222938
51
200.350752
0
ARC
8
DEFAULT_255_2_778
10
15.9505922
20
9.8619931
40
0.5308573
50
180.0399504
51
184.4137042
0
ARC
8
DEFAULT_255_2_778
10
15.8759456
20
9.8629033
40
0.4562123
50
169.8234039
51
180.1607943
0
LINE
8
DEFAULT_255_2_778
10
15.4269106
20
9.9435081
11
15.4454106
21
10.0753081
0
LINE
8
DEFAULT_255_2_778
10
18.0878106
20
8.0552081
11
18.0815106
21
8.0552081
0
LINE
8
DEFAULT_255_2_778
10
18.0815106
20
8.0552081
11
18.0751106
21
8.0489081
0
ARC
8
DEFAULT_255_2_778
10
82.9466383
20
27.5124553
40
67.7284636
50
196.7009369
51
197.4779195
0
ARC
8
DEFAULT_255_2_778
10
70.4578874
20
22.5932055
40
54.3469971
50
196.4855046
51
197.4602536
0
ARC
8
DEFAULT_255_2_778
10
18.5759806
20
6.2752728
40
0.0405748
50
0.587717
51
16.3696016
0
ARC
8
DEFAULT_255_2_778
10
18.5726017
20
6.2827925
40
0.044522
50
270.1191623
51
350.8191752
0
ARC
8
DEFAULT_255_2_778
10
18.523551
20
6.4496057
40
0.2169737
50
275.9680635
51
283.0907738
0
ARC
8
DEFAULT_255_2_778
10
18.4857824
20
6.6729066
40
0.4432234
50
269.7994099
51
277.8229558
0
ARC
8
DEFAULT_255_2_778
10
18.4925005
20
6.9427587
40
0.7131209
50
257.5870315
51
269.3355452
0
ARC
8
DEFAULT_255_2_778
10
18.6121167
20
7.7834768
40
1.5612064
50
248.8222211
51
259.9327132
0
ARC
8
DEFAULT_255_2_778
10
18.2254099
20
6.7452406
40
0.4536171
50
229.5725163
51
246.9921784
0
ARC
8
DEFAULT_255_2_778
10
18.0345164
20
6.5215528
40
0.1595484
50
200.6417944
51
229.6641425
0
ARC
8
DEFAULT_255_2_778
10
57.13848
20
18.886905
40
41.171777
50
196.455564
51
197.5598425
0
ARC
8
DEFAULT_255_2_778
10
-59.7488314
20
-16.0231892
40
80.8176803
50
16.7173849
51
17.2799894
0
ARC
8
DEFAULT_255_2_778
10
17.4318839
20
10.2082434
40
2.2252614
50
265.6786707
51
269.7226089
0
ARC
8
DEFAULT_255_2_778
10
17.2613405
20
9.8453951
40
1.8560892
50
265.2397651
51
270.0885993
0
ARC
8
DEFAULT_255_2_778
10
-35.8718771
20
4.2285302
40
53.1129548
50
3.0949141
51
4.0672709
0
ARC
8
DEFAULT_255_2_778
10
-41.1576237
20
3.8017484
40
58.4142036
50
2.3462293
51
3.2329998
0
ARC
8
DEFAULT_255_2_778
10
17.1707827
20
6.202724
40
0.0380626
50
262.8788626
51
345.3665199
0
ARC
8
DEFAULT_255_2_778
10
17.1234352
20
6.459355
40
0.2974703
50
269.2825906
51
278.23913
0
ARC
8
DEFAULT_255_2_778
10
17.1241301
20
6.2642023
40
0.1023896
50
249.6421818
51
267.5261391
0
ARC
8
DEFAULT_255_2_778
10
17.1528117
20
7.3203211
40
1.153906
50
253.8221519
51
266.8055545
0
ARC
8
DEFAULT_255_2_778
10
17.1707828
20
7.2590649
40
1.100618
50
240.6194363
51
252.0348898
0
ARC
8
DEFAULT_255_2_778
10
16.7306215
20
6.4779393
40
0.2040141
50
208.8504046
51
240.7096578
0
ARC
8
DEFAULT_255_2_778
10
16.6358725
20
6.4194428
40
0.0929629
50
180.2679092
51
205.4478823
0
ARC
8
DEFAULT_255_2_778
10
-36.4724574
20
4.2521241
40
53.0596328
50
2.3405334
51
3.3034156
0
ARC
8
DEFAULT_255_2_778
10
-130.9283556
20
-1.0004349
40
147.6613867
50
3.2261791
51
3.5723606
0
ARC
8
DEFAULT_255_2_778
10
-17.2275273
20
5.7076862
40
33.7657601
50
4.2333122
51
5.3759394
0
ARC
8
DEFAULT_255_2_778
10
-26.6386617
20
4.8425389
40
43.2165594
50
5.3489073
51
6.2514904
0
ARC
8
DEFAULT_255_2_778
10
24.6487868
20
10.685315
40
8.4051086
50
185.1043845
51
187.7731859
0
ARC
8
DEFAULT_255_2_778
10
15.1804601
20
9.8215013
40
1.1026698
50
6.0389975
51
26.877901
0
ARC
8
DEFAULT_255_2_778
10
16.2132069
20
10.3456947
40
0.0554984
50
180.5023294
51
207.5701575
0
ARC
8
DEFAULT_255_2_778
10
16.1950277
20
10.339905
40
0.037692
50
84.3559575
51
171.9118684
0
ARC
8
DEFAULT_255_2_778
10
16.228624
20
10.1714024
40
0.2081687
50
89.4445394
51
98.255221
0
ARC
8
DEFAULT_255_2_778
10
16.2274696
20
9.9213032
40
0.458269
50
83.819075
51
89.6033439
0
ARC
8
DEFAULT_255_2_778
10
15.7302832
20
3.8887949
40
6.5110909
50
84.1843498
51
85.1850464
0
ARC
8
DEFAULT_255_2_778
10
16.3002558
20
9.408117
40
0.9624537
50
81.0329715
51
84.6473165
0
ARC
8
DEFAULT_255_2_778
10
16.4227542
20
10.2054483
40
0.1558083
50
79.0273963
51
79.8283129
0
ARC
8
DEFAULT_255_2_778
10
15.8933025
20
8.4507532
40
1.9879006
50
69.0107437
51
73.6648457
0
ARC
8
DEFAULT_255_2_778
10
15.3758823
20
7.0520531
40
3.479176
50
68.2394713
51
69.3057932
0
ARC
8
DEFAULT_255_2_778
10
16.574129
20
9.9976766
40
0.2999543
50
29.5717854
51
72.222662
0
ARC
8
DEFAULT_255_2_778
10
15.1159593
20
9.2943505
40
1.9183188
50
24.5966602
51
26.3468458
0
ARC
8
DEFAULT_255_2_778
10
16.7462624
20
10.0190088
40
0.1357591
50
12.679726
51
32.9293549
0
ARC
8
DEFAULT_255_2_778
10
18.1171839
20
7.9375158
40
2.4477277
50
116.3824239
51
120.3956678
0
ARC
8
DEFAULT_255_2_778
10
18.0224106
20
8.3165081
40
2.0677816
50
114.4331768
51
118.6969256
0
ARC
8
DEFAULT_255_2_778
10
15.9323115
20
12.7341072
40
2.8197428
50
295.9707325
51
302.6722785
0
ARC
8
DEFAULT_255_2_778
10
15.4653091
20
13.4900049
40
3.7081699
50
302.4412978
51
303.7286839
0
ARC
8
DEFAULT_255_2_778
10
18.0124523
20
9.7440402
40
0.8224863
50
103.3590498
51
126.4054321
0
ARC
8
DEFAULT_255_2_778
10
17.966344
20
9.8972082
40
0.6628771
50
95.6997072
51
102.540416
0
LINE
8
DEFAULT_255_2_778
10
17.9005106
20
10.5568081
11
17.9693106
21
10.5568081
0
ARC
8
DEFAULT_255_2_778
10
17.9607231
20
9.8264906
40
0.7303679
50
61.6083035
51
89.3263088
0
ARC
8
DEFAULT_255_2_778
10
17.8398868
20
9.5578635
40
1.0243653
50
44.1506987
51
62.8070078
0
ARC
8
DEFAULT_255_2_778
10
17.9943751
20
9.7202487
40
0.8004588
50
36.2003505
51
43.513314
0
ARC
8
DEFAULT_255_2_778
10
18.4366783
20
10.0211137
40
0.2664842
50
1.9342205
51
40.1690818
0
ARC
8
DEFAULT_255_2_778
10
18.4666515
20
10.0317632
40
0.2363649
50
346.6304005
51
359.5988038
0
ARC
8
DEFAULT_255_2_778
10
27.342952
20
7.8315126
40
8.9085801
50
166.0635251
51
167.5545015
0
ARC
8
DEFAULT_255_2_778
10
-4.6869858
20
13.8998355
40
23.696642
50
348.3119765
51
349.9176211
0
ARC
8
DEFAULT_255_2_778
10
13.4369967
20
10.1674857
40
5.1923747
50
340.8691729
51
348.1283242
0
ARC
8
DEFAULT_255_2_778
10
16.2048271
20
9.254106
40
2.2784934
50
333.3976991
51
339.7587774
0
ARC
8
DEFAULT_255_2_778
10
17.8748638
20
8.3927023
40
0.400147
50
300.692444
51
336.6036332
0
LINE
8
DEFAULT_255_2_778
10
16.9903106
20
9.3972081
11
16.9903106
21
9.3533081
0
ARC
8
DEFAULT_255_2_778
10
17.2266697
20
9.3549632
40
0.2363649
50
180.4011962
51
193.3695995
0
ARC
8
DEFAULT_255_2_778
10
3.2767775
20
7.6355331
40
13.8205659
50
5.1932623
51
6.9184408
0
ARC
8
DEFAULT_255_2_778
10
-1.7317914
20
7.2542538
40
18.8432304
50
3.6882907
51
4.9693514
0
ARC
8
DEFAULT_255_2_778
10
14.4755342
20
-14.2163545
40
22.8309326
50
82.3902784
51
83.4688268
0
LINE
8
DEFAULT_255_2_778
10
17.4989106
20
8.4135081
11
17.5552106
21
8.4135081
0
ARC
8
DEFAULT_255_2_778
10
17.5686324
20
8.6186985
40
0.2056289
50
266.2575274
51
346.4176591
0
ARC
8
DEFAULT_255_2_778
10
15.8814996
20
9.0536792
40
1.9479121
50
345.6350711
51
354.8051163
0
ARC
8
DEFAULT_255_2_778
10
19.8021288
20
8.8037176
40
1.9820848
50
168.6201417
51
177.8722419
0
ARC
8
DEFAULT_255_2_778
10
25.9952974
20
7.7516275
40
8.2632882
50
167.5022891
51
169.941728
0
ARC
8
DEFAULT_255_2_778
10
197.8398677
20
-22.4080265
40
182.7266057
50
169.8188472
51
169.9306799
0
ARC
8
DEFAULT_255_2_778
10
19.9424642
20
6.4387634
40
3.9657818
50
119.4852138
51
124.2918194
0
ARC
8
DEFAULT_255_2_778
10
15.6002026
20
12.9957365
40
3.8993772
50
299.4784835
51
302.722828
0
ARC
8
DEFAULT_255_2_778
10
16.3156647
20
11.7441177
40
2.4577254
50
297.8473321
51
299.3171309
0
ARC
8
DEFAULT_255_2_778
10
20.5101835
20
3.8220307
40
6.5062845
50
117.9198153
51
120.1937037
0
ARC
8
DEFAULT_255_2_778
10
17.0385709
20
9.7459197
40
0.3605042
50
270.770488
51
303.5885122
0
ARC
8
DEFAULT_255_2_778
10
17.0436519
20
9.7216486
40
0.3362006
50
261.4228582
51
269.9602499
0
ARC
8
DEFAULT_255_2_778
10
21.0841476
20
6.6851473
40
0.1361677
50
22.9953164
51
49.3176327
0
ARC
8
DEFAULT_255_2_778
10
21.1859929
20
6.7317124
40
0.0244193
50
0.6938337
51
15.7531481
0
ARC
8
DEFAULT_255_2_778
10
21.1726263
20
6.7470338
40
0.0406623
50
279.3187189
51
338.3137443
0
ARC
8
DEFAULT_255_2_778
10
21.0734683
20
6.9165484
40
0.2347988
50
271.2793375
51
296.7663193
0
ARC
8
DEFAULT_255_2_778
10
21.1378227
20
4.5054645
40
2.1771462
50
91.5558386
51
100.055694
0
ARC
8
DEFAULT_255_2_778
10
21.3535443
20
3.2503031
40
3.4506993
50
99.943614
51
105.765536
0
ARC
8
DEFAULT_255_2_778
10
21.5944527
20
2.3415354
40
4.3907616
50
105.5689155
51
106.276908
0
ARC
8
DEFAULT_255_2_778
10
21.0399276
20
4.1962789
40
2.4549688
50
105.986304
51
114.3443719
0
ARC
8
DEFAULT_255_2_778
10
20.6668209
20
5.0100687
40
1.5597421
50
114.180127
51
126.9577665
0
ARC
8
DEFAULT_255_2_778
10
20.4813307
20
5.2743113
40
1.2371156
50
127.4509366
51
128.4761858
0
ARC
8
DEFAULT_255_2_778
10
19.7126261
20
6.2252426
40
0.0175949
50
93.3084763
51
140.187732
0
ARC
8
DEFAULT_255_2_778
10
19.6983609
20
6.2309453
40
0.0056131
50
82.3244465
51
188.5778306
0
LINE
8
DEFAULT_255_2_778
10
19.6928106
20
6.2301081
11
19.6864106
21
6.2301081
0
LINE
8
DEFAULT_255_2_778
10
19.6864106
20
6.2301081
11
19.6864106
21
6.2238081
0
ARC
8
DEFAULT_255_2_778
10
19.6154941
20
6.3492298
40
0.1440825
50
268.3361575
51
299.484875
0
ARC
8
DEFAULT_255_2_778
10
19.625879
20
6.5358007
40
0.3309135
50
245.11536
51
267.4767616
0
ARC
8
DEFAULT_255_2_778
10
19.8815044
20
7.1360358
40
0.9832037
50
236.5924941
51
246.3206914
0
ARC
8
DEFAULT_255_2_778
10
20.2219713
20
7.6871904
40
1.6308656
50
236.2795574
51
237.2686895
0
ARC
8
DEFAULT_255_2_778
10
20.042134
20
7.4658375
40
1.3471833
50
230.0830478
51
237.4151266
0
ARC
8
DEFAULT_255_2_778
10
19.4973294
20
6.8249732
40
0.5061113
50
215.3022198
51
230.8329648
0
ARC
8
DEFAULT_255_2_778
10
19.212853
20
6.6275548
40
0.1598935
50
182.8193453
51
216.4775283
0
ARC
8
DEFAULT_255_2_778
10
19.1564416
20
6.6197045
40
0.1032885
50
176.8344912
51
180.0079535
0
ARC
8
DEFAULT_255_2_778
10
87.655626
20
1.3010259
40
68.8086239
50
175.1743253
51
175.5620405
0
ARC
8
DEFAULT_255_2_778
10
14.977938
20
7.5445993
40
4.1380734
50
353.6860334
51
0.0361208
0
ARC
8
DEFAULT_255_2_778
10
14.1387957
20
7.5471939
40
4.9772149
50
0.0001633
51
4.0452511
0
ARC
8
DEFAULT_255_2_778
10
9.2572824
20
7.2209238
40
9.8696012
50
3.9354979
51
6.055632
0
ARC
8
DEFAULT_255_2_778
10
18.8646107
20
8.0544338
40
0.2933606
50
45.0655237
51
59.0437332
0
ARC
8
DEFAULT_255_2_778
10
18.8012582
20
8.0998319
40
0.2973427
50
43.8995165
51
55.0696956
0
ARC
8
DEFAULT_255_2_778
10
21.1447402
20
10.4819189
40
3.0488194
50
223.6088833
51
224.5359759
0
ARC
8
DEFAULT_255_2_778
10
39.1033839
20
27.6913346
40
27.9220235
50
223.5605156
51
223.7609086
0
ARC
8
DEFAULT_255_2_778
10
68.5351907
20
55.7135034
40
68.5603423
50
223.5443373
51
223.5806745
0
ARC
8
DEFAULT_255_2_778
10
19.2064775
20
8.7956288
40
0.4830166
50
209.8070607
51
220.6134379
0
ARC
8
DEFAULT_255_2_778
10
18.8746404
20
8.6048049
40
0.1002272
50
193.3232227
51
209.4475835
0
ARC
8
DEFAULT_255_2_778
10
18.8116109
20
8.5802823
40
0.0345298
50
74.203627
51
177.6335313
0
ARC
8
DEFAULT_255_2_778
10
19.4374215
20
4.2947818
40
4.3624946
50
96.8750574
51
98.1229513
0
ARC
8
DEFAULT_255_2_778
10
19.0312556
20
7.5777249
40
1.0545873
50
89.8394532
51
96.3175225
0
ARC
8
DEFAULT_255_2_778
10
8.2495058
20
7.7678984
40
10.8192912
50
4.5825432
51
7.9232958
0
ARC
8
DEFAULT_255_2_778
10
-39.5077869
20
2.2606994
40
58.8906364
50
6.825205
51
7.4154564
0
ARC
8
DEFAULT_255_2_778
10
17.0561977
20
9.5665103
40
1.8576534
50
9.1310794
51
11.7653732
0
ARC
8
DEFAULT_255_2_778
10
12.540379
20
8.6516675
40
6.4651877
50
11.5422864
51
12.4939463
0
ARC
8
DEFAULT_255_2_778
10
4.7178338
20
6.9260593
40
14.4758002
50
12.4640318
51
13.0195082
0
ARC
8
DEFAULT_255_2_778
10
19.6186189
20
10.3639595
40
0.8164697
50
185.8238348
51
192.5025172
0
ARC
8
DEFAULT_255_2_778
10
19.3156504
20
10.3315201
40
0.5117755
50
180.1730073
51
185.6525752
0
ARC
8
DEFAULT_255_2_778
10
19.0601844
20
10.3382615
40
0.256441
50
157.9571944
51
181.8518002
0
ARC
8
DEFAULT_255_2_778
10
18.9396958
20
10.3848199
40
0.1273033
50
120.8526992
51
157.0281384
0
ARC
8
DEFAULT_255_2_778
10
18.9157868
20
10.4241332
40
0.0812926
50
86.9171311
51
120.5958481
0
ARC
8
DEFAULT_255_2_778
10
18.9119252
20
10.2259668
40
0.2794626
50
73.3807631
51
88.3117046
0
ARC
8
DEFAULT_255_2_778
10
18.8451545
20
9.9594311
40
0.5540968
50
72.4744115
51
74.64761
0
ARC
8
DEFAULT_255_2_778
10
37.8040871
20
74.6678775
40
66.8746846
50
253.6798441
51
253.7610662
0
ARC
8
DEFAULT_255_2_778
10
24.3576057
20
28.4864389
40
18.7754844
50
253.7478709
51
253.9378625
0
ARC
8
DEFAULT_255_2_778
10
19.3245868
20
11.6031069
40
1.170433
50
262.0551927
51
270.0946231
0
ARC
8
DEFAULT_255_2_778
10
19.3254524
20
11.7644957
40
1.3318205
50
270.0459217
51
274.8826528
0
ARC
8
DEFAULT_255_2_778
10
-6.1856805
20
292.5079458
40
283.2319657
50
275.190747
51
275.2467919
0
ARC
8
DEFAULT_255_2_778
10
18.6225235
20
19.5419263
40
9.1446747
50
276.8594512
51
279.360147
0
ARC
8
DEFAULT_255_2_778
10
13.0078487
20
51.797225
40
41.8847115
50
279.762224
51
280.3024786
0
LINE
8
DEFAULT_255_2_778
10
20.4987106
20
10.5878081
11
20.5172106
21
10.5878081
0
ARC
8
DEFAULT_255_2_778
10
20.5019639
20
10.3658168
40
0.2225142
50
62.9608943
51
86.0709995
0
ARC
8
DEFAULT_255_2_778
10
20.2106754
20
9.7310229
40
0.9208031
50
56.2300096
51
64.7735712
0
ARC
8
DEFAULT_255_2_778
10
19.6093865
20
8.7924119
40
2.0353979
50
54.2172624
51
56.8464904
0
ARC
8
DEFAULT_255_2_778
10
19.9730422
20
9.3268636
40
1.3893049
50
48.3465122
51
53.4959887
0
ARC
8
DEFAULT_255_2_778
10
20.6118884
20
10.0370167
40
0.4341348
50
37.388045
51
49.0522157
0
ARC
8
DEFAULT_255_2_778
10
20.8930418
20
10.2466562
40
0.0835549
50
5.9807995
51
40.2363066
0
ARC
8
DEFAULT_255_2_778
10
20.94683
20
10.2550749
40
0.0293134
50
302.3390348
51
0.5615369
0
ARC
8
DEFAULT_255_2_778
10
21.4155163
20
9.6315638
40
0.7508055
50
127.110888
51
151.5142021
0
ARC
8
DEFAULT_255_2_778
10
21.299775
20
9.7061765
40
0.6135783
50
152.4833478
51
177.8955345
0
ARC
8
DEFAULT_255_2_778
10
22.7552239
20
9.5935889
40
2.0730215
50
176.2628211
51
178.8386729
0
ARC
8
DEFAULT_255_2_778
10
22.2603178
20
9.6056969
40
1.5779729
50
178.9140125
51
179.9870511
0
ARC
8
DEFAULT_255_2_778
10
21.6414946
20
9.5971235
40
0.9591914
50
179.4665758
51
187.4009314
0
ARC
8
DEFAULT_255_2_778
10
21.0255557
20
9.5118242
40
0.3374372
50
186.5097002
51
203.8332099
0
ARC
8
DEFAULT_255_2_778
10
20.8493842
20
9.4385128
40
0.1467234
50
205.4449498
51
215.885634
0
ARC
8
DEFAULT_255_2_778
10
20.6820893
20
9.4141304
40
0.0783705
50
266.5779079
51
308.159405
0
ARC
8
DEFAULT_255_2_778
10
20.6694416
20
9.5515237
40
0.2157712
50
269.968675
51
272.1167391
0
ARC
8
DEFAULT_255_2_778
10
20.6734053
20
9.7029764
40
0.3672467
50
261.2456041
51
269.3631947
0
ARC
8
DEFAULT_255_2_778
10
20.6591529
20
9.5326842
40
0.1971248
50
225.9011144
51
257.8044708
0
ARC
8
DEFAULT_255_2_778
10
21.0009681
20
9.9254527
40
0.7175973
50
216.4800227
51
228.1258094
0
ARC
8
DEFAULT_255_2_778
10
21.4671209
20
10.2963643
40
1.3131061
50
215.9639696
51
217.4002579
0
ARC
8
DEFAULT_255_2_778
10
21.0664254
20
9.9812607
40
0.8039776
50
198.4737395
51
214.558363
0
ARC
8
DEFAULT_255_2_778
10
21.4167531
20
10.117752
40
1.1796469
50
198.4301759
51
199.3698698
0
ARC
8
DEFAULT_255_2_778
10
21.2447859
20
10.0705872
40
1.0016352
50
183.1980707
51
198.9805568
0
ARC
8
DEFAULT_255_2_778
10
19.3765351
20
13.4687975
40
3.5615253
50
278.4471162
51
284.1088667
0
ARC
8
DEFAULT_255_2_778
10
19.7253854
20
11.5837893
40
1.6471321
50
270.0626222
51
276.0753127
0
ARC
8
DEFAULT_255_2_778
10
19.7258108
20
11.4092566
40
1.4725991
50
263.5745072
51
270.0534925
0
ARC
8
DEFAULT_255_2_778
10
15.7918956
20
9.3560336
40
3.8149941
50
6.7104645
51
8.8947606
0
ARC
8
DEFAULT_255_2_778
10
10.5891638
20
8.7261654
40
9.0557022
50
5.8006655
51
6.8218385
0
ARC
8
DEFAULT_255_2_778
10
2.9461355
20
7.9439285
40
16.7386546
50
5.1426448
51
5.8204059
0
ARC
8
DEFAULT_255_2_778
10
-19.8326772
20
5.8284218
40
39.6154523
50
4.7110729
51
5.2369407
0
ARC
8
DEFAULT_255_2_778
10
-32.1000836
20
4.8155244
40
51.9246042
50
4.2741545
51
4.7132131
0
ARC
8
DEFAULT_255_2_778
10
25.2543293
20
-58.8825646
40
67.7975136
50
94.5353396
51
94.7161041
0
ARC
8
DEFAULT_255_2_778
10
23.5701781
20
-37.632118
40
46.480435
50
94.3044795
51
94.5371634
0
ARC
8
DEFAULT_255_2_778
10
20.4262781
20
3.7726774
40
4.956536
50
92.7653342
51
93.988609
0
ARC
8
DEFAULT_255_2_778
10
20.2702917
20
7.0841117
40
1.641437
50
90.3423872
51
92.9034555
0
ARC
8
DEFAULT_255_2_778
10
20.2641831
20
8.341129
40
0.3844083
50
85.5685248
51
90.5515199
0
ARC
8
DEFAULT_255_2_778
10
20.2843687
20
8.6161485
40
0.1086571
50
81.1365226
51
84.9754654
0
ARC
8
DEFAULT_255_2_778
10
20.2786024
20
8.2896865
40
0.4344051
50
80.9506581
51
87.0299542
0
ARC
8
DEFAULT_255_2_778
10
20.0811827
20
6.7938765
40
1.9430664
50
81.8270972
51
82.1392588
0
ARC
8
DEFAULT_255_2_778
10
20.3446019
20
8.5239499
40
0.1936822
50
66.556417
51
86.2080977
0
ARC
8
DEFAULT_255_2_778
10
20.4034894
20
8.6684715
40
0.0378219
50
53.0770229
51
61.2911145
0
ARC
8
DEFAULT_255_2_778
10
23.5566239
20
12.7919032
40
5.1530315
50
232.5917908
51
234.5246126
0
ARC
8
DEFAULT_255_2_778
10
25.8894749
20
16.0330762
40
9.1464258
50
234.4070516
51
234.9220378
0
ARC
8
DEFAULT_255_2_778
10
20.508709
20
8.3738975
40
0.2139053
50
39.573236
51
54.4387055
0
ARC
8
DEFAULT_255_2_778
10
20.6314712
20
8.4727819
40
0.0563181
50
3.9580751
51
41.5943864
0
ARC
8
DEFAULT_255_2_778
10
20.6399681
20
8.4820084
40
0.0479849
50
289.5865183
51
353.6116794
0
ARC
8
DEFAULT_255_2_778
10
20.544949
20
8.6627233
40
0.2517651
50
281.6086479
51
296.1871542
0
ARC
8
DEFAULT_255_2_778
10
20.0574867
20
10.451034
40
2.1048755
50
283.4720227
51
284.8124563
0
ARC
8
DEFAULT_255_2_778
10
18.3577901
20
17.4984374
40
9.3543467
50
282.8907021
51
283.5399498
0
ARC
8
DEFAULT_255_2_778
10
14.2194874
20
35.5004373
40
27.8258774
50
282.6255075
51
282.9275718
0
ARC
8
DEFAULT_255_2_778
10
9.6972482
20
55.6176393
40
48.4450995
50
282.5747837
51
282.644097
0
ARC
8
DEFAULT_255_2_778
10
12.4467982
20
40.2777406
40
32.881096
50
282.8767549
51
283.7181417
0
ARC
8
DEFAULT_255_2_778
10
13.7164128
20
34.7722696
40
27.2311409
50
282.7177618
51
282.8541023
0
ARC
8
DEFAULT_255_2_778
10
791.0612835
20
61.2449258
40
773.1711117
50
183.933296
51
183.9603195
0
ARC
8
DEFAULT_255_2_778
10
178.9972515
20
13.443002
40
159.3591807
50
182.0129652
51
182.1370875
0
ARC
8
DEFAULT_255_2_778
10
24.2927878
20
7.6873703
40
4.5477219
50
182.3561614
51
185.6820672
0
ARC
8
DEFAULT_255_2_778
10
14.6554253
20
6.9645656
40
5.1192454
50
1.3237675
51
3.0518014
0
ARC
8
DEFAULT_255_2_778
10
17.4675044
20
7.034465
40
2.3063072
50
0.0532418
51
1.2016407
0
LINE
8
DEFAULT_255_2_778
10
19.7738106
20
7.0366081
11
19.7738106
21
6.9360081
0
LINE
8
DEFAULT_255_2_778
10
19.7738106
20
6.9360081
11
19.7738106
21
6.8355081
0
ARC
8
DEFAULT_255_2_778
10
20.389935
20
4.7923949
40
2.1339917
50
96.971765
51
106.7812914
0
ARC
8
DEFAULT_255_2_778
10
20.8692085
20
1.6122779
40
5.3495221
50
94.0851899
51
97.932822
0
ARC
8
DEFAULT_255_2_778
10
21.2918618
20
7.4202027
40
0.9320916
50
200.5898826
51
210.4231474
0
ARC
8
DEFAULT_255_2_778
10
20.9266677
20
7.2541382
40
0.5325109
50
179.1854891
51
197.6807139
0
ARC
8
DEFAULT_255_2_778
10
22.8615394
20
7.2691546
40
2.46734
50
175.8686867
51
180.172921
0
ARC
8
DEFAULT_255_2_778
10
19.9191963
20
7.4587789
40
0.4815606
50
358.5874752
51
15.288995
0
ARC
8
DEFAULT_255_2_778
10
20.1327547
20
7.5087943
40
0.2624959
50
17.0501861
51
18.2751899
0
ARC
8
DEFAULT_255_2_778
10
7.5919339
20
-7.7658778
40
19.9855718
50
50.2107517
51
50.4003526
0
ARC
8
DEFAULT_255_2_778
10
17.7709849
20
4.5332473
40
4.0205632
50
50.4492967
51
50.4864587
0
ARC
8
DEFAULT_255_2_778
10
20.3320012
20
7.6409771
40
0.0066321
50
188.7541226
51
244.1608896
0
ARC
8
DEFAULT_255_2_778
10
20.3420027
20
7.6315432
40
0.0185765
50
94.7563228
51
153.0312944
0
ARC
8
DEFAULT_255_2_778
10
20.4327744
20
7.3454678
40
0.3182693
50
98.5401526
51
106.8605768
0
ARC
8
DEFAULT_255_2_778
10
20.6788309
20
3.9328381
40
3.7388934
50
91.2340575
51
94.4995406
0
ARC
8
DEFAULT_255_2_778
10
20.7451317
20
1.4956094
40
6.1770002
50
89.9612375
51
91.36202
0
ARC
8
DEFAULT_255_2_778
10
20.7611481
20
7.3992324
40
0.2736318
50
64.3735246
51
92.4794303
0
ARC
8
DEFAULT_255_2_778
10
20.8035396
20
7.5125007
40
0.1535489
50
354.5385923
51
60.3524844
0
ARC
8
DEFAULT_255_2_778
10
20.6481164
20
7.4979649
40
0.3082751
50
358.0375448
51
359.9854564
0
ARC
8
DEFAULT_255_2_778
10
21.9537647
20
7.4998452
40
0.9976316
50
180.7143037
51
185.9446889
0
ARC
8
DEFAULT_255_2_778
10
24.087252
20
7.7069112
40
3.141127
50
185.6709113
51
188.2015262
0
ARC
8
DEFAULT_255_2_778
10
27.2276666
20
8.1434393
40
6.311716
50
188.0568885
51
189.0088353
0
ARC
8
DEFAULT_255_2_778
10
21.7158068
20
7.2554145
40
0.7289306
50
187.9094334
51
209.1504375
0
ARC
8
DEFAULT_255_2_778
10
21.5274267
20
7.1586162
40
0.5173095
50
209.9504134
51
226.2055496
0
ARC
8
DEFAULT_255_2_778
10
23.4797984
20
6.6850134
40
0.1361712
50
23.055952
51
49.4024886
0
ARC
8
DEFAULT_255_2_778
10
23.5816524
20
6.7317121
40
0.0243598
50
0.6961984
51
15.7933248
0
ARC
8
DEFAULT_255_2_778
10
23.5680648
20
6.7472346
40
0.0408868
50
279.4965391
51
338.1359241
0
ARC
8
DEFAULT_255_2_778
10
23.4689141
20
6.9171872
40
0.2354387
50
271.2890571
51
296.7298198
0
ARC
8
DEFAULT_255_2_778
10
23.5333227
20
4.5054645
40
2.1771462
50
91.5558386
51
100.055694
0
ARC
8
DEFAULT_255_2_778
10
23.7490443
20
3.2503031
40
3.4506993
50
99.943614
51
105.765536
0
ARC
8
DEFAULT_255_2_778
10
23.9899527
20
2.3415354
40
4.3907616
50
105.5689155
51
106.276908
0
ARC
8
DEFAULT_255_2_778
10
23.4357618
20
4.1957759
40
2.4555444
50
105.9905687
51
114.3455855
0
ARC
8
DEFAULT_255_2_778
10
23.062841
20
5.0090708
40
1.5608452
50
114.1808774
51
126.9631676
0
ARC
8
DEFAULT_255_2_778
10
22.8776759
20
5.2728488
40
1.2387865
50
127.4561739
51
128.4647009
0
ARC
8
DEFAULT_255_2_778
10
22.1081931
20
6.2253244
40
0.0175172
50
93.542742
51
140.3242734
0
ARC
8
DEFAULT_255_2_778
10
22.0939106
20
6.2309081
40
0.0056569
50
81.8698976
51
188.1301024
0
LINE
8
DEFAULT_255_2_778
10
22.0883106
20
6.2301081
11
22.0820106
21
6.2301081
0
LINE
8
DEFAULT_255_2_778
10
22.0820106
20
6.2301081
11
22.0820106
21
6.2238081
0
ARC
8
DEFAULT_255_2_778
10
22.0105346
20
6.351469
40
0.1463084
50
268.5414796
51
299.2439909
0
ARC
8
DEFAULT_255_2_778
10
22.021379
20
6.5358007
40
0.3309135
50
245.11536
51
267.4767616
0
ARC
8
DEFAULT_255_2_778
10
22.2770044
20
7.1360358
40
0.9832037
50
236.5924941
51
246.3206914
0
ARC
8
DEFAULT_255_2_778
10
22.6174713
20
7.6871904
40
1.6308656
50
236.2795574
51
237.2686895
0
ARC
8
DEFAULT_255_2_778
10
22.437634
20
7.4658375
40
1.3471833
50
230.0830478
51
237.4151266
0
ARC
8
DEFAULT_255_2_778
10
21.8928294
20
6.8249732
40
0.5061113
50
215.3022198
51
230.8329648
0
ARC
8
DEFAULT_255_2_778
10
21.608353
20
6.6275548
40
0.1598935
50
182.8193453
51
216.4775283
0
ARC
8
DEFAULT_255_2_778
10
21.5519416
20
6.6197045
40
0.1032885
50
176.8344912
51
180.0079535
0
ARC
8
DEFAULT_255_2_778
10
99.9885808
20
0.4959229
40
78.778589
50
175.1988594
51
175.5375064
0
ARC
8
DEFAULT_255_2_778
10
17.373438
20
7.5445993
40
4.1380734
50
353.6860334
51
0.0361208
0
ARC
8
DEFAULT_255_2_778
10
16.5342957
20
7.5471939
40
4.9772149
50
0.0001633
51
4.0452511
0
ARC
8
DEFAULT_255_2_778
10
11.0403953
20
7.1845918
40
10.4830395
50
3.9038857
51
5.8996596
0
ARC
8
DEFAULT_255_2_778
10
21.2591621
20
8.0521005
40
0.2961066
50
45.1722651
51
59.0355815
0
ARC
8
DEFAULT_255_2_778
10
21.1992651
20
8.102628
40
0.2939585
50
43.7780539
51
55.0623636
0
ARC
8
DEFAULT_255_2_778
10
23.5798531
20
10.5209056
40
3.1039718
50
223.6330141
51
224.5438793
0
ARC
8
DEFAULT_255_2_778
10
41.8837958
20
28.0740396
40
28.4642998
50
223.5855521
51
223.7822034
0
ARC
8
DEFAULT_255_2_778
10
71.8939155
20
56.6711932
40
69.9179395
50
223.5696894
51
223.6053357
0
ARC
8
DEFAULT_255_2_778
10
21.5971159
20
8.7912633
40
0.4761048
50
209.4872211
51
220.6346442
0
ARC
8
DEFAULT_255_2_778
10
21.268663
20
8.6043477
40
0.0981978
50
193.3295211
51
208.8865855
0
ARC
8
DEFAULT_255_2_778
10
21.2076699
20
8.5802305
40
0.0345908
50
74.1615437
51
177.5517883
0
ARC
8
DEFAULT_255_2_778
10
21.8335215
20
4.2947818
40
4.3624946
50
96.8750574
51
98.1229513
0
ARC
8
DEFAULT_255_2_778
10
21.4273556
20
7.5777249
40
1.0545873
50
89.8394532
51
96.3175225
0
ARC
8
DEFAULT_255_2_778
10
10.7030087
20
7.7724881
40
10.7617051
50
4.5826029
51
7.9412951
0
ARC
8
DEFAULT_255_2_778
10
-39.1095114
20
2.0211823
40
60.902668
50
6.8255894
51
7.396329
0
ARC
8
DEFAULT_255_2_778
10
19.4125829
20
9.5581467
40
1.8981932
50
9.1900923
51
11.7683729
0
ARC
8
DEFAULT_255_2_778
10
14.7982617
20
8.6224985
40
6.6064005
50
11.5503737
51
12.4816842
0
ARC
8
DEFAULT_255_2_778
10
6.812971
20
6.8625385
40
14.7833376
50
12.4527039
51
12.996588
0
ARC
8
DEFAULT_255_2_778
10
22.0147189
20
10.3639595
40
0.8164697
50
185.8238348
51
192.5025172
0
ARC
8
DEFAULT_255_2_778
10
21.7117504
20
10.3315201
40
0.5117755
50
180.1730073
51
185.6525752
0
ARC
8
DEFAULT_255_2_778
10
21.4562844
20
10.3382615
40
0.256441
50
157.9571944
51
181.8518002
0
ARC
8
DEFAULT_255_2_778
10
21.3357958
20
10.3848199
40
0.1273033
50
120.8526992
51
157.0281384
0
ARC
8
DEFAULT_255_2_778
10
21.3118868
20
10.4241332
40
0.0812926
50
86.9171311
51
120.5958481
0
ARC
8
DEFAULT_255_2_778
10
21.3080252
20
10.2259668
40
0.2794626
50
73.3807631
51
88.3117046
0
ARC
8
DEFAULT_255_2_778
10
21.2412545
20
9.9594311
40
0.5540968
50
72.4744115
51
74.64761
0
ARC
8
DEFAULT_255_2_778
10
40.2001871
20
74.6678775
40
66.8746846
50
253.6798441
51
253.7610662
0
ARC
8
DEFAULT_255_2_778
10
26.7537057
20
28.4864389
40
18.7754844
50
253.7478709
51
253.9378625
0
ARC
8
DEFAULT_255_2_778
10
21.7206868
20
11.6031069
40
1.170433
50
262.0551927
51
270.0946231
0
ARC
8
DEFAULT_255_2_778
10
21.7215524
20
11.7644957
40
1.3318205
50
270.0459217
51
274.8826528
0
ARC
8
DEFAULT_255_2_778
10
-7.7847096
20
336.2482679
40
327.1543567
50
275.1945092
51
275.2430297
0
ARC
8
DEFAULT_255_2_778
10
21.0168865
20
19.5514713
40
9.1543589
50
276.8631098
51
279.36054
0
ARC
8
DEFAULT_255_2_778
10
15.4741731
20
51.4104936
40
41.4916559
50
279.7570704
51
280.302579
0
LINE
8
DEFAULT_255_2_778
10
22.8948106
20
10.5878081
11
22.9133106
21
10.5878081
0
ARC
8
DEFAULT_255_2_778
10
22.8980639
20
10.3658168
40
0.2225142
50
62.9608943
51
86.0709995
0
ARC
8
DEFAULT_255_2_778
10
22.6067754
20
9.7310229
40
0.9208031
50
56.2300096
51
64.7735712
0
ARC
8
DEFAULT_255_2_778
10
22.0054865
20
8.7924119
40
2.0353979
50
54.2172624
51
56.8464904
0
ARC
8
DEFAULT_255_2_778
10
22.3691422
20
9.3268636
40
1.3893049
50
48.3465122
51
53.4959887
0
ARC
8
DEFAULT_255_2_778
10
23.0079884
20
10.0370167
40
0.4341348
50
37.388045
51
49.0522157
0
ARC
8
DEFAULT_255_2_778
10
23.2891418
20
10.2466562
40
0.0835549
50
5.9807995
51
40.2363066
0
ARC
8
DEFAULT_255_2_778
10
23.34293
20
10.2550749
40
0.0293134
50
302.3390348
51
0.5615369
0
ARC
8
DEFAULT_255_2_778
10
23.8115338
20
9.6314229
40
0.7508681
50
127.0993862
51
151.5045676
0
ARC
8
DEFAULT_255_2_778
10
23.6955781
20
9.7061815
40
0.6133812
50
152.4742815
51
177.8953239
0
ARC
8
DEFAULT_255_2_778
10
25.1514543
20
9.59428
40
2.0732065
50
176.2822965
51
178.8605141
0
ARC
8
DEFAULT_255_2_778
10
24.6588489
20
9.6061754
40
1.5804634
50
178.9365287
51
179.9875954
0
ARC
8
DEFAULT_255_2_778
10
24.0400838
20
9.5975657
40
0.9617402
50
179.4666851
51
187.3955965
0
ARC
8
DEFAULT_255_2_778
10
23.422226
20
9.5120608
40
0.3380571
50
186.5035076
51
203.8247493
0
ARC
8
DEFAULT_255_2_778
10
23.2455746
20
9.4385761
40
0.1468337
50
205.438025
51
215.8849472
0
ARC
8
DEFAULT_255_2_778
10
23.0781893
20
9.4141304
40
0.0783705
50
266.5779079
51
308.159405
0
ARC
8
DEFAULT_255_2_778
10
23.0655416
20
9.5515237
40
0.2157712
50
269.968675
51
272.1167391
0
ARC
8
DEFAULT_255_2_778
10
23.0695053
20
9.7029764
40
0.3672467
50
261.2456041
51
269.3631947
0
ARC
8
DEFAULT_255_2_778
10
23.0552152
20
9.5328132
40
0.1972429
50
225.9195803
51
257.8231072
0
ARC
8
DEFAULT_255_2_778
10
23.3964358
20
9.9250797
40
0.7169469
50
216.4813751
51
228.1391223
0
ARC
8
DEFAULT_255_2_778
10
23.8622796
20
10.2957613
40
1.3120711
50
215.9642332
51
217.401671
0
ARC
8
DEFAULT_255_2_778
10
23.4643321
20
9.9818353
40
0.805874
50
198.4717687
51
214.5151065
0
ARC
8
DEFAULT_255_2_778
10
23.8182175
20
10.1195643
40
1.1853092
50
198.4313041
51
199.3665012
0
ARC
8
DEFAULT_255_2_778
10
23.6408859
20
10.0705872
40
1.0016352
50
183.1980707
51
198.9805568
0
ARC
8
DEFAULT_255_2_778
10
21.7726351
20
13.4687975
40
3.5615253
50
278.4471162
51
284.1088667
0
ARC
8
DEFAULT_255_2_778
10
22.1214854
20
11.5837893
40
1.6471321
50
270.0626222
51
276.0753127
0
ARC
8
DEFAULT_255_2_778
10
22.1219108
20
11.4092566
40
1.4725991
50
263.5745072
51
270.0534925
0
ARC
8
DEFAULT_255_2_778
10
18.1372299
20
9.3503296
40
3.8660319
50
6.7065854
51
8.8619477
0
ARC
8
DEFAULT_255_2_778
10
12.8639709
20
8.7125393
40
9.1777084
50
5.8087927
51
6.8163929
0
ARC
8
DEFAULT_255_2_778
10
5.1227031
20
7.9191976
40
16.9595206
50
5.1593793
51
5.8283275
0
ARC
8
DEFAULT_255_2_778
10
-17.4365772
20
5.8284218
40
39.6154523
50
4.7110729
51
5.2369407
0
ARC
8
DEFAULT_255_2_778
10
-29.7039836
20
4.8155244
40
51.9246042
50
4.2741545
51
4.7132131
0
ARC
8
DEFAULT_255_2_778
10
27.6214345
20
-58.5010221
40
67.414879
50
94.5364792
51
94.7182061
0
ARC
8
DEFAULT_255_2_778
10
25.9488359
20
-37.401513
40
46.2491787
50
94.3044982
51
94.5383147
0
ARC
8
DEFAULT_255_2_778
10
22.8226586
20
3.7645235
40
4.9646966
50
92.7646675
51
93.9864449
0
ARC
8
DEFAULT_255_2_778
10
22.6663526
20
7.0835396
40
1.6420092
50
90.3428489
51
92.903012
0
ARC
8
DEFAULT_255_2_778
10
22.6602313
20
8.3420082
40
0.3835291
50
85.5632952
51
90.553375
0
ARC
8
DEFAULT_255_2_778
10
22.6804244
20
8.6167669
40
0.1080375
50
81.1152028
51
84.9681995
0
ARC
8
DEFAULT_255_2_778
10
22.6747874
20
8.2900501
40
0.4340324
50
80.9543872
51
87.0518499
0
ARC
8
DEFAULT_255_2_778
10
22.4794209
20
6.8087724
40
1.9280178
50
81.8270633
51
82.1417074
0
ARC
8
DEFAULT_255_2_778
10
22.7407019
20
8.5239499
40
0.1936822
50
66.556417
51
86.2080977
0
ARC
8
DEFAULT_255_2_778
10
22.7995894
20
8.6684715
40
0.0378219
50
53.0770229
51
61.2911145
0
ARC
8
DEFAULT_255_2_778
10
25.9527239
20
12.7919032
40
5.1530315
50
232.5917908
51
234.5246126
0
ARC
8
DEFAULT_255_2_778
10
28.2855749
20
16.0330762
40
9.1464258
50
234.4070516
51
234.9220378
0
ARC
8
DEFAULT_255_2_778
10
22.9048633
20
8.3739729
40
0.2138123
50
39.5718475
51
54.4388004
0
ARC
8
DEFAULT_255_2_778
10
23.0275669
20
8.472805
40
0.0563035
50
3.956862
51
41.5925959
0
ARC
8
DEFAULT_255_2_778
10
23.0360298
20
8.4820393
40
0.0480053
50
289.5672488
51
353.6025116
0
ARC
8
DEFAULT_255_2_778
10
22.9409208
20
8.6630206
40
0.2520621
50
281.6013224
51
296.1745734
0
ARC
8
DEFAULT_255_2_778
10
22.4524126
20
10.4550439
40
2.1090268
50
283.4751852
51
284.8128156
0
ARC
8
DEFAULT_255_2_778
10
20.7500596
20
17.5120036
40
9.3684108
50
282.894632
51
283.5427433
0
ARC
8
DEFAULT_255_2_778
10
16.6065843
20
35.5310972
40
27.8577595
50
282.6297534
51
282.9313785
0
ARC
8
DEFAULT_255_2_778
10
12.098692
20
55.5771822
40
48.4044496
50
282.579036
51
282.6483845
0
ARC
8
DEFAULT_255_2_778
10
14.8428982
20
40.2777406
40
32.881096
50
282.8767549
51
283.7181417
0
ARC
8
DEFAULT_255_2_778
10
16.1125128
20
34.7722696
40
27.2311409
50
282.7177618
51
282.8541023
0
ARC
8
DEFAULT_255_2_778
10
254.4397642
20
24.0559696
40
232.8721588
50
183.9019467
51
183.9916688
0
ARC
8
DEFAULT_255_2_778
10
181.3933515
20
13.443002
40
159.3591807
50
182.0129652
51
182.1370875
0
ARC
8
DEFAULT_255_2_778
10
26.6888878
20
7.6873703
40
4.5477219
50
182.3561614
51
185.6820672
0
ARC
8
DEFAULT_255_2_778
10
16.9706783
20
6.9645839
40
5.1999786
50
1.3030099
51
3.0041745
0
ARC
8
DEFAULT_255_2_778
10
19.8284375
20
7.034476
40
2.3413742
50
0.0521755
51
1.1833721
0
LINE
8
DEFAULT_255_2_778
10
22.1698106
20
7.0366081
11
22.1698106
21
6.9360081
0
LINE
8
DEFAULT_255_2_778
10
22.1698106
20
6.9360081
11
22.1698106
21
6.8355081
0
ARC
8
DEFAULT_255_2_778
10
22.7863916
20
4.7898783
40
2.136533
50
96.9730658
51
106.7735296
0
ARC
8
DEFAULT_255_2_778
10
23.2653085
20
1.6122779
40
5.3495221
50
94.0851899
51
97.932822
0
ARC
8
DEFAULT_255_2_778
10
23.6770348
20
7.4149892
40
0.9200298
50
200.5252624
51
210.4877676
0
ARC
8
DEFAULT_255_2_778
10
23.3227677
20
7.2541382
40
0.5325109
50
179.1854891
51
197.6807139
0
ARC
8
DEFAULT_255_2_778
10
25.296633
20
7.269157
40
2.5063334
50
175.9331248
51
180.1702848
0
ARC
8
DEFAULT_255_2_778
10
22.3127439
20
7.4587852
40
0.4840124
50
358.593889
51
15.208893
0
ARC
8
DEFAULT_255_2_778
10
22.5270258
20
7.5086374
40
0.264282
50
16.9670336
51
18.1831568
0
ARC
8
DEFAULT_255_2_778
10
347.3329284
20
398.7372834
40
508.262885
50
230.3082418
51
230.3156982
0
ARC
8
DEFAULT_255_2_778
10
-130.8345493
20
-177.3640717
40
240.4272435
50
50.3047778
51
50.3053971
0
ARC
8
DEFAULT_255_2_778
10
22.7281047
20
7.6409838
40
0.0066396
50
188.7556483
51
244.1588252
0
ARC
8
DEFAULT_255_2_778
10
22.7380818
20
7.6315728
40
0.0185504
50
94.7847871
51
153.0741383
0
ARC
8
DEFAULT_255_2_778
10
22.828706
20
7.3463433
40
0.3173933
50
98.5514065
51
106.8820065
0
ARC
8
DEFAULT_255_2_778
10
23.0748309
20
3.9328381
40
3.7388934
50
91.2340575
51
94.4995406
0
ARC
8
DEFAULT_255_2_778
10
23.1411317
20
1.4956094
40
6.1770002
50
89.9612375
51
91.36202
0
ARC
8
DEFAULT_255_2_778
10
23.1571511
20
7.3990144
40
0.2738498
50
64.3952783
51
92.4780761
0
ARC
8
DEFAULT_255_2_778
10
23.199712
20
7.5126228
40
0.1533797
50
354.5446266
51
60.3891118
0
ARC
8
DEFAULT_255_2_778
10
23.0444471
20
7.4981215
40
0.30795
50
358.0063136
51
359.9850097
0
ARC
8
DEFAULT_255_2_778
10
24.3497647
20
7.4998452
40
0.9976316
50
180.7143037
51
185.9446889
0
ARC
8
DEFAULT_255_2_778
10
26.483252
20
7.7069112
40
3.141127
50
185.6709113
51
188.2015262
0
ARC
8
DEFAULT_255_2_778
10
29.6236666
20
8.1434393
40
6.311716
50
188.0568885
51
189.0088353
0
ARC
8
DEFAULT_255_2_778
10
24.1123144
20
7.2557987
40
0.7294863
50
187.9338347
51
209.1606465
0
ARC
8
DEFAULT_255_2_778
10
23.9237615
20
7.1588562
40
0.5176452
50
209.959665
51
226.205178
0
ARC
8
DEFAULT_255_2_778
10
13.2130964
20
1.2511448
40
0.4408249
50
300.5825791
51
320.594668
0
ARC
8
DEFAULT_255_2_778
10
13.3142605
20
1.0830842
40
0.2446769
50
270.5243696
51
300.2111827
0
ARC
8
DEFAULT_255_2_778
10
13.3178742
20
1.0870374
40
0.2486238
50
250.8245175
51
269.6832627
0
ARC
8
DEFAULT_255_2_778
10
12.6974434
20
-0.5846087
40
1.5345073
50
69.4453195
51
82.9822827
0
ARC
8
DEFAULT_255_2_778
10
12.6327526
20
-0.9773232
40
1.9322514
50
82.5011462
51
82.8752307
0
ARC
8
DEFAULT_255_2_778
10
12.7685085
20
0.2732914
40
0.6747643
50
81.1421875
51
89.893271
0
ARC
8
DEFAULT_255_2_778
10
12.7689588
20
0.3554884
40
0.5925667
50
89.9220081
51
125.2323783
0
ARC
8
DEFAULT_255_2_778
10
13.8973866
20
-1.3836613
40
2.6653693
50
123.4783508
51
133.8524059
0
ARC
8
DEFAULT_255_2_778
10
11.963386
20
0.6421302
40
0.1356516
50
272.5032172
51
310.126655
0
ARC
8
DEFAULT_255_2_778
10
11.9729446
20
0.7894074
40
0.2828227
50
257.7654895
51
269.2637963
0
ARC
8
DEFAULT_255_2_778
10
12.1038854
20
1.515583
40
1.0205829
50
247.0608976
51
259.2207677
0
ARC
8
DEFAULT_255_2_778
10
12.1084828
20
1.6120659
40
1.1117287
50
235.7847803
51
248.7809986
0
ARC
8
DEFAULT_255_2_778
10
11.9517758
20
1.3634462
40
0.8180844
50
234.8175759
51
235.0694277
0
ARC
8
DEFAULT_255_2_778
10
11.655963
20
0.9853609
40
0.3394695
50
224.3987059
51
238.8595783
0
ARC
8
DEFAULT_255_2_778
10
11.4453025
20
0.7820312
40
0.0467438
50
187.0327522
51
226.9874875
0
ARC
8
DEFAULT_255_2_778
10
11.4163943
20
0.7752257
40
0.0175172
50
129.6757266
51
176.457258
0
ARC
8
DEFAULT_255_2_778
10
10.9555915
20
1.1739533
40
0.5920905
50
319.4091843
51
346.2486428
0
ARC
8
DEFAULT_255_2_778
10
6.0063875
20
2.2354419
40
5.6536283
50
347.7224119
51
350.5697004
0
ARC
8
DEFAULT_255_2_778
10
7.0482792
20
2.1434985
40
4.6114465
50
349.5755426
51
355.6286018
0
ARC
8
DEFAULT_255_2_778
10
201.1151053
20
-7.8140295
40
189.7121507
50
176.9515587
51
177.0975983
0
ARC
8
DEFAULT_255_2_778
10
-18.7230605
20
2.8987522
40
30.4008726
50
358.8241737
51
0.0180097
0
ARC
8
DEFAULT_255_2_778
10
-4.3016292
20
3.2256149
40
15.9825899
50
358.8624162
51
359.9992586
0
ARC
8
DEFAULT_255_2_778
10
-4.1819989
20
3.2255962
40
15.8629595
50
359.9993206
51
1.1418472
0
ARC
8
DEFAULT_255_2_778
10
-32.2513893
20
2.619524
40
43.9388783
50
1.2026055
51
1.6184438
0
ARC
8
DEFAULT_255_2_778
10
-42.8839043
20
2.320202
40
54.5756055
50
1.6172933
51
1.9771468
0
ARC
8
DEFAULT_255_2_778
10
7.587907
20
4.0016233
40
4.0762862
50
2.8332001
51
11.0996307
0
ARC
8
DEFAULT_255_2_778
10
8.1346416
20
4.0975572
40
3.5213277
50
11.2804932
51
12.5816114
0
ARC
8
DEFAULT_255_2_778
10
11.4306547
20
4.8427155
40
0.1424483
50
8.8406983
51
38.1443267
0
ARC
8
DEFAULT_255_2_778
10
11.5133072
20
4.9014542
40
0.0414512
50
44.869738
51
50.4331302
0
ARC
8
DEFAULT_255_2_778
10
11.5485321
20
4.9493074
40
0.0181826
50
187.223801
51
240.976998
0
ARC
8
DEFAULT_255_2_778
10
11.5595781
20
4.9388005
40
0.0302237
50
105.0807207
51
164.2173351
0
ARC
8
DEFAULT_255_2_778
10
11.6153741
20
4.8397531
40
0.1431626
50
113.5338403
51
116.4020082
0
ARC
8
DEFAULT_255_2_778
10
11.7327117
20
4.6476467
40
0.3674415
50
91.7936723
51
118.3533884
0
LINE
8
DEFAULT_255_2_778
10
11.7212106
20
5.0149081
11
11.7524106
21
5.0149081
0
ARC
8
DEFAULT_255_2_778
10
11.6652512
20
4.4817791
40
0.5402067
50
69.4509245
51
80.7150518
0
ARC
8
DEFAULT_255_2_778
10
11.2364893
20
3.268664
40
1.8267951
50
65.5209926
51
70.2141733
0
ARC
8
DEFAULT_255_2_778
10
10.5610108
20
1.7407543
40
3.4973052
50
64.4406104
51
65.8214962
0
ARC
8
DEFAULT_255_2_778
10
11.7874382
20
4.2836097
40
0.6742237
50
52.0328791
51
65.2310848
0
ARC
8
DEFAULT_255_2_778
10
12.0819149
20
4.6483482
40
0.2056588
50
18.6185356
51
54.1964966
0
ARC
8
DEFAULT_255_2_778
10
11.4596062
20
4.5113454
40
0.8419592
50
5.1873605
51
13.9280802
0
ARC
8
DEFAULT_255_2_778
10
10.0938881
20
4.3692697
40
2.2150025
50
1.6153159
51
5.6533684
0
ARC
8
DEFAULT_255_2_778
10
-51.6790722
20
1.5740639
40
64.0508618
50
1.8106126
51
2.5571134
0
ARC
8
DEFAULT_255_2_778
10
-16.5659173
20
2.7510153
40
28.9181287
50
0.0128642
51
1.6779989
0
ARC
8
DEFAULT_255_2_778
10
-25.7993474
20
2.760398
40
38.1515581
50
358.9505029
51
359.99566
0
ARC
8
DEFAULT_255_2_778
10
3.8014014
20
2.361165
40
8.5496587
50
353.3137521
51
357.9921001
0
ARC
8
DEFAULT_255_2_778
10
12.6026315
20
1.3029213
40
0.3160209
50
168.5402652
51
179.9842654
0
ARC
8
DEFAULT_255_2_778
10
11.9723922
20
1.3034048
40
0.3142187
50
348.4159593
51
359.9276652
0
ARC
8
DEFAULT_255_2_778
10
12.446834
20
0.0100875
40
1.2414532
50
90.0064338
51
97.7133097
0
ARC
8
DEFAULT_255_2_778
10
12.4465494
20
0.0049122
40
1.2466284
50
84.9533832
51
89.9933275
0
ARC
8
DEFAULT_255_2_778
10
12.1814859
20
-1.4656301
40
2.738101
50
75.92843
51
82.1340604
0
ARC
8
DEFAULT_255_2_778
10
12.629321
20
1.2544243
40
0.2271272
50
343.6029542
51
0.7750019
0
ARC
8
DEFAULT_255_2_778
10
12.3926506
20
1.248383
40
0.4638664
50
1.1257354
51
15.8743731
0
ARC
8
DEFAULT_255_2_778
10
12.0848285
20
1.1738935
40
0.7804254
50
14.9529999
51
17.6028915
0
ARC
8
DEFAULT_255_2_778
10
13.7820274
20
1.7891418
40
1.0259781
50
192.8944301
51
201.6928878
0
ARC
8
DEFAULT_255_2_778
10
13.1905326
20
1.6515655
40
0.4187035
50
183.0197555
51
192.6054443
0
ARC
8
DEFAULT_255_2_778
10
13.7698933
20
1.7209005
40
1.0016608
50
180.0425041
51
185.234996
0
ARC
8
DEFAULT_255_2_778
10
13.6547282
20
1.7221579
40
0.8864976
50
168.9013235
51
180.129297
0
ARC
8
DEFAULT_255_2_778
10
13.4037381
20
1.8034308
40
0.6253475
50
147.0449286
51
171.7829067
0
ARC
8
DEFAULT_255_2_778
10
12.9660203
20
2.0827112
40
0.1062031
50
85.8810991
51
145.0123474
0
ARC
8
DEFAULT_255_2_778
10
12.9829857
20
1.9419044
40
0.2469123
50
89.9792131
51
92.1672252
0
ARC
8
DEFAULT_255_2_778
10
12.9822966
20
1.8799139
40
0.3089037
50
84.7222794
51
89.8555634
0
ARC
8
DEFAULT_255_2_778
10
12.9489696
20
1.347385
40
0.8423887
50
70.9434461
51
85.7968652
0
ARC
8
DEFAULT_255_2_778
10
12.709277
20
0.7753477
40
1.461878
50
58.7110059
51
69.3839193
0
ARC
8
DEFAULT_255_2_778
10
13.2594273
20
1.7122102
40
0.3759099
50
42.9918358
51
56.2061845
0
ARC
8
DEFAULT_255_2_778
10
13.4876001
20
1.9197059
40
0.0676304
50
6.5109801
51
46.2271059
0
ARC
8
DEFAULT_255_2_778
10
13.5268728
20
1.9272374
40
0.0279219
50
325.9615405
51
0.2819022
0
ARC
8
DEFAULT_255_2_778
10
14.1620826
20
1.5184976
40
0.7274393
50
147.2889132
51
179.5713591
0
ARC
8
DEFAULT_255_2_778
10
14.1479556
20
1.5241243
40
0.7132919
50
180.0148353
51
184.6492394
0
ARC
8
DEFAULT_255_2_778
10
14.82704
20
1.6093434
40
1.3973692
50
185.8751089
51
205.1757317
0
LINE
8
DEFAULT_255_2_778
10
13.5624106
20
1.0149081
11
13.5624106
21
0.9964081
0
ARC
8
DEFAULT_255_2_778
10
13.5380527
20
0.9944776
40
0.0244343
50
317.3027756
51
4.5315162
0
ARC
8
DEFAULT_255_2_778
10
44.3307913
20
2.8795723
40
29.3088194
50
181.6422701
51
183.3351113
0
ARC
8
DEFAULT_255_2_778
10
3311.8944353
20
50.0551739
40
3297.2100561
50
180.8194681
51
180.8343983
0
ARC
8
DEFAULT_255_2_778
10
28.130738
20
3.1796647
40
13.1121378
50
180.552856
51
181.2277831
0
ARC
8
DEFAULT_255_2_778
10
32.0479605
20
3.2182465
40
17.0295502
50
179.9885216
51
180.5554892
0
ARC
8
DEFAULT_255_2_778
10
36.682764
20
3.2180321
40
21.6643537
50
179.5075147
51
179.9904104
0
ARC
8
DEFAULT_255_2_778
10
42.0953964
20
3.1721631
40
27.0771804
50
179.0927303
51
179.5089034
0
ARC
8
DEFAULT_255_2_778
10
33.8201284
20
3.0385955
40
18.806926
50
177.1061315
51
178.2866449
0
ARC
8
DEFAULT_255_2_778
10
28.5496021
20
3.3070944
40
13.5295655
50
175.6444324
51
177.1148911
0
ARC
8
DEFAULT_255_2_778
10
14.6556462
20
5.7068625
40
1.4303376
50
274.2389932
51
286.384166
0
ARC
8
DEFAULT_255_2_778
10
14.6034689
20
6.1810886
40
1.9071986
50
273.9006934
51
274.749148
0
ARC
8
DEFAULT_255_2_778
10
14.6578596
20
6.4469943
40
2.1699949
50
270.0111219
51
271.9899422
0
ARC
8
DEFAULT_255_2_778
10
14.6528793
20
6.1367698
40
1.8597782
50
261.6284429
51
270.1664097
0
ARC
8
DEFAULT_255_2_778
10
192.0794369
20
2.7886382
40
177.7037263
50
179.5137254
51
180.0010092
0
ARC
8
DEFAULT_255_2_778
10
5699.987942
20
-44.8150172
40
5685.8114861
50
179.5203251
51
179.5354905
0
LINE
8
DEFAULT_255_2_778
10
14.3633106
20
1.2806081
11
14.4009106
21
1.2806081
0
LINE
8
DEFAULT_255_2_778
10
14.4009106
20
1.2806081
11
14.4326106
21
1.2806081
0
ARC
8
DEFAULT_255_2_778
10
14.4350134
20
-0.8912465
40
2.1718559
50
81.2631538
51
90.0633866
0
ARC
8
DEFAULT_255_2_778
10
14.5153097
20
-0.3030884
40
1.5783574
50
69.3546549
51
80.9010657
0
ARC
8
DEFAULT_255_2_778
10
15.8162347
20
4.3287349
40
0.0388224
50
122.1784286
51
139.9641388
0
ARC
8
DEFAULT_255_2_778
10
15.7955704
20
4.3613998
40
0.0001946
50
347.6420447
51
93.2292615
0
ARC
8
DEFAULT_255_2_778
10
15.7403299
20
4.3881073
40
0.0615475
50
319.4267374
51
334.2394775
0
ARC
8
DEFAULT_255_2_778
10
15.4806055
20
4.5746615
40
0.3811399
50
323.3796942
51
323.5233311
0
ARC
8
DEFAULT_255_2_778
10
18.0659863
20
2.6626486
40
2.8344465
50
143.5335349
51
144.6293068
0
ARC
8
DEFAULT_255_2_778
10
16.0717283
20
4.1812762
40
0.3397299
50
158.9306954
51
170.9681699
0
ARC
8
DEFAULT_255_2_778
10
16.2726462
20
4.0534758
40
0.5661908
50
161.3422819
51
168.5565834
0
ARC
8
DEFAULT_255_2_778
10
17.2161927
20
3.8483568
40
1.5317388
50
168.0388146
51
177.0304774
0
ARC
8
DEFAULT_255_2_778
10
20.2639244
20
3.4439802
40
4.6029023
50
173.9675366
51
176.8649897
0
ARC
8
DEFAULT_255_2_778
10
27.0430251
20
3.0466833
40
11.393615
50
176.7344409
51
179.9827774
0
ARC
8
DEFAULT_255_2_778
10
47.8970135
20
3.0469552
40
32.247603
50
179.9943981
51
181.1415405
0
ARC
8
DEFAULT_255_2_778
10
77.7129387
20
4.1326818
40
62.0811866
50
181.5951669
51
182.417628
0
ARC
8
DEFAULT_255_2_778
10
73.3237191
20
3.90859
40
57.686434
50
182.3791487
51
183.2648003
0
ARC
8
DEFAULT_255_2_778
10
15.5362138
20
0.6098298
40
0.1951628
50
0.0764196
51
3.9601111
0
ARC
8
DEFAULT_255_2_778
10
15.6631527
20
0.5980041
40
0.0692862
50
263.9170994
51
10.0457776
0
ARC
8
DEFAULT_255_2_778
10
15.6594913
20
0.7449544
40
0.2158777
50
250.3819062
51
269.0230582
0
ARC
8
DEFAULT_255_2_778
10
16.0541268
20
2.5456706
40
2.0577814
50
253.2642686
51
256.8794912
0
ARC
8
DEFAULT_255_2_778
10
15.5761349
20
0.982344
40
0.4230988
50
243.687481
51
254.2899354
0
ARC
8
DEFAULT_255_2_778
10
15.4462102
20
0.7080916
40
0.1197791
50
240.0496645
51
241.2453295
0
ARC
8
DEFAULT_255_2_778
10
15.2099038
20
0.3654848
40
0.2969701
50
53.533051
51
65.4034162
0
ARC
8
DEFAULT_255_2_778
10
15.4733726
20
0.8395503
40
0.2473754
50
224.1614605
51
235.5710613
0
ARC
8
DEFAULT_255_2_778
10
15.146027
20
0.3745572
40
0.3288003
50
62.8803596
51
71.1958451
0
ARC
8
DEFAULT_255_2_778
10
15.1117206
20
0.5411968
40
0.2014788
50
45.8689733
51
57.3867975
0
ARC
8
DEFAULT_255_2_778
10
15.1630119
20
0.6177983
40
0.1093278
50
45.3314377
51
58.3923247
0
ARC
8
DEFAULT_255_2_778
10
15.2346344
20
0.6898598
40
0.0077327
50
9.4912819
51
47.3870339
0
ARC
8
DEFAULT_255_2_778
10
15.2377083
20
0.6929941
40
0.004918
50
249.2221296
51
337.7879891
0
ARC
8
DEFAULT_255_2_778
10
15.2429387
20
0.8072981
40
0.1191065
50
254.822332
51
266.6427524
0
ARC
8
DEFAULT_255_2_778
10
15.3374322
20
1.2133331
40
0.5359312
50
253.8666206
51
256.4377106
0
ARC
8
DEFAULT_255_2_778
10
12.8207523
20
-7.5581128
40
8.5894161
50
73.9986512
51
74.4987072
0
ARC
8
DEFAULT_255_2_778
10
14.7109248
20
-0.7252508
40
1.4999429
50
74.3178297
51
75.9324007
0
ARC
8
DEFAULT_255_2_778
10
11.2249867
20
-45.1744701
40
46.0653895
50
85.2051531
51
85.3933501
0
ARC
8
DEFAULT_255_2_778
10
14.8502957
20
-0.121436
40
0.8667445
50
85.0747669
51
89.9461273
0
ARC
8
DEFAULT_255_2_778
10
14.8504256
20
-0.0199845
40
0.7652929
50
89.9487127
51
95.2416865
0
ARC
8
DEFAULT_255_2_778
10
14.7947785
20
-0.6079262
40
1.3501097
50
90.6055081
51
93.930403
0
ARC
8
DEFAULT_255_2_778
10
15.0381611
20
-4.483702
40
5.2335023
50
93.680203
51
95.0222068
0
ARC
8
DEFAULT_255_2_778
10
14.6192763
20
0.1157236
40
0.6152388
50
93.6592082
51
103.9947009
0
ARC
8
DEFAULT_255_2_778
10
14.4852326
20
0.6186073
40
0.0952414
50
98.9036601
51
140.2222377
0
ARC
8
DEFAULT_255_2_778
10
14.4390528
20
0.6637214
40
0.0313086
50
149.6440835
51
155.2921142
0
ARC
8
DEFAULT_255_2_778
10
14.2849056
20
0.7086122
40
0.1296659
50
309.1158536
51
345.8017665
0
ARC
8
DEFAULT_255_2_778
10
14.3063147
20
0.6676771
40
0.0849003
50
268.4448838
51
315.3468741
0
ARC
8
DEFAULT_255_2_778
10
14.2674683
20
0.7943469
40
0.2146718
50
269.9104211
51
279.8008504
0
ARC
8
DEFAULT_255_2_778
10
14.2784791
20
0.9098226
40
0.3303422
50
240.4285271
51
268.0316532
0
ARC
8
DEFAULT_255_2_778
10
14.4910926
20
1.3140689
40
0.7869935
50
228.9731185
51
241.4900928
0
ARC
8
DEFAULT_255_2_778
10
14.7534881
20
1.6399538
40
1.2051872
50
228.75996
51
229.7320626
0
ARC
8
DEFAULT_255_2_778
10
14.5975909
20
1.4812389
40
0.9831516
50
218.9910301
51
229.4942971
0
ARC
8
DEFAULT_255_2_778
10
14.1088555
20
1.0942476
40
0.359853
50
197.0246227
51
220.0618227
0
ARC
8
DEFAULT_255_2_778
10
13.9383456
20
1.0359418
40
0.1798384
50
180.3611889
51
195.1673804
0
ARC
8
DEFAULT_255_2_778
10
-227.7989726
20
2.7794188
40
241.5637833
50
359.5861975
51
0.000377
0
ARC
8
DEFAULT_255_2_778
10
-227.8065444
20
4.5256689
40
241.577655
50
359.5862094
51
0.0003888
0
ARC
8
DEFAULT_255_2_778
10
13.9746266
20
4.6891988
40
0.2600525
50
182.4442794
51
218.5011689
0
LINE
8
DEFAULT_255_2_778
10
13.7148106
20
4.6781081
11
13.7148106
21
4.6905081
0
ARC
8
DEFAULT_255_2_778
10
13.9518356
20
4.6803921
40
0.2372407
50
137.2904835
51
177.5561445
0
ARC
8
DEFAULT_255_2_778
10
13.8683404
20
4.7750875
40
0.1124065
50
88.9731145
51
143.905622
0
ARC
8
DEFAULT_255_2_778
10
13.8697464
20
4.7273074
40
0.1601697
50
80.3445106
51
89.7823222
0
ARC
8
DEFAULT_255_2_778
10
13.8082048
20
4.2261344
40
0.6649765
50
71.0327053
51
82.3601476
0
ARC
8
DEFAULT_255_2_778
10
13.9072439
20
4.5385291
40
0.3374447
50
68.9750144
51
69.6953875
0
ARC
8
DEFAULT_255_2_778
10
14.2354422
20
5.3730347
40
0.5592954
50
248.2631763
51
270.5463549
0
ARC
8
DEFAULT_255_2_778
10
14.2352064
20
5.603778
40
0.7900329
50
270.4038842
51
283.2186893
0
ARC
8
DEFAULT_255_2_778
10
14.1893636
20
5.8304714
40
1.0212283
50
282.8142033
51
282.8975661
0
ARC
8
DEFAULT_255_2_778
10
15.3880257
20
0.0431433
40
4.8891979
50
97.8484343
51
101.451759
0
ARC
8
DEFAULT_255_2_778
10
15.175613
20
1.5227299
40
3.3944759
50
96.1439938
51
97.7069718
0
ARC
8
DEFAULT_255_2_778
10
15.070308
20
3.1093673
40
1.8068552
50
90.2282321
51
98.2092136
0
LINE
8
DEFAULT_255_2_778
10
15.0631106
20
4.9162081
11
15.1697106
21
4.9162081
0
ARC
8
DEFAULT_255_2_778
10
15.0912037
20
4.0055594
40
0.9140264
50
62.7775673
51
85.0727199
0
ARC
8
DEFAULT_255_2_778
10
14.9790384
20
3.7481958
40
1.1943288
50
63.3462982
51
63.6405637
0
ARC
8
DEFAULT_255_2_778
10
15.3431336
20
4.4784761
40
0.3783266
50
49.8060373
51
63.013543
0
ARC
8
DEFAULT_255_2_778
10
14.6074847
20
3.5585073
40
1.5561535
50
46.3052112
51
50.9766302
0
ARC
8
DEFAULT_255_2_778
10
13.3672459
20
2.2349885
40
3.3699209
50
44.9333347
51
46.6040927
0
ARC
8
DEFAULT_255_2_778
10
15.4536984
20
4.2995042
40
0.4348951
50
30.3273359
51
46.5272077
0
ARC
8
DEFAULT_255_2_778
10
15.7167499
20
4.4527229
40
0.1304761
50
2.4094179
51
30.5792271
0
ARC
8
DEFAULT_255_2_778
10
15.7233192
20
4.4656305
40
0.1240137
50
299.5128105
51
356.5687116
0
ARC
8
DEFAULT_255_2_778
10
14.9900093
20
8.1951125
40
5.86676
50
290.4532827
51
293.5579055
0
ARC
8
DEFAULT_255_2_778
10
15.8834268
20
6.1556747
40
3.6402207
50
293.4974114
51
298.441282
0
ARC
8
DEFAULT_255_2_778
10
26.6214324
20
3.1930074
40
9.0074719
50
180.0001548
51
181.5153429
0
ARC
8
DEFAULT_255_2_778
10
26.6168901
20
3.1929687
40
9.0029295
50
178.4842742
51
179.9999086
0
ARC
8
DEFAULT_255_2_778
10
26.6008273
20
3.4277487
40
8.9837173
50
176.9770854
51
179.9785747
0
ARC
8
DEFAULT_255_2_778
10
53.7516062
20
0.5062081
40
36.2812159
50
174.2221355
51
174.6302396
0
ARC
8
DEFAULT_255_2_778
10
19.5157199
20
4.0675154
40
1.8632422
50
169.0322863
51
177.1946518
0
ARC
8
DEFAULT_255_2_778
10
16.1941618
20
8.2898549
40
4.1457621
50
285.2569325
51
291.0983359
0
ARC
8
DEFAULT_255_2_778
10
16.7718217
20
6.2706145
40
2.0458434
50
272.964042
51
284.5303956
0
ARC
8
DEFAULT_255_2_778
10
16.2015503
20
3.8602005
40
0.7693974
50
6.8155931
51
28.5154995
0
ARC
8
DEFAULT_255_2_778
10
40.044295
20
6.777662
40
23.2511814
50
186.9814985
51
187.7045178
0
ARC
8
DEFAULT_255_2_778
10
10.8715611
20
3.014242
40
6.1654142
50
1.5183547
51
6.0168654
0
ARC
8
DEFAULT_255_2_778
10
10.6278503
20
2.8511531
40
6.4152719
50
0.0132023
51
2.9168794
0
ARC
8
DEFAULT_255_2_778
10
10.8765764
20
2.8522972
40
6.1665455
50
358.5365482
51
0.0031047
0
ARC
8
DEFAULT_255_2_778
10
18.9219503
20
0.9768832
40
1.6965388
50
105.677393
51
108.5577033
0
ARC
8
DEFAULT_255_2_778
10
17.8132833
20
3.925239
40
1.4557244
50
289.5583211
51
292.9970277
0
LINE
8
DEFAULT_255_2_778
10
18.3006106
20
2.5535081
11
18.3006106
21
2.4468081
0
ARC
8
DEFAULT_255_2_778
10
17.2924673
20
2.3339263
40
1.0144433
50
359.9989709
51
6.3887961
0
ARC
8
DEFAULT_255_2_778
10
33.4641159
20
2.6643547
40
15.160807
50
181.2489239
51
183.5261312
0
ARC
8
DEFAULT_255_2_778
10
-10.311236
20
0.5395177
40
28.6680549
50
1.1924275
51
2.383791
0
ARC
8
DEFAULT_255_2_778
10
4.0363174
20
0.4245789
40
14.3319665
50
2.2877439
51
2.8456937
0
ARC
8
DEFAULT_255_2_778
10
-6.4497704
20
0.0018861
40
24.8265697
50
1.9096814
51
2.2964484
0
ARC
8
DEFAULT_255_2_778
10
17.5733642
20
0.7744821
40
0.7915406
50
0.0645369
51
3.9645125
0
ARC
8
DEFAULT_255_2_778
10
17.8723463
20
0.7644744
40
0.4926785
50
339.381278
51
1.2676268
0
ARC
8
DEFAULT_255_2_778
10
18.0265692
20
0.7136093
40
0.3304905
50
327.9247393
51
338.2192477
0
ARC
8
DEFAULT_255_2_778
10
18.2112151
20
0.6152659
40
0.1226932
50
265.5427069
51
321.0333937
0
ARC
8
DEFAULT_255_2_778
10
18.1969011
20
0.7512487
40
0.2583492
50
269.9927791
51
271.0598783
0
ARC
8
DEFAULT_255_2_778
10
18.1975805
20
0.8030546
40
0.3101559
50
264.733277
51
269.8684701
0
ARC
8
DEFAULT_255_2_778
10
18.2999105
20
1.4780884
40
0.9925367
50
249.7151689
51
262.4273375
0
ARC
8
DEFAULT_255_2_778
10
18.5151175
20
1.9628023
40
1.5221741
50
238.4084376
51
248.4422106
0
ARC
8
DEFAULT_255_2_778
10
17.9528204
20
1.0159513
40
0.4214225
50
224.6422261
51
236.0896045
0
ARC
8
DEFAULT_255_2_778
10
17.6955365
20
0.7687578
40
0.0648516
50
188.4927264
51
228.9819796
0
ARC
8
DEFAULT_255_2_778
10
17.6526303
20
0.7593427
40
0.0212349
50
140.6457345
51
180.4384116
0
ARC
8
DEFAULT_255_2_778
10
17.2915999
20
0.9902345
40
0.4074687
50
327.7508105
51
356.7216258
0
ARC
8
DEFAULT_255_2_778
10
17.0501592
20
1.0211917
40
0.6505095
50
355.2153808
51
0.0803038
0
ARC
8
DEFAULT_255_2_778
10
16.912737
20
1.0213061
40
0.7879312
50
0.0579771
51
3.8278908
0
ARC
8
DEFAULT_255_2_778
10
50.2762441
20
3.1591533
40
32.6440026
50
183.3518647
51
183.6624537
0
ARC
8
DEFAULT_255_2_778
10
34.1778824
20
2.219559
40
16.5182447
50
182.873759
51
183.3631292
0
ARC
8
DEFAULT_255_2_778
10
838.7144176
20
22.8857121
40
821.3153145
50
181.4659365
51
181.4996354
0
ARC
8
DEFAULT_255_2_778
10
-420.1613395
20
-20.330787
40
438.3919691
50
2.9033444
51
2.9674038
0
ARC
8
DEFAULT_255_2_778
10
15.7303369
20
11.5586923
40
9.3916693
50
279.9190279
51
281.7496119
0
ARC
8
DEFAULT_255_2_778
10
16.1086659
20
9.7539365
40
7.548974
50
277.140389
51
279.4500192
0
ARC
8
DEFAULT_255_2_778
10
-42.7473374
20
2.2667436
40
59.7943481
50
359.1616905
51
359.9968997
0
ARC
8
DEFAULT_255_2_778
10
-3.1476003
20
1.6783445
40
20.1902428
50
356.7122093
51
359.1871248
0
ARC
8
DEFAULT_255_2_778
10
16.965192
20
0.5408918
40
0.0487326
50
266.4051406
51
335.1446522
0
ARC
8
DEFAULT_255_2_778
10
16.9186888
20
0.7985087
40
0.3093203
50
269.3557125
51
278.0745478
0
ARC
8
DEFAULT_255_2_778
10
16.9293791
20
1.412786
40
0.9236866
50
257.0026324
51
269.1211004
0
ARC
8
DEFAULT_255_2_778
10
17.0168337
20
1.8725304
40
1.3914405
50
257.4552785
51
257.7514795
0
ARC
8
DEFAULT_255_2_778
10
16.9873386
20
1.6566159
40
1.1744137
50
243.1829882
51
256.5719094
0
ARC
8
DEFAULT_255_2_778
10
16.5994785
20
0.8906976
40
0.3158889
50
222.0153873
51
243.2932932
0
ARC
8
DEFAULT_255_2_778
10
16.4418763
20
0.7487989
40
0.1038191
50
181.8156467
51
222.0496952
0
ARC
8
DEFAULT_255_2_778
10
16.4245724
20
0.7454949
40
0.0864632
50
175.2145593
51
179.9903279
0
ARC
8
DEFAULT_255_2_778
10
1.5699728
20
1.7583232
40
14.8026355
50
356.1046187
51
358.9474535
0
ARC
8
DEFAULT_255_2_778
10
-26.3987786
20
2.2263289
40
42.7752892
50
359.0088565
51
0.0001061
0
ARC
8
DEFAULT_255_2_778
10
16.5201181
20
3.1266808
40
0.9116546
50
249.9261924
51
260.9367875
0
ARC
8
DEFAULT_255_2_778
10
16.430251
20
2.9923639
40
0.7556237
50
239.8134595
51
252.8320368
0
ARC
8
DEFAULT_255_2_778
10
14.4769866
20
0.1758419
40
2.674977
50
53.9732021
51
55.0066607
0
ARC
8
DEFAULT_255_2_778
10
8.2336066
20
-8.7004686
40
13.5270996
50
54.9037497
51
55.2520567
0
ARC
8
DEFAULT_255_2_778
10
15.9901948
20
2.5018106
40
0.0991301
50
212.7873523
51
241.9702865
0
ARC
8
DEFAULT_255_2_778
10
15.9170116
20
2.4520989
40
0.0109026
50
181.0025238
51
201.3514473
0
ARC
8
DEFAULT_255_2_778
10
15.947549
20
2.4201399
40
0.0522145
50
90.1037048
51
142.5248425
0
ARC
8
DEFAULT_255_2_778
10
16.0133873
20
2.1188635
40
0.3595871
50
95.1338302
51
100.5653662
0
ARC
8
DEFAULT_255_2_778
10
15.9812234
20
4.105597
40
1.6285889
50
269.9995515
51
277.0748735
0
ARC
8
DEFAULT_255_2_778
10
15.8071256
20
5.4997884
40
3.0336082
50
277.0947961
51
280.9296902
0
LINE
8
DEFAULT_255_2_778
10
16.3823106
20
2.5212081
11
16.3823106
21
2.5775081
0
LINE
8
DEFAULT_255_2_778
10
16.3823106
20
2.5775081
11
16.3823106
21
2.6305081
0
LINE
8
DEFAULT_255_2_778
10
16.3823106
20
2.6305081
11
16.3823106
21
3.1861081
0
ARC
8
DEFAULT_255_2_778
10
8.3664817
20
3.0025558
40
8.0179302
50
1.3117715
51
5.2629079
0
ARC
8
DEFAULT_255_2_778
10
-53.7453163
20
-2.3477191
40
70.3596123
50
4.9619762
51
5.0939164
0
ARC
8
DEFAULT_255_2_778
10
-108.9633331
20
-7.2647992
40
125.7961259
50
5.0916087
51
5.1811483
0
ARC
8
DEFAULT_255_2_778
10
15.6141439
20
4.0679764
40
0.7051927
50
2.2130859
51
19.5043329
0
ARC
8
DEFAULT_255_2_778
10
15.9115295
20
4.1706874
40
0.390587
50
19.8671682
51
41.111375
0
ARC
8
DEFAULT_255_2_778
10
16.2769091
20
4.5069826
40
0.1066358
50
201.4882161
51
228.183947
0
ARC
8
DEFAULT_255_2_778
10
16.211983
20
4.4788356
40
0.0359926
50
180.5808541
51
197.6528677
0
ARC
8
DEFAULT_255_2_778
10
16.2108934
20
4.4759166
40
0.0349945
50
108.9821726
51
175.8144156
0
ARC
8
DEFAULT_255_2_778
10
16.2953287
20
4.2707125
40
0.2568382
50
88.9554955
51
111.9049444
0
ARC
8
DEFAULT_255_2_778
10
16.3534723
20
5.7481338
40
1.2217959
50
267.4921306
51
270.0071169
0
ARC
8
DEFAULT_255_2_778
10
16.3423233
20
5.9845962
40
1.458302
50
270.4440046
51
285.8892803
0
ARC
8
DEFAULT_255_2_778
10
16.2251141
20
6.4455887
40
1.9338176
50
285.4899089
51
290.4892244
0
ARC
8
DEFAULT_255_2_778
10
14.843828
20
10.0127919
40
5.7590238
50
290.9396214
51
294.8105591
0
ARC
8
DEFAULT_255_2_778
10
15.5443503
20
8.4882338
40
4.0812312
50
294.864888
51
298.1963581
0
ARC
8
DEFAULT_255_2_778
10
20.9202253
20
-2.3227876
40
7.9955322
50
114.2256952
51
115.5424785
0
ARC
8
DEFAULT_255_2_778
10
19.3458585
20
1.1621967
40
4.1714398
50
113.353155
51
114.1471111
0
ARC
8
DEFAULT_255_2_778
10
17.791591
20
4.7362115
40
0.2742943
50
88.4708713
51
111.219911
0
ARC
8
DEFAULT_255_2_778
10
17.7870727
20
4.4473279
40
0.5632047
50
75.2242325
51
88.7956181
0
ARC
8
DEFAULT_255_2_778
10
17.7209135
20
3.91386
40
1.0982725
50
62.8715939
51
78.9874135
0
ARC
8
DEFAULT_255_2_778
10
17.8061368
20
4.0550351
40
0.9338384
50
45.0216573
51
63.5755835
0
ARC
8
DEFAULT_255_2_778
10
18.4016761
20
4.6486751
40
0.0929771
50
26.7390898
51
46.0451855
0
ARC
8
DEFAULT_255_2_778
10
18.3751014
20
4.6528149
40
0.1159092
50
0.046051
51
18.9774218
0
ARC
8
DEFAULT_255_2_778
10
20.7328878
20
3.6809937
40
2.4434875
50
156.5619642
51
173.9049232
0
ARC
8
DEFAULT_255_2_778
10
21.1117796
20
3.6235994
40
2.8263817
50
173.5635516
51
174.8947191
0
ARC
8
DEFAULT_255_2_778
10
27.4827468
20
3.1821771
40
9.2122338
50
175.6862195
51
179.9985781
0
ARC
8
DEFAULT_255_2_778
10
27.4739789
20
3.1824137
40
9.2034659
50
180.0000498
51
180.8436149
0
ARC
8
DEFAULT_255_2_778
10
18.1891348
20
2.9514388
40
0.1260959
50
36.6142866
51
49.2106893
0
ARC
8
DEFAULT_255_2_778
10
17.3336793
20
2.2809694
40
1.2129502
50
33.92612
51
37.9346564
0
ARC
8
DEFAULT_255_2_778
10
13.9462406
20
-0.0364158
40
5.3171893
50
32.7880482
51
34.2737406
0
ARC
8
DEFAULT_255_2_778
10
10.6537422
20
-2.1814552
40
9.246757
50
32.8451182
51
32.913801
0
ARC
8
DEFAULT_255_2_778
10
17.8899228
20
2.4659999
40
0.6470287
50
23.670188
51
34.631962
0
ARC
8
DEFAULT_255_2_778
10
18.3292905
20
2.6560992
40
0.1683204
50
2.7953952
51
24.4486773
0
ARC
8
DEFAULT_255_2_778
10
18.4443885
20
2.657088
40
0.0535114
50
293.4818518
51
7.7543351
0
ARC
8
DEFAULT_255_2_778
10
25.1650368
20
3.3047344
40
4.8354364
50
168.9091054
51
170.1201898
0
ARC
8
DEFAULT_255_2_778
10
21.0957583
20
4.1546699
40
0.680594
50
162.9690334
51
173.2294066
0
ARC
8
DEFAULT_255_2_778
10
21.9974465
20
0.6447283
40
4.0210464
50
112.7106552
51
119.7898295
0
ARC
8
DEFAULT_255_2_778
10
16.9046705
20
9.6887062
40
6.3584197
50
294.6282695
51
299.12801
0
ARC
8
DEFAULT_255_2_778
10
20.3097224
20
3.9062562
40
0.7553158
50
179.814004
51
187.4663038
0
LINE
8
DEFAULT_255_2_778
10
19.5608106
20
3.8081081
11
19.5608106
21
3.7203081
0
ARC
8
DEFAULT_255_2_778
10
10.4173195
20
3.0422132
40
9.168601
50
0.0837065
51
4.2413758
0
ARC
8
DEFAULT_255_2_778
10
37.9620899
20
3.0693105
40
18.3761844
50
180.0427232
51
182.1054003
0
ARC
8
DEFAULT_255_2_778
10
11.3333684
20
2.4068177
40
8.2649519
50
356.091113
51
359.9125857
0
ARC
8
DEFAULT_255_2_778
10
9.9822297
20
2.4854885
40
9.6183198
50
355.6790258
51
356.1722428
0
ARC
8
DEFAULT_255_2_778
10
26.8455915
20
1.068209
40
7.305287
50
174.5597353
51
178.0336641
0
ARC
8
DEFAULT_255_2_778
10
25.2318648
20
1.1311756
40
5.6903548
50
178.1097738
51
179.9745008
0
LINE
8
DEFAULT_255_2_778
10
19.5415106
20
1.1337081
11
19.5415106
21
1.1274081
0
LINE
8
DEFAULT_255_2_778
10
19.5415106
20
1.1274081
11
19.5415106
21
1.1274081
0
ARC
8
DEFAULT_255_2_778
10
19.6042264
20
1.1426175
40
0.0645337
50
193.6317735
51
218.7684561
0
ARC
8
DEFAULT_255_2_778
10
19.4916676
20
1.0734037
40
0.0685848
50
357.9982711
51
24.8334079
0
ARC
8
DEFAULT_255_2_778
10
19.5622038
20
0.9987084
40
0.0723272
50
65.662452
51
91.5791201
0
LINE
8
DEFAULT_255_2_778
10
19.5920106
20
1.0646081
11
19.6232106
21
1.0646081
0
ARC
8
DEFAULT_255_2_778
10
19.9591101
20
3.4629743
40
2.4217739
50
262.0273863
51
266.3517581
0
ARC
8
DEFAULT_255_2_778
10
19.714822
20
-0.3151451
40
1.3642376
50
78.3540976
51
86.2094594
0
ARC
8
DEFAULT_255_2_778
10
27.0903879
20
1.1127595
40
7.1007701
50
180.0000005
51
180.7403585
0
ARC
8
DEFAULT_255_2_778
10
27.146545
20
1.1112857
40
7.1569273
50
172.7707757
51
179.9882016
0
ARC
8
DEFAULT_255_2_778
10
79.7537533
20
-6.1719285
40
60.265496
50
171.2434154
51
172.1953265
0
ARC
8
DEFAULT_255_2_778
10
46.5005565
20
-1.0984205
40
26.6275655
50
169.9088743
51
171.1401429
0
ARC
8
DEFAULT_255_2_778
10
35.7500177
20
0.7637139
40
15.7171421
50
167.6273632
51
169.725437
0
ARC
8
DEFAULT_255_2_778
10
21.2071673
20
4.2693442
40
0.1022212
50
130.0367271
51
165.4845068
0
ARC
8
DEFAULT_255_2_778
10
21.6946723
20
4.089178
40
0.6215203
50
160.6642699
51
168.7897021
0
ARC
8
DEFAULT_255_2_778
10
18.2127105
20
4.7745455
40
2.9272531
50
346.8397716
51
348.8805146
0
ARC
8
DEFAULT_255_2_778
10
20.6058345
20
4.2079334
40
0.4680264
50
340.6823807
51
347.6816508
0
ARC
8
DEFAULT_255_2_778
10
23.2962535
20
3.3808989
40
2.3470641
50
163.3571934
51
168.7221299
0
ARC
8
DEFAULT_255_2_778
10
24.747924
20
2.9562377
40
3.8560324
50
166.7520412
51
169.9882701
0
ARC
8
DEFAULT_255_2_778
10
34.9419136
20
0.7673417
40
14.2804749
50
168.4500539
51
170.6760645
0
ARC
8
DEFAULT_255_2_778
10
43.8005358
20
-0.5693275
40
23.2389106
50
170.9626317
51
172.3471623
0
ARC
8
DEFAULT_255_2_778
10
44.311485
20
-0.9159376
40
23.7930619
50
171.6837685
51
173.9828238
0
ARC
8
DEFAULT_255_2_778
10
57.6235605
20
-2.5771828
40
37.2068224
50
173.5876247
51
175.0534787
0
ARC
8
DEFAULT_255_2_778
10
20.4945228
20
0.627215
40
0.060906
50
264.8916835
51
3.5705897
0
ARC
8
DEFAULT_255_2_778
10
20.4899567
20
0.7105652
40
0.1440169
50
261.0334886
51
269.6590912
0
ARC
8
DEFAULT_255_2_778
10
20.6368946
20
1.7566279
40
1.2003311
50
256.5031624
51
261.8876635
0
ARC
8
DEFAULT_255_2_778
10
20.4708319
20
1.0399876
40
0.4647606
50
253.9209936
51
255.7904144
0
ARC
8
DEFAULT_255_2_778
10
19.8610728
20
-0.8384393
40
1.5104915
50
71.4299125
51
83.8364437
0
ARC
8
DEFAULT_255_2_778
10
19.7906913
20
-1.3325709
40
2.0093945
50
83.3539478
51
84.8171016
0
ARC
8
DEFAULT_255_2_778
10
20.0645351
20
2.4126014
40
1.7464353
50
253.5783386
51
266.9696738
0
ARC
8
DEFAULT_255_2_778
10
17.5046179
20
0.0538903
40
2.1763155
50
16.0587277
51
18.3047466
0
ARC
8
DEFAULT_255_2_778
10
19.89052
20
0.771813
40
0.316496
50
201.4822412
51
215.7036634
0
ARC
8
DEFAULT_255_2_778
10
19.6196158
20
0.5768186
40
0.0172899
50
2.5586625
51
36.5209156
0
ARC
8
DEFAULT_255_2_778
10
19.6057752
20
0.5886484
40
0.03302
50
270.2372809
51
340.4343489
0
ARC
8
DEFAULT_255_2_778
10
19.5109512
20
0.9586215
40
0.4140298
50
272.7577001
51
283.259232
0
ARC
8
DEFAULT_255_2_778
10
19.4537115
20
1.6640687
40
1.1216545
50
272.156104
51
273.9445457
0
LINE
8
DEFAULT_255_2_778
10
19.4959106
20
0.5432081
11
19.4896106
21
0.5432081
0
ARC
8
DEFAULT_255_2_778
10
19.4985911
20
0.9954813
40
0.4523624
50
230.6152159
51
268.862473
0
ARC
8
DEFAULT_255_2_778
10
19.6354688
20
1.1990755
40
0.6969658
50
228.7700488
51
232.5386238
0
ARC
8
DEFAULT_255_2_778
10
19.4992543
20
1.0752518
40
0.514487
50
204.7191875
51
231.0907261
0
ARC
8
DEFAULT_255_2_778
10
19.5863631
20
1.1377312
40
0.6200743
50
185.4024382
51
206.5978508
0
ARC
8
DEFAULT_255_2_778
10
19.964409
20
1.1926336
40
1.0017914
50
181.7976213
51
186.4929055
0
ARC
8
DEFAULT_255_2_778
10
-51.4840424
20
-0.2100004
40
70.4604966
50
1.1150847
51
1.32662
0
ARC
8
DEFAULT_255_2_778
10
-18.4448616
20
0.5587788
40
37.4123732
50
1.3210209
51
1.6321904
0
ARC
8
DEFAULT_255_2_778
10
-3.8203593
20
0.9689905
40
22.7821212
50
1.6485575
51
1.7927379
0
LINE
8
DEFAULT_255_2_778
10
18.9506106
20
1.6817081
11
18.9506106
21
2.1018081
0
LINE
8
DEFAULT_255_2_778
10
18.9506106
20
2.1018081
11
18.9506106
21
2.3087081
0
ARC
8
DEFAULT_255_2_778
10
13.4119441
20
2.2951635
40
5.5386831
50
0.1401147
51
2.7366296
0
ARC
8
DEFAULT_255_2_778
10
-16.6987605
20
1.8935955
40
35.649293
50
1.0704821
51
2.1339196
0
ARC
8
DEFAULT_255_2_778
10
-22.9488026
20
1.5382373
40
41.9084115
50
2.3012467
51
3.193948
0
ARC
8
DEFAULT_255_2_778
10
23.7370865
20
4.2147916
40
4.8546081
50
180.7421942
51
184.0348222
0
ARC
8
DEFAULT_255_2_778
10
25.6683455
20
4.2544745
40
6.786235
50
179.9887401
51
180.8659946
0
ARC
8
DEFAULT_255_2_778
10
17.9958879
20
4.2687164
40
0.8863167
50
359.165514
51
17.7509811
0
ARC
8
DEFAULT_255_2_778
10
18.2243838
20
4.3332166
40
0.6490868
50
18.4778759
51
27.4081367
0
ARC
8
DEFAULT_255_2_778
10
18.8244284
20
4.6593788
40
0.0362828
50
183.4298481
51
228.9703815
0
ARC
8
DEFAULT_255_2_778
10
18.8317259
20
4.6536501
40
0.0436604
50
82.8410063
51
175.3256339
0
ARC
8
DEFAULT_255_2_778
10
18.8586332
20
4.5076079
40
0.190575
50
89.7101585
51
96.4674909
0
ARC
8
DEFAULT_255_2_778
10
18.8563612
20
4.3270604
40
0.3711341
50
82.3854339
51
89.5004072
0
ARC
8
DEFAULT_255_2_778
10
18.8318238
20
4.1115977
40
0.5879633
50
82.6334369
51
82.7976043
0
ARC
8
DEFAULT_255_2_778
10
18.4434588
20
-0.8288748
40
5.5430167
50
84.0687084
51
85.2007866
0
ARC
8
DEFAULT_255_2_778
10
18.9441789
20
3.9171963
40
0.7706486
50
80.3969835
51
84.6338022
0
ARC
8
DEFAULT_255_2_778
10
19.0549213
20
4.5853651
40
0.0933963
50
76.5716873
51
79.0019923
0
ARC
8
DEFAULT_255_2_778
10
15.5304472
20
-5.8874614
40
11.1429973
50
70.5976285
51
71.4433927
0
ARC
8
DEFAULT_255_2_778
10
13.0754569
20
-12.914887
40
18.5868855
50
70.5705424
51
70.6560229
0
ARC
8
DEFAULT_255_2_778
10
19.085211
20
4.1287182
40
0.5147667
50
48.2908727
51
70.350327
0
ARC
8
DEFAULT_255_2_778
10
26.3164831
20
-9.2717242
40
15.4101924
50
115.3855931
51
116.5531002
0
ARC
8
DEFAULT_255_2_778
10
23.1673271
20
-2.5957207
40
8.0287527
50
113.2268223
51
115.5067153
0
ARC
8
DEFAULT_255_2_778
10
19.0610857
20
7.2821655
40
2.6707201
50
290.6058286
51
295.4299082
0
ARC
8
DEFAULT_255_2_778
10
20.4451007
20
4.4014688
40
0.5253339
50
91.9188317
51
116.8401911
0
ARC
8
DEFAULT_255_2_778
10
20.4909141
20
4.6156844
40
0.3172245
50
90.1270559
51
101.5293195
0
ARC
8
DEFAULT_255_2_778
10
20.4977382
20
4.4334309
40
0.4995339
50
48.4737657
51
90.8634329
0
ARC
8
DEFAULT_255_2_778
10
19.5204861
20
3.2650448
40
2.0225872
50
37.2714763
51
49.6912436
0
ARC
8
DEFAULT_255_2_778
10
20.8780949
20
4.2922688
40
0.3201918
50
22.5013877
51
38.11579
0
LINE
8
DEFAULT_255_2_778
10
21.1739106
20
4.4148081
11
21.1739106
21
4.3963081
0
ARC
8
DEFAULT_255_2_778
10
21.121374
20
4.4008493
40
0.0527325
50
293.274547
51
355.0596781
0
ARC
8
DEFAULT_255_2_778
10
23.5485984
20
1.0335134
40
0.1361712
50
23.055952
51
49.4024886
0
ARC
8
DEFAULT_255_2_778
10
23.6504524
20
1.0802121
40
0.0243598
50
0.6961984
51
15.7933248
0
ARC
8
DEFAULT_255_2_778
10
23.6368337
20
1.0958
40
0.0409401
50
279.3863155
51
338.0671174
0
ARC
8
DEFAULT_255_2_778
10
23.5377683
20
1.2650484
40
0.2347988
50
271.2793375
51
296.7663193
0
ARC
8
DEFAULT_255_2_778
10
23.6021227
20
-1.1460355
40
2.1771462
50
91.5558386
51
100.055694
0
ARC
8
DEFAULT_255_2_778
10
23.8178443
20
-2.4011969
40
3.4506993
50
99.943614
51
105.765536
0
ARC
8
DEFAULT_255_2_778
10
24.0587527
20
-3.3099646
40
4.3907616
50
105.5689155
51
106.276908
0
ARC
8
DEFAULT_255_2_778
10
23.5045618
20
-1.4557241
40
2.4555444
50
105.9905687
51
114.3455855
0
ARC
8
DEFAULT_255_2_778
10
23.131641
20
-0.6424292
40
1.5608452
50
114.1808774
51
126.9631676
0
ARC
8
DEFAULT_255_2_778
10
22.9464759
20
-0.3786512
40
1.2387865
50
127.4561739
51
128.4647009
0
ARC
8
DEFAULT_255_2_778
10
22.1769931
20
0.5738244
40
0.0175172
50
93.542742
51
140.3242734
0
ARC
8
DEFAULT_255_2_778
10
22.1627106
20
0.5794081
40
0.0056569
50
81.8698976
51
188.1301024
0
LINE
8
DEFAULT_255_2_778
10
22.1571106
20
0.5786081
11
22.1508106
21
0.5786081
0
LINE
8
DEFAULT_255_2_778
10
22.1508106
20
0.5786081
11
22.1508106
21
0.5723081
0
ARC
8
DEFAULT_255_2_778
10
22.0793346
20
0.699969
40
0.1463084
50
268.5414796
51
299.2439909
0
ARC
8
DEFAULT_255_2_778
10
22.090179
20
0.8843007
40
0.3309135
50
245.11536
51
267.4767616
0
ARC
8
DEFAULT_255_2_778
10
22.3458044
20
1.4845358
40
0.9832037
50
236.5924941
51
246.3206914
0
ARC
8
DEFAULT_255_2_778
10
22.6862713
20
2.0356904
40
1.6308656
50
236.2795574
51
237.2686895
0
ARC
8
DEFAULT_255_2_778
10
22.506434
20
1.8143375
40
1.3471833
50
230.0830478
51
237.4151266
0
ARC
8
DEFAULT_255_2_778
10
21.9616294
20
1.1734732
40
0.5061113
50
215.3022198
51
230.8329648
0
ARC
8
DEFAULT_255_2_778
10
21.677153
20
0.9760548
40
0.1598935
50
182.8193453
51
216.4775283
0
ARC
8
DEFAULT_255_2_778
10
21.6207416
20
0.9682045
40
0.1032885
50
176.8344912
51
180.0079535
0
ARC
8
DEFAULT_255_2_778
10
90.119926
20
-4.3504741
40
68.8086239
50
175.1743253
51
175.5620405
0
ARC
8
DEFAULT_255_2_778
10
17.442238
20
1.8930993
40
4.1380734
50
353.6860334
51
0.0361208
0
ARC
8
DEFAULT_255_2_778
10
16.6030957
20
1.8956939
40
4.9772149
50
0.0001633
51
4.0452511
0
ARC
8
DEFAULT_255_2_778
10
11.1091953
20
1.5330918
40
10.4830395
50
3.9038857
51
5.8996596
0
ARC
8
DEFAULT_255_2_778
10
21.3312171
20
2.4047823
40
0.2908468
50
45.046277
51
59.1615695
0
ARC
8
DEFAULT_255_2_778
10
21.2680651
20
2.451128
40
0.2939585
50
43.7780539
51
55.0623636
0
ARC
8
DEFAULT_255_2_778
10
23.6486531
20
4.8694056
40
3.1039718
50
223.6330141
51
224.5438793
0
ARC
8
DEFAULT_255_2_778
10
41.9525958
20
22.4225396
40
28.4642998
50
223.5855521
51
223.7822034
0
ARC
8
DEFAULT_255_2_778
10
71.9627155
20
51.0196932
40
69.9179395
50
223.5696894
51
223.6053357
0
ARC
8
DEFAULT_255_2_778
10
21.6659159
20
3.1397633
40
0.4761048
50
209.4872211
51
220.6346442
0
ARC
8
DEFAULT_255_2_778
10
21.337463
20
2.9528477
40
0.0981978
50
193.3295211
51
208.8865855
0
ARC
8
DEFAULT_255_2_778
10
21.2764699
20
2.9287305
40
0.0345908
50
74.1615437
51
177.5517883
0
ARC
8
DEFAULT_255_2_778
10
21.9084873
20
-1.3992965
40
4.4055169
50
96.8896739
51
98.1240915
0
ARC
8
DEFAULT_255_2_778
10
21.4962018
20
1.9235512
40
1.0572609
50
89.842363
51
96.309453
0
ARC
8
DEFAULT_255_2_778
10
10.7718087
20
2.1209881
40
10.7617051
50
4.5826029
51
7.9412951
0
ARC
8
DEFAULT_255_2_778
10
-39.0407114
20
-3.6303177
40
60.902668
50
6.8255894
51
7.396329
0
ARC
8
DEFAULT_255_2_778
10
19.4813829
20
3.9066467
40
1.8981932
50
9.1900923
51
11.7683729
0
ARC
8
DEFAULT_255_2_778
10
14.8670617
20
2.9709985
40
6.6064005
50
11.5503737
51
12.4816842
0
ARC
8
DEFAULT_255_2_778
10
6.881771
20
1.2110385
40
14.7833376
50
12.4527039
51
12.996588
0
ARC
8
DEFAULT_255_2_778
10
22.0835189
20
4.7124595
40
0.8164697
50
185.8238348
51
192.5025172
0
ARC
8
DEFAULT_255_2_778
10
21.7805504
20
4.6800201
40
0.5117755
50
180.1730073
51
185.6525752
0
ARC
8
DEFAULT_255_2_778
10
21.5250844
20
4.6867615
40
0.256441
50
157.9571944
51
181.8518002
0
ARC
8
DEFAULT_255_2_778
10
21.4045958
20
4.7333199
40
0.1273033
50
120.8526992
51
157.0281384
0
ARC
8
DEFAULT_255_2_778
10
21.3806868
20
4.7726332
40
0.0812926
50
86.9171311
51
120.5958481
0
ARC
8
DEFAULT_255_2_778
10
21.3768252
20
4.5744668
40
0.2794626
50
73.3807631
51
88.3117046
0
ARC
8
DEFAULT_255_2_778
10
21.3100545
20
4.3079311
40
0.5540968
50
72.4744115
51
74.64761
0
ARC
8
DEFAULT_255_2_778
10
40.2689871
20
69.0163775
40
66.8746846
50
253.6798441
51
253.7610662
0
ARC
8
DEFAULT_255_2_778
10
26.8225057
20
22.8349389
40
18.7754844
50
253.7478709
51
253.9378625
0
ARC
8
DEFAULT_255_2_778
10
21.7894681
20
5.9513417
40
1.1701677
50
262.0543046
51
270.0937748
0
ARC
8
DEFAULT_255_2_778
10
21.7903239
20
6.1113224
40
1.3301472
50
270.0456357
51
274.8857186
0
ARC
8
DEFAULT_255_2_778
10
11.3166928
20
122.2619937
40
117.9520667
50
275.149576
51
275.284202
0
ARC
8
DEFAULT_255_2_778
10
21.0856865
20
13.8999713
40
9.1543589
50
276.8631098
51
279.36054
0
ARC
8
DEFAULT_255_2_778
10
15.5429731
20
45.7589936
40
41.4916559
50
279.7570704
51
280.302579
0
LINE
8
DEFAULT_255_2_778
10
22.9636106
20
4.9363081
11
22.9821106
21
4.9363081
0
ARC
8
DEFAULT_255_2_778
10
22.9668639
20
4.7143168
40
0.2225142
50
62.9608943
51
86.0709995
0
ARC
8
DEFAULT_255_2_778
10
22.6755754
20
4.0795229
40
0.9208031
50
56.2300096
51
64.7735712
0
ARC
8
DEFAULT_255_2_778
10
22.0742865
20
3.1409119
40
2.0353979
50
54.2172624
51
56.8464904
0
ARC
8
DEFAULT_255_2_778
10
22.4379422
20
3.6753636
40
1.3893049
50
48.3465122
51
53.4959887
0
ARC
8
DEFAULT_255_2_778
10
23.0767884
20
4.3855167
40
0.4341348
50
37.388045
51
49.0522157
0
ARC
8
DEFAULT_255_2_778
10
23.3579418
20
4.5951562
40
0.0835549
50
5.9807995
51
40.2363066
0
ARC
8
DEFAULT_255_2_778
10
23.41173
20
4.6035749
40
0.0293134
50
302.3390348
51
0.5615369
0
ARC
8
DEFAULT_255_2_778
10
23.8803338
20
3.9799229
40
0.7508681
50
127.0993862
51
151.5045676
0
ARC
8
DEFAULT_255_2_778
10
23.7643781
20
4.0546815
40
0.6133812
50
152.4742815
51
177.8953239
0
ARC
8
DEFAULT_255_2_778
10
25.222921
20
3.9426034
40
2.075879
50
176.2822045
51
178.8600816
0
ARC
8
DEFAULT_255_2_778
10
24.7286684
20
3.9545256
40
1.5814884
50
178.9356979
51
179.9871684
0
ARC
8
DEFAULT_255_2_778
10
24.1095988
20
3.9459314
40
0.9624603
50
179.4672864
51
187.3855787
0
ARC
8
DEFAULT_255_2_778
10
23.4912489
20
3.8604722
40
0.338296
50
186.4940347
51
203.7922221
0
ARC
8
DEFAULT_255_2_778
10
23.3143604
20
3.786998
40
0.1468575
50
205.403989
51
215.840675
0
ARC
8
DEFAULT_255_2_778
10
23.1469906
20
3.7623307
40
0.0780723
50
266.5523016
51
308.2368712
0
ARC
8
DEFAULT_255_2_778
10
23.1343306
20
3.8997652
40
0.2155128
50
269.9685874
51
272.1180141
0
ARC
8
DEFAULT_255_2_778
10
23.1383013
20
4.0514168
40
0.3671872
50
261.2448091
51
269.361967
0
ARC
8
DEFAULT_255_2_778
10
23.1240152
20
3.8813132
40
0.1972429
50
225.9195803
51
257.8231072
0
ARC
8
DEFAULT_255_2_778
10
23.4652358
20
4.2735797
40
0.7169469
50
216.4813751
51
228.1391223
0
ARC
8
DEFAULT_255_2_778
10
23.9310796
20
4.6442613
40
1.3120711
50
215.9642332
51
217.401671
0
ARC
8
DEFAULT_255_2_778
10
23.5331321
20
4.3303353
40
0.805874
50
198.4717687
51
214.5151065
0
ARC
8
DEFAULT_255_2_778
10
23.8870175
20
4.4680643
40
1.1853092
50
198.4313041
51
199.3665012
0
ARC
8
DEFAULT_255_2_778
10
23.7106991
20
4.4192858
40
1.0026579
50
183.2061714
51
198.9724561
0
ARC
8
DEFAULT_255_2_778
10
21.8419931
20
7.8152588
40
3.5594121
50
278.4414596
51
284.1081547
0
ARC
8
DEFAULT_255_2_778
10
22.1902741
20
5.9306057
40
1.6454486
50
270.0622082
51
276.0784448
0
ARC
8
DEFAULT_255_2_778
10
22.190697
20
5.7574948
40
1.4723373
50
263.5738987
51
270.0530641
0
ARC
8
DEFAULT_255_2_778
10
18.2226017
20
3.7014665
40
3.8492516
50
6.6964359
51
8.8611669
0
ARC
8
DEFAULT_255_2_778
10
12.9728871
20
3.0673487
40
9.1371131
50
5.7949215
51
6.8069756
0
ARC
8
DEFAULT_255_2_778
10
5.2602935
20
2.2788248
40
16.8899094
50
5.1428008
51
5.814489
0
ARC
8
DEFAULT_255_2_778
10
-23.736951
20
-0.3552369
40
46.0065413
50
4.7201344
51
5.172931
0
ARC
8
DEFAULT_255_2_778
10
-38.0255888
20
-1.5370916
40
60.3439731
50
4.3442631
51
4.7220832
0
ARC
8
DEFAULT_255_2_778
10
27.6805237
20
-64.0329327
40
67.2948961
50
94.5362905
51
94.7183415
0
ARC
8
DEFAULT_255_2_778
10
26.025044
20
-43.1488226
40
46.3452741
50
94.3047406
51
94.5380723
0
ARC
8
DEFAULT_255_2_778
10
22.8914586
20
-1.8869765
40
4.9646966
50
92.7646675
51
93.9864449
0
ARC
8
DEFAULT_255_2_778
10
22.7351526
20
1.4320396
40
1.6420092
50
90.3428489
51
92.903012
0
ARC
8
DEFAULT_255_2_778
10
22.7290313
20
2.6905082
40
0.3835291
50
85.5632952
51
90.553375
0
ARC
8
DEFAULT_255_2_778
10
22.7492244
20
2.9652669
40
0.1080375
50
81.1152028
51
84.9681995
0
ARC
8
DEFAULT_255_2_778
10
22.7435874
20
2.6385501
40
0.4340324
50
80.9543872
51
87.0518499
0
ARC
8
DEFAULT_255_2_778
10
22.5482209
20
1.1572724
40
1.9280178
50
81.8270633
51
82.1417074
0
ARC
8
DEFAULT_255_2_778
10
22.8095019
20
2.8724499
40
0.1936822
50
66.556417
51
86.2080977
0
ARC
8
DEFAULT_255_2_778
10
22.8683894
20
3.0169715
40
0.0378219
50
53.0770229
51
61.2911145
0
ARC
8
DEFAULT_255_2_778
10
26.0215239
20
7.1404032
40
5.1530315
50
232.5917908
51
234.5246126
0
ARC
8
DEFAULT_255_2_778
10
28.3543749
20
10.3815762
40
9.1464258
50
234.4070516
51
234.9220378
0
ARC
8
DEFAULT_255_2_778
10
22.9736633
20
2.7224729
40
0.2138123
50
39.5718475
51
54.4388004
0
ARC
8
DEFAULT_255_2_778
10
23.0963669
20
2.821305
40
0.0563035
50
3.956862
51
41.5925959
0
ARC
8
DEFAULT_255_2_778
10
23.1048298
20
2.8305393
40
0.0480053
50
289.5672488
51
353.6025116
0
ARC
8
DEFAULT_255_2_778
10
23.0097208
20
3.0115206
40
0.2520621
50
281.6013224
51
296.1745734
0
ARC
8
DEFAULT_255_2_778
10
22.5212126
20
4.8035439
40
2.1090268
50
283.4751852
51
284.8128156
0
ARC
8
DEFAULT_255_2_778
10
20.8188596
20
11.8605036
40
9.3684108
50
282.894632
51
283.5427433
0
ARC
8
DEFAULT_255_2_778
10
16.6753843
20
29.8795972
40
27.8577595
50
282.6297534
51
282.9313785
0
ARC
8
DEFAULT_255_2_778
10
12.167492
20
49.9256822
40
48.4044496
50
282.579036
51
282.6483845
0
ARC
8
DEFAULT_255_2_778
10
14.9116982
20
34.6262406
40
32.881096
50
282.8767549
51
283.7181417
0
ARC
8
DEFAULT_255_2_778
10
16.1813128
20
29.1207696
40
27.2311409
50
282.7177618
51
282.8541023
0
ARC
8
DEFAULT_255_2_778
10
254.5085641
20
18.4044696
40
232.8721588
50
183.9019467
51
183.9916688
0
ARC
8
DEFAULT_255_2_778
10
149.3011437
20
6.5894111
40
127.1758154
50
181.9806749
51
182.1362061
0
ARC
8
DEFAULT_255_2_778
10
26.812072
20
2.0414379
40
4.6023901
50
182.3975292
51
185.6840057
0
ARC
8
DEFAULT_255_2_778
10
17.0394783
20
1.3130839
40
5.1999786
50
1.3030099
51
3.0041745
0
ARC
8
DEFAULT_255_2_778
10
19.8972375
20
1.382976
40
2.3413742
50
0.0521755
51
1.1833721
0
LINE
8
DEFAULT_255_2_778
10
22.2386106
20
1.3851081
11
22.2386106
21
1.2845081
0
LINE
8
DEFAULT_255_2_778
10
22.2386106
20
1.2845081
11
22.2386106
21
1.1840081
0
ARC
8
DEFAULT_255_2_778
10
22.8551916
20
-0.8616217
40
2.136533
50
96.9730658
51
106.7735296
0
ARC
8
DEFAULT_255_2_778
10
23.3341085
20
-4.0392221
40
5.3495221
50
94.0851899
51
97.932822
0
ARC
8
DEFAULT_255_2_778
10
23.7458348
20
1.7634892
40
0.9200298
50
200.5252624
51
210.4877676
0
ARC
8
DEFAULT_255_2_778
10
23.3915677
20
1.6026382
40
0.5325109
50
179.1854891
51
197.6807139
0
ARC
8
DEFAULT_255_2_778
10
25.365433
20
1.617657
40
2.5063334
50
175.9331248
51
180.1702848
0
ARC
8
DEFAULT_255_2_778
10
22.3815439
20
1.8072852
40
0.4840124
50
358.593889
51
15.208893
0
ARC
8
DEFAULT_255_2_778
10
22.5958258
20
1.8571374
40
0.264282
50
16.9670336
51
18.1831568
0
ARC
8
DEFAULT_255_2_778
10
-16.8377379
20
-45.7168475
40
62.0162002
50
50.2150573
51
50.2762259
0
LINE
8
DEFAULT_255_2_778
10
22.7960102
20
1.9819479
11
22.7940106
21
1.9836081
0
ARC
8
DEFAULT_255_2_778
10
22.7968523
20
1.9895524
40
0.0065886
50
188.862062
51
244.4496984
0
ARC
8
DEFAULT_255_2_778
10
22.8068635
20
1.9800756
40
0.0185621
50
94.7252324
51
152.8794972
0
ARC
8
DEFAULT_255_2_778
10
22.8978308
20
1.6929219
40
0.3193417
50
98.5577848
51
106.8368338
0
ARC
8
DEFAULT_255_2_778
10
23.1436309
20
-1.7186619
40
3.7388934
50
91.2340575
51
94.4995406
0
ARC
8
DEFAULT_255_2_778
10
23.2099317
20
-4.1558906
40
6.1770002
50
89.9612375
51
91.36202
0
ARC
8
DEFAULT_255_2_778
10
23.2259511
20
1.7475144
40
0.2738498
50
64.3952783
51
92.4780761
0
ARC
8
DEFAULT_255_2_778
10
23.268512
20
1.8611228
40
0.1533797
50
354.5446266
51
60.3891118
0
ARC
8
DEFAULT_255_2_778
10
23.1132471
20
1.8466215
40
0.30795
50
358.0063136
51
359.9850097
0
ARC
8
DEFAULT_255_2_778
10
24.4185647
20
1.8483452
40
0.9976316
50
180.7143037
51
185.9446889
0
ARC
8
DEFAULT_255_2_778
10
26.552052
20
2.0554112
40
3.141127
50
185.6709113
51
188.2015262
0
ARC
8
DEFAULT_255_2_778
10
29.6924666
20
2.4919393
40
6.311716
50
188.0568885
51
189.0088353
0
ARC
8
DEFAULT_255_2_778
10
24.1811144
20
1.6042987
40
0.7294863
50
187.9338347
51
209.1606465
0
ARC
8
DEFAULT_255_2_778
10
23.9925615
20
1.5073562
40
0.5176452
50
209.959665
51
226.205178
0
LINE
8
DEFAULT_255_2_778
10
25.5941106
20
2.4034081
11
25.5877106
21
2.4034081
0
LINE
8
DEFAULT_255_2_778
10
25.5877106
20
2.4034081
11
25.5814106
21
2.3971081
0
ARC
8
DEFAULT_255_2_778
10
90.0688915
20
21.7352698
40
67.3245846
50
196.6926557
51
197.4742745
0
ARC
8
DEFAULT_255_2_778
10
77.7597518
20
16.8808768
40
54.133885
50
196.4854457
51
197.463931
0
ARC
8
DEFAULT_255_2_778
10
26.0821806
20
0.6235728
40
0.0405748
50
0.587717
51
16.3696016
0
ARC
8
DEFAULT_255_2_778
10
26.0788017
20
0.6310925
40
0.044522
50
270.1191623
51
350.8191752
0
ARC
8
DEFAULT_255_2_778
10
26.029751
20
0.7979057
40
0.2169737
50
275.9680635
51
283.0907738
0
ARC
8
DEFAULT_255_2_778
10
25.9917045
20
1.0193181
40
0.4413906
50
269.7948912
51
277.8920599
0
ARC
8
DEFAULT_255_2_778
10
25.9983997
20
1.2900874
40
0.7122052
50
257.5955998
51
269.3342526
0
ARC
8
DEFAULT_255_2_778
10
26.1170876
20
2.1248101
40
1.5542306
50
248.7751278
51
259.9330763
0
ARC
8
DEFAULT_255_2_778
10
25.731696
20
1.0938415
40
0.4538886
50
229.5908498
51
247.0086437
0
ARC
8
DEFAULT_255_2_778
10
25.54065
20
0.8698381
40
0.1594809
50
200.645282
51
229.6845491
0
ARC
8
DEFAULT_255_2_778
10
64.3457387
20
13.1437655
40
40.8591784
50
196.4513397
51
197.5640668
0
ARC
8
DEFAULT_255_2_778
10
-49.143354
20
-20.7304615
40
77.5777285
50
16.7077829
51
17.2938135
0
ARC
8
DEFAULT_255_2_778
10
24.9380874
20
4.5218582
40
2.1906766
50
265.6102252
51
269.7181391
0
ARC
8
DEFAULT_255_2_778
10
24.7675375
20
4.2229832
40
1.8853773
50
265.3139679
51
270.0873117
0
ARC
8
DEFAULT_255_2_778
10
-27.6767895
20
-1.3859757
40
52.4231582
50
3.0948574
51
4.0800159
0
ARC
8
DEFAULT_255_2_778
10
-34.5075732
20
-1.8852153
40
59.2710749
50
2.3463117
51
3.2202573
0
ARC
8
DEFAULT_255_2_778
10
24.6769827
20
0.550924
40
0.0380626
50
262.8788626
51
345.3665199
0
ARC
8
DEFAULT_255_2_778
10
24.6296352
20
0.807555
40
0.2974703
50
269.2825906
51
278.23913
0
ARC
8
DEFAULT_255_2_778
10
24.6306807
20
0.617013
40
0.1070113
50
250.074026
51
267.4451765
0
ARC
8
DEFAULT_255_2_778
10
24.6583454
20
1.6650306
40
1.1504117
50
253.7802813
51
266.8041356
0
ARC
8
DEFAULT_255_2_778
10
24.6725866
20
1.5995598
40
1.0919925
50
240.5992323
51
252.1030416
0
ARC
8
DEFAULT_255_2_778
10
24.2366431
20
0.826347
40
0.2043526
50
208.8358658
51
240.6595204
0
ARC
8
DEFAULT_255_2_778
10
24.1416392
20
0.7677477
40
0.0930296
50
180.270739
51
205.4386725
0
ARC
8
DEFAULT_255_2_778
10
-28.9892902
20
-1.40103
40
53.0822062
50
2.3411084
51
3.3034734
0
ARC
8
DEFAULT_255_2_778
10
-123.4226556
20
-6.6522349
40
147.6613867
50
3.2261791
51
3.5723606
0
ARC
8
DEFAULT_255_2_778
10
-10.75111
20
-0.0306288
40
34.7986226
50
4.2502699
51
5.3589816
0
ARC
8
DEFAULT_255_2_778
10
-19.0646292
20
-0.8016262
40
43.1478127
50
5.3472718
51
6.2514251
0
ARC
8
DEFAULT_255_2_778
10
32.1392402
20
5.0320862
40
8.3897954
50
185.1039296
51
187.7769243
0
ARC
8
DEFAULT_255_2_778
10
22.6851884
20
4.1695447
40
1.1036526
50
6.0417795
51
26.8669809
0
ARC
8
DEFAULT_255_2_778
10
23.7183037
20
4.6938454
40
0.0548948
50
180.4564346
51
207.7234483
0
ARC
8
DEFAULT_255_2_778
10
23.7008351
20
4.6880519
40
0.0378059
50
84.3133687
51
171.8550906
0
ARC
8
DEFAULT_255_2_778
10
23.7345786
20
4.5185313
40
0.2093011
50
89.4458583
51
98.2400919
0
ARC
8
DEFAULT_255_2_778
10
23.7334717
20
4.2684735
40
0.4593597
50
83.871717
51
89.6094572
0
ARC
8
DEFAULT_255_2_778
10
23.2263562
20
-1.8177008
40
6.5665032
50
84.1495972
51
85.1414747
0
ARC
8
DEFAULT_255_2_778
10
23.8040649
20
3.7441728
40
0.9747433
50
81.0348092
51
84.6063145
0
ARC
8
DEFAULT_255_2_778
10
23.9273474
20
4.5473546
40
0.1621976
50
79.0667746
51
79.8383137
0
ARC
8
DEFAULT_255_2_778
10
23.3990025
20
2.7989532
40
1.9879006
50
69.0107437
51
73.6648457
0
ARC
8
DEFAULT_255_2_778
10
22.8815823
20
1.4002531
40
3.479176
50
68.2394713
51
69.3057932
0
ARC
8
DEFAULT_255_2_778
10
24.0798841
20
4.3459444
40
0.2998729
50
29.5657122
51
72.2287352
0
ARC
8
DEFAULT_255_2_778
10
22.7736677
20
3.7149628
40
1.7499655
50
24.5124655
51
26.4310405
0
ARC
8
DEFAULT_255_2_778
10
24.2531093
20
4.3676242
40
0.134571
50
12.6559309
51
33.0463815
0
ARC
8
DEFAULT_255_2_778
10
25.6580255
20
2.220793
40
2.5215951
50
116.4412287
51
120.336863
0
ARC
8
DEFAULT_255_2_778
10
25.5579457
20
2.6051379
40
2.1344502
50
114.4997942
51
118.6303082
0
ARC
8
DEFAULT_255_2_778
10
23.4380115
20
7.0824072
40
2.8197428
50
295.9707325
51
302.6722785
0
ARC
8
DEFAULT_255_2_778
10
22.9710091
20
7.8383049
40
3.7081699
50
302.4412978
51
303.7286839
0
ARC
8
DEFAULT_255_2_778
10
25.5185415
20
4.0912786
40
0.8235718
50
103.3424345
51
126.3833889
0
ARC
8
DEFAULT_255_2_778
10
25.47251
20
4.2443055
40
0.6641203
50
95.7294075
51
102.5249799
0
LINE
8
DEFAULT_255_2_778
10
25.4062106
20
4.9051081
11
25.4750106
21
4.9051081
0
ARC
8
DEFAULT_255_2_778
10
25.4664036
20
4.1754466
40
0.7297123
50
61.5787367
51
89.3241755
0
ARC
8
DEFAULT_255_2_778
10
25.3464136
20
3.9068425
40
1.0232947
50
44.155415
51
62.8282515
0
ARC
8
DEFAULT_255_2_778
10
25.5005096
20
4.0688679
40
0.7999197
50
36.2002832
51
43.5178377
0
ARC
8
DEFAULT_255_2_778
10
25.9419741
20
4.3692637
40
0.2668898
50
1.9420149
51
40.137718
0
ARC
8
DEFAULT_255_2_778
10
25.972747
20
4.3800185
40
0.2359698
50
346.6187368
51
359.5846864
0
ARC
8
DEFAULT_255_2_778
10
34.9826859
20
2.1483975
40
9.0462349
50
166.0748696
51
167.5431569
0
ARC
8
DEFAULT_255_2_778
10
2.8601769
20
8.2394274
40
23.6542952
50
348.3120494
51
349.9208065
0
ARC
8
DEFAULT_255_2_778
10
20.9474671
20
4.514631
40
5.1874893
50
340.8639537
51
348.1288842
0
ARC
8
DEFAULT_255_2_778
10
23.714764
20
3.6001318
40
2.2737314
50
333.3988778
51
339.775608
0
ARC
8
DEFAULT_255_2_778
10
25.3800531
20
2.7413518
40
0.4007942
50
300.7224259
51
336.5736513
0
LINE
8
DEFAULT_255_2_778
10
24.4966106
20
3.7454081
11
24.4966106
21
3.7015081
0
ARC
8
DEFAULT_255_2_778
10
24.7361392
20
3.703209
40
0.2395346
50
180.4068634
51
193.1761713
0
ARC
8
DEFAULT_255_2_778
10
10.7829775
20
1.9838331
40
13.8205659
50
5.1932623
51
6.9184408
0
ARC
8
DEFAULT_255_2_778
10
8.1951549
20
1.8055347
40
16.4140021
50
3.5245595
51
4.9954408
0
ARC
8
DEFAULT_255_2_778
10
22.1126992
20
-18.8082334
40
21.7629393
50
82.3638133
51
83.4952919
0
LINE
8
DEFAULT_255_2_778
10
25.0046106
20
2.7617081
11
25.0609106
21
2.7617081
0
ARC
8
DEFAULT_255_2_778
10
25.0743324
20
2.9668985
40
0.2056289
50
266.2575274
51
346.4176591
0
ARC
8
DEFAULT_255_2_778
10
23.4022573
20
3.3992837
40
1.9326816
50
345.5988607
51
354.8413267
0
ARC
8
DEFAULT_255_2_778
10
27.3078288
20
3.1519176
40
1.9820848
50
168.6201417
51
177.8722419
0
ARC
8
DEFAULT_255_2_778
10
34.6663019
20
1.8674421
40
9.4513026
50
167.6556249
51
169.7883921
0
ARC
8
DEFAULT_255_2_778
10
-72.9241657
20
21.6340279
40
99.9457539
50
349.772534
51
349.9769931
0
ARC
8
DEFAULT_255_2_778
10
27.4398169
20
0.8016468
40
3.9488917
50
119.4846475
51
124.310591
0
ARC
8
DEFAULT_255_2_778
10
23.0974901
20
7.3596328
40
3.9171843
50
299.4727022
51
302.703469
0
ARC
8
DEFAULT_255_2_778
10
23.8169713
20
6.1006222
40
2.4671205
50
297.8474582
51
299.311787
0
ARC
8
DEFAULT_255_2_778
10
27.9570973
20
-1.7239633
40
6.3852686
50
117.8982646
51
120.2152543
0
ARC
8
DEFAULT_255_2_778
10
24.5443427
20
4.0944587
40
0.3607469
50
270.7669663
51
303.549228
0
ARC
8
DEFAULT_255_2_778
10
24.5494051
20
4.0703011
40
0.3365571
50
261.4228505
51
269.9602354
0
LINE
8
DEFAULT_255_2_778
10
15.4454106
20
10.0753081
11
15.4539106
21
10.0809081
0
LINE
8
DEFAULT_255_2_778
10
18.0791106
20
8.0486081
11
18.0878106
21
8.0552081
0
LINE
8
DEFAULT_255_2_778
10
16.9935106
20
9.3892081
11
16.9903106
21
9.3972081
0
LINE
8
DEFAULT_255_2_778
10
21.1694106
20
6.7852081
11
21.1729106
21
6.7884081
0
LINE
8
DEFAULT_255_2_778
10
23.5655106
20
6.7852081
11
23.5684106
21
6.7884081
0
LINE
8
DEFAULT_255_2_778
10
13.5560106
20
0.9779081
11
13.5537106
21
0.9713081
0
LINE
8
DEFAULT_255_2_778
10
15.0718106
20
1.1739081
11
15.0716106
21
1.1745081
0
LINE
8
DEFAULT_255_2_778
10
15.7844106
20
4.3577081
11
15.7865106
21
4.3537081
0
LINE
8
DEFAULT_255_2_778
10
17.0411106
20
2.6948081
11
17.0401106
21
2.6982081
0
LINE
8
DEFAULT_255_2_778
10
18.4657106
20
2.6080081
11
18.4635106
21
2.6103081
0
LINE
8
DEFAULT_255_2_778
10
20.3979106
20
4.1314081
11
20.4013106
21
4.1344081
0
LINE
8
DEFAULT_255_2_778
10
21.1422106
20
4.3524081
11
21.1414106
21
4.3476081
0
LINE
8
DEFAULT_255_2_778
10
23.6343106
20
1.1337081
11
23.6372106
21
1.1369081
0
LINE
8
DEFAULT_255_2_778
10
25.5848106
20
2.3968081
11
25.5941106
21
2.4034081
0
LINE
8
DEFAULT_255_2_778
10
24.4992106
20
3.7375081
11
24.4966106
21
3.7454081
0
ENDSEC
0
EOF