0
SECTION
2
HEADER
9
$MEASUREMENT
70
1
0
ENDSEC
0
SECTION
2
TABLES
0
TABLE
2
LTYPE
0
LTYPE
72
65
70
64
2
CONTINUOUS
3
______
73
0
40
0
0
ENDTAB
0
TABLE
2
LAYER
0
LAYER
2
DEFAULT_255_2_778
70
0
62
255
6
CONTINUOUS
0
ENDTAB
0
ENDSEC
0
SECTION
2
ENTITIES
0
LINE
8
DEFAULT_255_2_778
10
15.4914772
20
9.7574645
11
15.0943772
21
9.6423645
0
ARC
8
DEFAULT_255_2_778
10
30.1406373
20
-42.2491639
40
54.0288873
50
106.1698336
51
106.6265161
0
ARC
8
DEFAULT_255_2_778
10
34.1267422
20
-55.6032155
40
67.965161
50
106.6251905
51
107.0170805
0
ARC
8
DEFAULT_255_2_778
10
-41.248886
20
2.8966695
40
55.8633886
50
6.1004711
51
6.6710569
0
ARC
8
DEFAULT_255_2_778
10
-29.1849294
20
4.187612
40
43.7305581
50
5.5386466
51
6.0984164
0
ARC
8
DEFAULT_255_2_778
10
-19.8524139
20
5.0912608
40
34.3543954
50
4.8833565
51
5.5408443
0
ARC
8
DEFAULT_255_2_778
10
-105.994723
20
0.4838654
40
120.6074125
50
3.3182167
51
3.5804352
0
ARC
8
DEFAULT_255_2_778
10
-75.7915164
20
2.2329098
40
90.3536053
50
3.0042928
51
3.3195439
0
ARC
8
DEFAULT_255_2_778
10
-61.1534587
20
3.0119453
40
75.694837
50
2.9454711
51
2.9961384
0
ARC
8
DEFAULT_255_2_778
10
14.0090506
20
16.7441158
40
9.8520415
50
272.5150571
51
275.6516346
0
ARC
8
DEFAULT_255_2_778
10
14.1066359
20
24.7129346
40
17.7943803
50
272.8109284
51
273.5857174
0
ARC
8
DEFAULT_255_2_778
10
14.4980585
20
18.5003963
40
11.5695239
50
273.5752508
51
274.6077273
0
ARC
8
DEFAULT_255_2_778
10
15.5301729
20
5.7247654
40
1.2477326
50
89.9957201
51
94.7211178
0
ARC
8
DEFAULT_255_2_778
10
15.529096
20
5.6782147
40
1.2942838
50
80.7215309
51
89.9482018
0
ARC
8
DEFAULT_255_2_778
10
15.7012995
20
6.3053504
40
0.6512365
50
70.9811615
51
86.789015
0
ARC
8
DEFAULT_255_2_778
10
15.8051521
20
6.6169117
40
0.3228567
50
54.2289566
51
70.3870113
0
ARC
8
DEFAULT_255_2_778
10
-52.896372
20
-73.3741373
40
105.7658297
50
49.0910092
51
49.3567677
0
ARC
8
DEFAULT_255_2_778
10
16.1315982
20
6.3044661
40
0.3452069
50
35.9342272
51
47.373667
0
ARC
8
DEFAULT_255_2_778
10
16.3111877
20
6.4313107
40
0.1253841
50
11.2138963
51
37.1627583
0
ARC
8
DEFAULT_255_2_778
10
16.3650616
20
6.4448814
40
0.0699571
50
0.1137048
51
8.8917052
0
ARC
8
DEFAULT_255_2_778
10
16.3590865
20
6.4498108
40
0.076083
50
293.6638633
51
356.3899145
0
ARC
8
DEFAULT_255_2_778
10
16.2448621
20
6.6465004
40
0.3031694
50
282.6580867
51
298.5219127
0
ARC
8
DEFAULT_255_2_778
10
16.1520784
20
6.9960105
40
0.6646629
50
279.6047072
51
283.8598085
0
ARC
8
DEFAULT_255_2_778
10
45.3963351
20
-129.47089
40
138.9011552
50
102.1072129
51
102.1888048
0
ARC
8
DEFAULT_255_2_778
10
75.306986
20
-267.9940173
40
280.6167286
50
102.1866536
51
102.237221
0
ARC
8
DEFAULT_255_2_778
10
100.3721507
20
-383.6336789
40
398.9416779
50
102.2350229
51
102.2407056
0
ARC
8
DEFAULT_255_2_778
10
28.1730924
20
-50.83659
40
58.4029777
50
102.2423778
51
102.8215536
0
ARC
8
DEFAULT_255_2_778
10
-242.0619725
20
1294.5001748
40
1313.8260968
50
281.2755856
51
281.2926796
0
ARC
8
DEFAULT_255_2_778
10
12.8762431
20
13.3034126
40
7.5274293
50
282.1198138
51
285.0290955
0
ARC
8
DEFAULT_255_2_778
10
13.1932722
20
5.7641761
40
1.2761051
50
0.0219316
51
8.0901897
0
LINE
8
DEFAULT_255_2_778
10
14.4693772
20
5.7646645
11
14.4693772
21
5.5855645
0
ARC
8
DEFAULT_255_2_778
10
346.4736724
20
12.0461792
40
332.0671492
50
181.1148026
51
181.3425252
0
LINE
8
DEFAULT_255_2_778
10
14.4976772
20
4.2660645
11
14.4976772
21
2.9465645
0
ARC
8
DEFAULT_255_2_778
10
17.2456382
20
2.9605823
40
2.7479968
50
180.2922713
51
183.6099491
0
ARC
8
DEFAULT_255_2_778
10
20.6293805
20
3.1619026
40
6.1377129
50
183.4966922
51
185.3672318
0
ARC
8
DEFAULT_255_2_778
10
23.9417552
20
3.4579183
40
9.4632662
50
185.2756984
51
185.7423783
0
ARC
8
DEFAULT_255_2_778
10
13.091091
20
2.3635833
40
1.4424455
50
1.3455421
51
5.8684002
0
ARC
8
DEFAULT_255_2_778
10
13.376638
20
2.3728826
40
1.1567618
50
0.008065
51
1.2171785
0
ARC
8
DEFAULT_255_2_778
10
13.7440099
20
2.3638487
40
0.7894434
50
348.3066784
51
0.6674864
0
ARC
8
DEFAULT_255_2_778
10
14.1076202
20
2.2884532
40
0.4180987
50
331.3924582
51
348.3254184
0
ARC
8
DEFAULT_255_2_778
10
14.1879463
20
2.2266721
40
0.3183886
50
265.7366901
51
334.2329803
0
ARC
8
DEFAULT_255_2_778
10
14.1748031
20
2.4926882
40
0.5836186
50
252.053895
51
268.9665848
0
ARC
8
DEFAULT_255_2_778
10
15.2343442
20
6.9417529
40
5.155476
50
253.047601
51
256.0899581
0
ARC
8
DEFAULT_255_2_778
10
14.5189669
20
4.6105533
40
2.7169893
50
248.4563281
51
253.143927
0
ARC
8
DEFAULT_255_2_778
10
14.1000966
20
3.5339935
40
1.5618372
50
245.1675236
51
248.2466126
0
ARC
8
DEFAULT_255_2_778
10
14.0589461
20
3.4628888
40
1.4800438
50
239.7315613
51
245.4572498
0
ARC
8
DEFAULT_255_2_778
10
14.951826
20
5.0119654
40
3.2680119
50
236.527073
51
239.9008971
0
ARC
8
DEFAULT_255_2_778
10
13.2973683
20
2.5808845
40
0.3299684
50
223.6985391
51
243.3524697
0
ARC
8
DEFAULT_255_2_778
10
13.1604587
20
2.4519613
40
0.1419233
50
180.9480325
51
224.2542141
0
ARC
8
DEFAULT_255_2_778
10
13.1912976
20
2.4457945
40
0.172785
50
152.4919649
51
178.7336112
0
ARC
8
DEFAULT_255_2_778
10
13.2784911
20
2.4074761
40
0.2678929
50
149.7918495
51
153.8365179
0
ARC
8
DEFAULT_255_2_778
10
13.0430218
20
2.5889597
40
0.0468624
50
274.8418059
51
313.4957749
0
ARC
8
DEFAULT_255_2_778
10
13.0451416
20
2.6358718
40
0.0863374
50
290.4288941
51
322.54313
0
ARC
8
DEFAULT_255_2_778
10
12.5459059
20
2.7858873
40
0.6028099
50
340.3687981
51
350.6189043
0
ARC
8
DEFAULT_255_2_778
10
11.7638985
20
2.9238676
40
1.3968765
50
350.2633891
51
355.8900002
0
ARC
8
DEFAULT_255_2_778
10
10.4651037
20
3.0235348
40
2.6994816
50
355.755769
51
359.2508433
0
ARC
8
DEFAULT_255_2_778
10
9.2484833
20
3.049445
40
3.9163496
50
359.104532
51
0.0127765
0
ARC
8
DEFAULT_255_2_778
10
8.1557382
20
3.046777
40
5.0090958
50
0.040507
51
1.5339435
0
ARC
8
DEFAULT_255_2_778
10
6.5664025
20
3.0061065
40
6.598951
50
1.5175403
51
2.5529732
0
ARC
8
DEFAULT_255_2_778
10
4.8531702
20
2.9301757
40
8.313865
50
2.5498229
51
3.4374447
0
ARC
8
DEFAULT_255_2_778
10
97.7027805
20
8.6134274
40
84.7095224
50
183.3396283
51
183.5090603
0
ARC
8
DEFAULT_255_2_778
10
58.7785667
20
6.3440229
40
45.7192082
50
183.1138728
51
183.3420852
0
ARC
8
DEFAULT_255_2_778
10
33.997613
20
5.0021751
40
20.9019533
50
182.6978789
51
183.131003
0
ARC
8
DEFAULT_255_2_778
10
20.6488158
20
4.3756549
40
7.5384621
50
182.0040734
51
182.7168427
0
ARC
8
DEFAULT_255_2_778
10
14.9988993
20
4.1825885
40
1.8852555
50
180.3411139
51
182.1448566
0
LINE
8
DEFAULT_255_2_778
10
13.1136772
20
4.1713645
11
13.1136772
21
5.1190645
0
ARC
8
DEFAULT_255_2_778
10
-141.2859551
20
0.9832271
40
154.4550149
50
1.5343908
51
1.8861387
0
ARC
8
DEFAULT_255_2_778
10
28.3747466
20
26.5859747
40
25.5890347
50
233.0226952
51
233.3091628
0
ARC
8
DEFAULT_255_2_778
10
11.6711535
20
4.3998218
40
2.1820908
50
53.0457307
51
55.9393587
0
ARC
8
DEFAULT_255_2_778
10
12.4250548
20
5.8467059
40
0.591144
50
37.6214086
51
41.5483536
0
ARC
8
DEFAULT_255_2_778
10
9.8394204
20
3.5968475
40
4.0185665
50
41.1043448
51
42.323979
0
ARC
8
DEFAULT_255_2_778
10
3.567607
20
-2.0881787
40
12.4834966
50
42.2334263
51
42.7091319
0
ARC
8
DEFAULT_255_2_778
10
-6.7201547
20
-11.5762648
40
26.4785599
50
42.6960564
51
42.9840097
0
ARC
8
DEFAULT_255_2_778
10
13.3621446
20
7.1238429
40
0.9622265
50
216.1241312
51
222.2668319
0
ARC
8
DEFAULT_255_2_778
10
12.8842671
20
6.7791809
40
0.3730488
50
204.569424
51
216.6353442
0
ARC
8
DEFAULT_255_2_778
10
12.6543362
20
6.67571
40
0.1209229
50
182.3030051
51
205.2810179
0
ARC
8
DEFAULT_255_2_778
10
12.5902655
20
6.6703163
40
0.0567569
50
97.1910629
51
179.4603887
0
ARC
8
DEFAULT_255_2_778
10
12.6327186
20
6.5393842
40
0.1936897
50
93.2383331
51
104.8246708
0
ARC
8
DEFAULT_255_2_778
10
10.0609374
20
27.322991
40
20.7488633
50
277.0895639
51
277.6968756
0
ARC
8
DEFAULT_255_2_778
10
13.0515681
20
5.0045435
40
1.7692312
50
89.8053972
51
96.871981
0
ARC
8
DEFAULT_255_2_778
10
-5.3264866
20
6.312193
40
18.3898573
50
1.4382318
51
4.5160013
0
ARC
8
DEFAULT_255_2_778
10
-1.4816239
20
6.9164798
40
14.5124458
50
3.3327839
51
7.194003
0
ARC
8
DEFAULT_255_2_778
10
88.5860834
20
19.0349981
40
76.3674506
50
187.5331273
51
187.7522047
0
ARC
8
DEFAULT_255_2_778
10
135.3021056
20
25.2190535
40
123.4910037
50
187.3783369
51
187.5360223
0
ARC
8
DEFAULT_255_2_778
10
167.7128557
20
29.431277
40
156.174323
50
187.3645775
51
187.3838898
0
ARC
8
DEFAULT_255_2_778
10
11.4272652
20
9.2939109
40
1.4046241
50
4.8416618
51
16.8637534
0
ARC
8
DEFAULT_255_2_778
10
11.9872441
20
9.4698508
40
0.8177076
50
16.4485263
51
38.7734748
0
ARC
8
DEFAULT_255_2_778
10
12.1238788
20
9.567327
40
0.6502101
50
39.6169313
51
44.9962131
0
ARC
8
DEFAULT_255_2_778
10
12.7416087
20
10.1686978
40
0.2121375
50
190.7277904
51
221.8858169
0
ARC
8
DEFAULT_255_2_778
10
12.6394397
20
10.1422871
40
0.1070626
50
180.0655663
51
187.0159345
0
ARC
8
DEFAULT_255_2_778
10
12.5828324
20
10.1445143
40
0.0505099
50
103.8080702
51
182.6664577
0
ARC
8
DEFAULT_255_2_778
10
12.7865775
20
9.7653535
40
0.4795148
50
89.7730039
51
116.7461735
0
ARC
8
DEFAULT_255_2_778
10
12.9961252
20
13.4258467
40
3.1877524
50
266.2651489
51
269.9948416
0
ARC
8
DEFAULT_255_2_778
10
12.9917151
20
13.4449905
40
3.2068988
50
270.0736649
51
287.4612086
0
ARC
8
DEFAULT_255_2_778
10
18.921099
20
-4.497425
40
15.690271
50
104.1174565
51
108.4558221
0
ARC
8
DEFAULT_255_2_778
10
15.4316498
20
9.2546331
40
1.5027381
50
90.1705274
51
102.98161
0
ARC
8
DEFAULT_255_2_778
10
15.4155818
20
9.2101302
40
1.5472778
50
70.0391675
51
89.5706185
0
ARC
8
DEFAULT_255_2_778
10
15.3115609
20
8.8726313
40
1.9000922
50
68.6447894
51
70.5651411
0
ARC
8
DEFAULT_255_2_778
10
15.1200552
20
8.3298319
40
2.4754352
50
55.0979968
51
69.0915696
0
ARC
8
DEFAULT_255_2_778
10
15.3133938
20
8.6221158
40
2.1251181
50
46.1814186
51
54.8641273
0
ARC
8
DEFAULT_255_2_778
10
16.6830919
20
10.0509965
40
0.1457857
50
16.0752663
51
45.7733451
0
ARC
8
DEFAULT_255_2_778
10
16.5934627
20
10.0139269
40
0.2424156
50
0.1743341
51
18.629152
0
ARC
8
DEFAULT_255_2_778
10
24.2076221
20
6.3088877
40
8.2507821
50
153.3113193
51
158.6286933
0
ARC
8
DEFAULT_255_2_778
10
23.3490707
20
6.6563267
40
7.3246634
50
158.7122626
51
160.0403229
0
ARC
8
DEFAULT_255_2_778
10
17.7632
20
8.6376493
40
1.3986842
50
158.2181327
51
180.2491463
0
ARC
8
DEFAULT_255_2_778
10
18.0385984
20
8.6366882
40
1.6740772
50
180.1752668
51
190.7864239
0
ARC
8
DEFAULT_255_2_778
10
18.3004639
20
8.6806251
40
1.9395475
50
190.6136959
51
193.3051065
0
ARC
8
DEFAULT_255_2_778
10
15.8062118
20
8.0669168
40
0.6294201
50
7.4660555
51
15.4190189
0
ARC
8
DEFAULT_255_2_778
10
16.076249
20
8.103787
40
0.3568843
50
0.2693578
51
7.2301607
0
ARC
8
DEFAULT_255_2_778
10
16.2734547
20
8.0978197
40
0.1598577
50
331.0265288
51
2.7411821
0
ARC
8
DEFAULT_255_2_778
10
16.3349491
20
8.0685201
40
0.0919607
50
302.7349885
51
328.4365209
0
ARC
8
DEFAULT_255_2_778
10
16.3550283
20
8.0442309
40
0.0607873
50
268.0025038
51
299.1927513
0
ARC
8
DEFAULT_255_2_778
10
16.3651286
20
8.1899342
40
0.2068149
50
244.1936777
51
266.6128514
0
ARC
8
DEFAULT_255_2_778
10
16.5848578
20
8.6936184
40
0.7562264
50
237.2399595
51
245.8193122
0
ARC
8
DEFAULT_255_2_778
10
17.0411827
20
9.4307883
40
1.623143
50
234.6887531
51
237.7749271
0
ARC
8
DEFAULT_255_2_778
10
16.9534713
20
9.3499717
40
1.5067009
50
222.5700417
51
235.6341991
0
ARC
8
DEFAULT_255_2_778
10
16.6552782
20
9.0676473
40
1.096124
50
212.5642152
51
222.2463195
0
ARC
8
DEFAULT_255_2_778
10
16.8882993
20
9.3440919
40
1.4453144
50
202.0287984
51
216.8321838
0
ARC
8
DEFAULT_255_2_778
10
16.6206226
20
9.2248706
40
1.152507
50
198.3433371
51
201.5257126
0
ARC
8
DEFAULT_255_2_778
10
17.0773356
20
9.4260331
40
1.6499967
50
190.1943818
51
199.9828713
0
ARC
8
DEFAULT_255_2_778
10
16.6085302
20
9.339508
40
1.1732805
50
180.2255219
51
190.0876245
0
ARC
8
DEFAULT_255_2_778
10
16.3693838
20
9.3374747
40
0.9341286
50
169.8143366
51
180.1585456
0
LINE
8
DEFAULT_255_2_778
10
15.4499772
20
9.5026645
11
15.4882772
21
9.7717645
0
LINE
8
DEFAULT_255_2_778
10
20.8712772
20
5.6175645
11
20.8585772
21
5.6175645
0
LINE
8
DEFAULT_255_2_778
10
20.8585772
20
5.6175645
11
20.8458772
21
5.6048645
0
ARC
8
DEFAULT_255_2_778
10
154.1171942
20
45.5570134
40
139.1309388
50
196.6877082
51
197.4602655
0
ARC
8
DEFAULT_255_2_778
10
133.2596361
20
36.908532
40
116.656465
50
196.4819398
51
197.4094325
0
ARC
8
DEFAULT_255_2_778
10
21.8708015
20
1.9799467
40
0.0803363
50
0.787242
51
18.294606
0
ARC
8
DEFAULT_255_2_778
10
21.8827388
20
1.9864697
40
0.0686059
50
279.8447655
51
355.4695008
0
ARC
8
DEFAULT_255_2_778
10
21.7881537
20
2.2516622
40
0.3493578
50
272.9408008
51
287.7170247
0
ARC
8
DEFAULT_255_2_778
10
21.6826327
20
2.7052003
40
0.8118754
50
269.7749582
51
278.7456638
0
ARC
8
DEFAULT_255_2_778
10
21.6886246
20
3.1042081
40
1.2109117
50
259.3599429
51
269.5655998
0
ARC
8
DEFAULT_255_2_778
10
21.7663068
20
3.5755127
40
1.6884897
50
256.8849771
51
259.7221603
0
ARC
8
DEFAULT_255_2_778
10
21.8967541
20
4.8267317
40
2.9408587
50
247.9766346
51
259.9425806
0
ARC
8
DEFAULT_255_2_778
10
21.2406952
20
3.1136767
40
1.1073192
50
235.5965406
51
246.2076593
0
ARC
8
DEFAULT_255_2_778
10
20.8745051
20
2.5901507
40
0.4685079
50
214.9849326
51
236.3712914
0
ARC
8
DEFAULT_255_2_778
10
20.7076533
20
2.4659982
40
0.2606918
50
198.8050455
51
213.6546428
0
ARC
8
DEFAULT_255_2_778
10
98.4676577
20
27.0551706
40
81.8157986
50
196.4152681
51
197.5519369
0
ARC
8
DEFAULT_255_2_778
10
-133.6410991
20
-42.1477354
40
160.3903835
50
16.6970671
51
17.2768899
0
ARC
8
DEFAULT_255_2_778
10
19.5242989
20
9.6756019
40
4.1890537
50
266.6495425
51
269.8396765
0
ARC
8
DEFAULT_255_2_778
10
19.6154901
20
11.4618177
40
5.977561
50
265.9390857
51
266.7775693
0
ARC
8
DEFAULT_255_2_778
10
19.1836227
20
9.3313792
40
3.8321242
50
265.3322993
51
270.1279025
0
ARC
8
DEFAULT_255_2_778
10
-102.7042178
20
-3.0375362
40
121.8762344
50
3.1585125
51
4.0225476
0
ARC
8
DEFAULT_255_2_778
10
-101.4930702
20
-3.1061025
40
120.6707803
50
2.3459198
51
3.2227043
0
ARC
8
DEFAULT_255_2_778
10
19.018226
20
1.8409913
40
0.0588606
50
274.665283
51
352.4568863
0
ARC
8
DEFAULT_255_2_778
10
18.9197229
20
2.1874879
40
0.4181212
50
269.6735708
51
284.3021085
0
ARC
8
DEFAULT_255_2_778
10
18.897762
20
2.6870032
40
0.9178387
50
269.9822243
51
271.2222946
0
ARC
8
DEFAULT_255_2_778
10
18.9026086
20
1.9626335
40
0.193537
50
249.0716636
51
268.4806859
0
ARC
8
DEFAULT_255_2_778
10
18.9590175
20
4.0978533
40
2.3193887
50
253.7111937
51
266.8972667
0
ARC
8
DEFAULT_255_2_778
10
19.0430148
20
4.1186485
40
2.3640921
50
242.6252416
51
251.8982189
0
ARC
8
DEFAULT_255_2_778
10
18.8197438
20
3.665128
40
1.8587242
50
240.2948361
51
242.3088506
0
ARC
8
DEFAULT_255_2_778
10
18.1725037
20
2.4991375
40
0.5254607
50
220.5337048
51
238.5927951
0
ARC
8
DEFAULT_255_2_778
10
17.9342647
20
2.2996403
40
0.2147651
50
181.5410701
51
221.3895198
0
ARC
8
DEFAULT_255_2_778
10
-99.2544547
20
-2.563843
40
117.0748541
50
2.3780176
51
3.2691701
0
ARC
8
DEFAULT_255_2_778
10
3999.0014014
20
229.1426615
40
3987.725888
50
183.2087802
51
183.2349585
0
ARC
8
DEFAULT_255_2_778
10
-53.5504471
20
0.6523432
40
71.2737157
50
4.2478509
51
5.3534692
0
ARC
8
DEFAULT_255_2_778
10
-58.2679849
20
0.2850669
40
76.0049792
50
5.2973298
51
6.3453129
0
ARC
8
DEFAULT_255_2_778
10
33.2361545
20
10.8812412
40
16.115113
50
185.8251971
51
187.8323162
0
ARC
8
DEFAULT_255_2_778
10
36.4916546
20
11.2263341
40
19.3888313
50
185.1691696
51
185.8633111
0
ARC
8
DEFAULT_255_2_778
10
14.7957697
20
9.2115319
40
2.4009046
50
6.407357
51
19.7839282
0
ARC
8
DEFAULT_255_2_778
10
15.1495149
20
9.3293634
40
2.0281754
50
20.0341391
51
27.3375022
0
ARC
8
DEFAULT_255_2_778
10
17.0653776
20
10.3162584
40
0.1269697
50
181.8928467
51
205.9166954
0
ARC
8
DEFAULT_255_2_778
10
17.0026743
20
10.3081585
40
0.0643159
50
95.4239219
51
176.5181265
0
ARC
8
DEFAULT_255_2_778
10
17.0770236
20
10.0437969
40
0.3380953
50
88.5775913
51
103.7618844
0
ARC
8
DEFAULT_255_2_778
10
17.0823047
20
9.5600121
40
0.8217818
50
85.344501
51
89.7830682
0
ARC
8
DEFAULT_255_2_778
10
17.0548739
20
9.1817343
40
1.2010429
50
83.9395494
51
85.5049017
0
ARC
8
DEFAULT_255_2_778
10
14.0075917
20
-22.7476706
40
33.2754662
50
84.2963777
51
84.5263387
0
ARC
8
DEFAULT_255_2_778
10
15.9379233
20
-3.4978082
40
13.9290648
50
83.7875979
51
84.3279382
0
ARC
8
DEFAULT_255_2_778
10
17.0839517
20
6.9744279
40
3.3943147
50
82.5484812
51
83.8897236
0
ARC
8
DEFAULT_255_2_778
10
17.419644
20
9.5592975
40
0.787743
50
81.1985528
51
82.3763064
0
ARC
8
DEFAULT_255_2_778
10
16.5616379
20
6.9720458
40
3.5050823
50
70.3795412
51
73.7888923
0
ARC
8
DEFAULT_255_2_778
10
15.6297824
20
4.3386596
40
6.2984768
50
68.1329403
51
70.4387573
0
ARC
8
DEFAULT_255_2_778
10
17.7519894
20
9.5380193
40
0.6835799
50
45.9669733
51
70.8992664
0
ARC
8
DEFAULT_255_2_778
10
17.8465475
20
9.6486011
40
0.5384268
50
28.1070054
51
45.0218957
0
ARC
8
DEFAULT_255_2_778
10
17.0616967
20
9.207094
40
1.4388569
50
24.3288529
51
28.8907392
0
ARC
8
DEFAULT_255_2_778
10
18.1939316
20
9.6702325
40
0.2208851
50
10.4153171
51
35.9356017
0
ARC
8
DEFAULT_255_2_778
10
21.4834474
20
4.4481968
40
6.0932051
50
116.9547655
51
120.27909
0
ARC
8
DEFAULT_255_2_778
10
20.9216837
20
5.8383546
40
4.6012475
50
114.6451416
51
118.5663468
0
ARC
8
DEFAULT_255_2_778
10
16.3645909
20
15.3771791
40
5.9712204
50
296.2220056
51
300.8580446
0
ARC
8
DEFAULT_255_2_778
10
15.4359264
20
16.9508763
40
7.7984765
50
300.7848236
51
303.4390801
0
ARC
8
DEFAULT_255_2_778
10
20.8617296
20
8.8539587
40
1.9491788
50
112.8247017
51
125.3758344
0
ARC
8
DEFAULT_255_2_778
10
20.6621876
20
9.3251837
40
1.437448
50
96.4031922
51
112.7799516
0
LINE
8
DEFAULT_255_2_778
10
20.5018772
20
10.7536645
11
20.6428772
21
10.7536645
0
ARC
8
DEFAULT_255_2_778
10
20.6327871
20
9.3098178
40
1.443882
50
65.9650299
51
89.5996044
0
ARC
8
DEFAULT_255_2_778
10
20.500154
20
8.9672547
40
1.810858
50
62.5726701
51
66.5469176
0
ARC
8
DEFAULT_255_2_778
10
20.2871024
20
8.5708199
40
2.2608776
50
50.6155172
51
62.4080302
0
ARC
8
DEFAULT_255_2_778
10
20.6322934
20
8.9943337
40
1.7145116
50
36.3670935
51
50.5510698
0
ARC
8
DEFAULT_255_2_778
10
21.5060923
20
9.6112774
40
0.6454307
50
16.6589844
51
38.2618599
0
ARC
8
DEFAULT_255_2_778
10
21.6999469
20
9.6766367
40
0.4410321
50
0.1595181
51
15.7439961
0
ARC
8
DEFAULT_255_2_778
10
21.7178539
20
9.6783542
40
0.4231236
50
345.9264698
51
359.9336949
0
ARC
8
DEFAULT_255_2_778
10
30.8027757
20
7.4168307
40
8.9390505
50
166.0258811
51
168.1372846
0
ARC
8
DEFAULT_255_2_778
10
34.0264776
20
6.7245743
40
12.2362179
50
168.0680597
51
168.7379565
0
ARC
8
DEFAULT_255_2_778
10
-21.2503252
20
16.7536141
40
43.9452996
50
348.3329824
51
349.9889738
0
ARC
8
DEFAULT_255_2_778
10
-24.1919938
20
17.3466377
40
46.9461169
50
348.2445353
51
348.350195
0
ARC
8
DEFAULT_255_2_778
10
11.2453574
20
10.0016322
40
10.7556301
50
340.9341988
51
348.0906813
0
ARC
8
DEFAULT_255_2_778
10
16.9575682
20
8.1307476
40
4.7466412
50
333.5183126
51
339.7552798
0
ARC
8
DEFAULT_255_2_778
10
20.4581386
20
6.3258507
40
0.8103764
50
300.7992674
51
337.3799111
0
LINE
8
DEFAULT_255_2_778
10
18.6299772
20
8.3583645
11
18.6299772
21
8.2686645
0
ARC
8
DEFAULT_255_2_778
10
19.0531005
20
8.2691542
40
0.4231236
50
180.0663051
51
194.0735302
0
ARC
8
DEFAULT_255_2_778
10
-9.3870486
20
4.764448
40
28.2354012
50
5.1948433
51
6.919837
0
ARC
8
DEFAULT_255_2_778
10
-13.0434209
20
4.5195814
40
31.8990454
50
3.4926095
51
5.0382218
0
ARC
8
DEFAULT_255_2_778
10
3.008175
20
-131.5848649
40
138.9476266
50
83.1139254
51
83.4755611
0
LINE
8
DEFAULT_255_2_778
10
19.6673772
20
6.3604645
11
19.7824772
21
6.3604645
0
ARC
8
DEFAULT_255_2_778
10
19.7963175
20
6.8358373
40
0.4755742
50
268.3323245
51
298.2681499
0
ARC
8
DEFAULT_255_2_778
10
19.8055977
20
6.778483
40
0.4210932
50
300.8528164
51
340.2474473
0
ARC
8
DEFAULT_255_2_778
10
19.5872753
20
6.8818565
40
0.6619234
50
338.2122463
51
342.3322145
0
ARC
8
DEFAULT_255_2_778
10
16.7763297
20
7.5636699
40
3.5530418
50
345.6149865
51
355.2105885
0
ARC
8
DEFAULT_255_2_778
10
16.2282229
20
7.6243993
40
4.104332
50
355.0046272
51
355.5852377
0
ARC
8
DEFAULT_255_2_778
10
24.4465336
20
7.1551899
40
4.1290022
50
168.7351972
51
177.872608
0
ARC
8
DEFAULT_255_2_778
10
37.168444
20
4.9680601
40
17.0364612
50
167.4633473
51
169.8792434
0
ARC
8
DEFAULT_255_2_778
10
7443.2093972
20
-1316.4411105
40
7540.0236781
50
169.8725618
51
169.8780949
0
ARC
8
DEFAULT_255_2_778
10
25.5091363
20
0.9567073
40
9.7187643
50
119.8882647
51
123.8898143
0
ARC
8
DEFAULT_255_2_778
10
15.0858406
20
16.868623
40
9.3045029
50
300.6147335
51
302.5352784
0
ARC
8
DEFAULT_255_2_778
10
16.8047962
20
13.9580674
40
5.9242471
50
298.0472799
51
300.6426378
0
ARC
8
DEFAULT_255_2_778
10
25.523014
20
-2.4771985
40
12.6802097
50
117.8958519
51
119.9647833
0
ARC
8
DEFAULT_255_2_778
10
26.8486701
20
-4.8070301
40
15.3607485
50
119.9080259
51
120.1681977
0
ARC
8
DEFAULT_255_2_778
10
18.7087071
20
9.1169251
40
0.7689648
50
278.8254458
51
303.1566701
0
ARC
8
DEFAULT_255_2_778
10
18.7321312
20
9.0161228
40
0.6658063
50
269.9954797
51
278.1644254
0
ARC
8
DEFAULT_255_2_778
10
18.7325665
20
9.0373321
40
0.6870158
50
261.3868255
51
269.9593134
0
ARC
8
DEFAULT_255_2_778
10
26.8867844
20
2.7310251
40
0.41588
50
32.9099418
51
46.534181
0
ARC
8
DEFAULT_255_2_778
10
27.1688877
20
2.9116613
40
0.0809201
50
4.3255528
51
34.0597172
0
ARC
8
DEFAULT_255_2_778
10
27.1736035
20
2.9469746
40
0.0813956
50
278.4592423
51
338.9694675
0
ARC
8
DEFAULT_255_2_778
10
26.9759396
20
3.2680458
40
0.4530071
50
270.611862
51
297.5659238
0
ARC
8
DEFAULT_255_2_778
10
27.0778674
20
-1.3132047
40
4.1294108
50
91.3472557
51
97.6932326
0
ARC
8
DEFAULT_255_2_778
10
27.2925426
20
-2.934956
40
5.7653048
50
97.6499068
51
102.498452
0
ARC
8
DEFAULT_255_2_778
10
27.740281
20
-4.9726863
40
7.8516422
50
102.4702554
51
106.292807
0
ARC
8
DEFAULT_255_2_778
10
28.0712407
20
-6.156897
40
9.0811567
50
106.2009609
51
106.3130498
0
ARC
8
DEFAULT_255_2_778
10
27.0112187
20
-2.5920199
40
5.3620762
50
106.1418123
51
111.6537406
0
ARC
8
DEFAULT_255_2_778
10
26.4811462
20
-1.2650947
40
3.9331972
50
111.6095294
51
118.8322575
0
ARC
8
DEFAULT_255_2_778
10
25.9688931
20
-0.3392477
40
2.8750908
50
118.787122
51
128.2643286
0
ARC
8
DEFAULT_255_2_778
10
24.1923913
20
1.8710837
40
0.0472516
50
94.8732711
51
133.3135018
0
ARC
8
DEFAULT_255_2_778
10
24.1583897
20
1.894352
40
0.0112253
50
81.8698976
51
188.1301024
0
LINE
8
DEFAULT_255_2_778
10
24.1472772
20
1.8927645
11
24.1345772
21
1.8927645
0
LINE
8
DEFAULT_255_2_778
10
24.1345772
20
1.8927645
11
24.1345772
21
1.8800645
0
ARC
8
DEFAULT_255_2_778
10
23.9892643
20
2.1348944
40
0.2933498
50
268.3616451
51
299.6932988
0
ARC
8
DEFAULT_255_2_778
10
23.9950056
20
2.4121814
40
0.5706917
50
250.5599198
51
268.5814078
0
ARC
8
DEFAULT_255_2_778
10
24.2251751
20
3.1057543
40
1.3014023
50
241.7559214
51
251.1669639
0
ARC
8
DEFAULT_255_2_778
10
24.804173
20
4.2058442
40
2.5445353
50
236.3550531
51
241.993068
0
ARC
8
DEFAULT_255_2_778
10
25.3126773
20
4.9987187
40
3.4863637
50
236.3136164
51
236.6174253
0
ARC
8
DEFAULT_255_2_778
10
25.0715405
20
4.715845
40
3.1175497
50
232.3975927
51
237.1177287
0
ARC
8
DEFAULT_255_2_778
10
24.1804194
20
3.5670651
40
1.6636775
50
224.959813
51
232.5712516
0
ARC
8
DEFAULT_255_2_778
10
23.5398498
20
2.9353638
40
0.7640627
50
211.6482875
51
225.3827417
0
ARC
8
DEFAULT_255_2_778
10
23.1468262
20
2.7003428
40
0.3062331
50
182.1262235
51
212.7991928
0
ARC
8
DEFAULT_255_2_778
10
23.0527505
20
2.6890026
40
0.2119465
50
177.089453
51
180.0057825
0
ARC
8
DEFAULT_255_2_778
10
249.2768284
20
-15.1493576
40
227.138153
50
175.253058
51
175.4928979
0
ARC
8
DEFAULT_255_2_778
10
14.5337826
20
4.5772729
40
8.4353962
50
353.6715992
51
0.0352633
0
ARC
8
DEFAULT_255_2_778
10
13.9035648
20
4.5822427
40
9.0656124
50
0.0014018
51
4.5364036
0
ARC
8
DEFAULT_255_2_778
10
-14.6676627
20
2.4340322
40
37.7174271
50
4.3567136
51
5.4895878
0
ARC
8
DEFAULT_255_2_778
10
22.4562988
20
5.6208473
40
0.5953105
50
45.0638892
51
59.1379118
0
ARC
8
DEFAULT_255_2_778
10
22.3234184
20
5.710793
40
0.6077599
50
43.8541919
51
54.9957375
0
ARC
8
DEFAULT_255_2_778
10
24.624079
20
8.1423414
40
2.7476913
50
223.7972889
51
224.7283277
0
ARC
8
DEFAULT_255_2_778
10
35.2144909
20
18.3391007
40
17.4490714
50
223.5936919
51
223.8965508
0
ARC
8
DEFAULT_255_2_778
10
60.8629822
20
42.7862925
40
52.8822503
50
223.4954559
51
223.6155438
0
ARC
8
DEFAULT_255_2_778
10
102.8791011
20
82.6600544
40
110.8069525
50
223.4252812
51
223.4985642
0
ARC
8
DEFAULT_255_2_778
10
23.3988988
20
7.3184548
40
1.2950017
50
213.4388957
51
219.7451484
0
ARC
8
DEFAULT_255_2_778
10
22.5828688
20
6.7883599
40
0.3220218
50
198.1568287
51
214.7415563
0
ARC
8
DEFAULT_255_2_778
10
22.385144
20
6.7175861
40
0.1122293
50
191.5243144
51
195.2788643
0
ARC
8
DEFAULT_255_2_778
10
22.3413644
20
6.6940375
40
0.0661968
50
78.9825871
51
179.0244561
0
ARC
8
DEFAULT_255_2_778
10
22.3647082
20
6.5308787
40
0.2283859
50
89.9576033
51
92.683591
0
ARC
8
DEFAULT_255_2_778
10
19.7995837
20
24.8093481
40
18.2314631
50
278.0887563
51
278.6980526
0
ARC
8
DEFAULT_255_2_778
10
22.7938072
20
4.5815126
40
2.21876
50
89.8458353
51
96.1352055
0
ARC
8
DEFAULT_255_2_778
10
1.1466262
20
5.0642146
40
21.7226338
50
4.5839067
51
7.9825374
0
ARC
8
DEFAULT_255_2_778
10
-98.5409915
20
-6.4265379
40
122.0649363
50
6.8257303
51
7.122526
0
ARC
8
DEFAULT_255_2_778
10
-84.4512997
20
-4.6654689
40
107.8656131
50
7.1222733
51
7.4445768
0
ARC
8
DEFAULT_255_2_778
10
18.7096753
20
8.6632728
40
3.8501693
50
9.6755303
51
11.2661937
0
ARC
8
DEFAULT_255_2_778
10
13.2295272
20
7.5880648
40
9.43479
50
11.1680925
51
11.8230002
0
ARC
8
DEFAULT_255_2_778
10
3.345854
20
5.5155582
40
19.5334172
50
11.8332169
51
12.4376093
0
ARC
8
DEFAULT_255_2_778
10
-15.6647951
20
1.3329014
40
38.9987543
50
12.4229909
51
12.8032482
0
ARC
8
DEFAULT_255_2_778
10
20.3373536
20
9.5156959
40
2.0783964
50
12.7720478
51
12.802912
0
ARC
8
DEFAULT_255_2_778
10
24.2301929
20
10.3631007
40
1.9057885
50
187.5081015
51
191.711252
0
ARC
8
DEFAULT_255_2_778
10
23.6041373
20
10.2817272
40
1.2744682
50
181.9264963
51
187.558839
0
ARC
8
DEFAULT_255_2_778
10
23.3022865
20
10.2683181
40
0.9723427
50
180.0162536
51
181.7347468
0
ARC
8
DEFAULT_255_2_778
10
22.9814786
20
10.2764031
40
0.6515884
50
167.2021241
51
180.7352047
0
ARC
8
DEFAULT_255_2_778
10
22.6550705
20
10.3552368
40
0.3158596
50
139.1298275
51
168.0314735
0
ARC
8
DEFAULT_255_2_778
10
22.592972
20
10.401222
40
0.2388825
50
121.9734909
51
137.7241125
0
ARC
8
DEFAULT_255_2_778
10
22.5447293
20
10.476991
40
0.1490647
50
92.3113335
51
121.6651137
0
ARC
8
DEFAULT_255_2_778
10
22.5597278
20
10.3519961
40
0.2747429
50
89.9114086
51
94.3858258
0
ARC
8
DEFAULT_255_2_778
10
22.5526305
20
10.1472145
40
0.4795832
50
77.5293206
51
89.1012946
0
ARC
8
DEFAULT_255_2_778
10
22.4540957
20
9.6649097
40
0.9718189
50
72.3856057
51
77.9973822
0
ARC
8
DEFAULT_255_2_778
10
36.0711207
20
55.8906846
40
47.2180827
50
253.6109774
51
253.8215971
0
ARC
8
DEFAULT_255_2_778
10
27.7384351
20
27.1508395
40
17.2946426
50
253.8048453
51
254.2021071
0
ARC
8
DEFAULT_255_2_778
10
24.9501765
20
17.3120014
40
7.0683493
50
254.2375098
51
254.4775803
0
ARC
8
DEFAULT_255_2_778
10
23.3861279
20
12.8264917
40
2.3479865
50
261.980923
51
270.0970546
0
ARC
8
DEFAULT_255_2_778
10
23.3878252
20
13.1585971
40
2.6800895
50
270.0487427
51
275.0143097
0
ARC
8
DEFAULT_255_2_778
10
26.7124704
20
-20.2817047
40
30.9252697
50
94.6866577
51
95.7351972
0
ARC
8
DEFAULT_255_2_778
10
21.8678554
20
29.725746
40
19.325083
50
276.8885542
51
278.7220463
0
ARC
8
DEFAULT_255_2_778
10
22.2273018
20
27.3299953
40
16.9025326
50
278.7491808
51
279.4173621
0
ARC
8
DEFAULT_255_2_778
10
11.8840417
20
86.6880383
40
77.1545648
50
279.7822875
51
280.071973
0
ARC
8
DEFAULT_255_2_778
10
8.9573999
20
103.1708738
40
93.8952067
50
280.0713239
51
280.3254954
0
LINE
8
DEFAULT_255_2_778
10
25.7871772
20
10.7962645
11
25.8255772
21
10.7962645
0
ARC
8
DEFAULT_255_2_778
10
25.8109461
20
10.4309192
40
0.3656382
50
68.1465918
51
87.7066733
0
ARC
8
DEFAULT_255_2_778
10
25.5683229
20
9.7708098
40
1.0688212
50
60.7810166
51
69.2470173
0
ARC
8
DEFAULT_255_2_778
10
24.9153445
20
8.5834293
40
2.42389
50
55.9383707
51
61.0108901
0
ARC
8
DEFAULT_255_2_778
10
23.9253757
20
7.0906287
40
4.2150754
50
54.0177686
51
56.1554358
0
ARC
8
DEFAULT_255_2_778
10
24.4086726
20
7.8295112
40
3.3334966
50
50.1993313
51
53.2780615
0
ARC
8
DEFAULT_255_2_778
10
25.4854274
20
9.115168
40
1.6565119
50
45.1403909
51
50.3470911
0
ARC
8
DEFAULT_255_2_778
10
26.1951086
20
9.8216335
40
0.6551705
50
35.5243842
51
45.5538218
0
ARC
8
DEFAULT_255_2_778
10
26.5853904
20
10.0929759
40
0.179967
50
10.7800915
51
37.4145589
0
ARC
8
DEFAULT_255_2_778
10
26.6842556
20
10.116884
40
0.0785336
50
0.1104153
51
7.1338338
0
ARC
8
DEFAULT_255_2_778
10
26.7030668
20
10.1164505
40
0.0597252
50
302.2955512
51
0.5611268
0
ARC
8
DEFAULT_255_2_778
10
27.7623173
20
8.7372181
40
1.6795817
50
127.7099365
51
142.412452
0
ARC
8
DEFAULT_255_2_778
10
27.4257048
20
8.9957171
40
1.2551651
50
142.3903495
51
177.9066904
0
ARC
8
DEFAULT_255_2_778
10
30.5719391
20
8.7521114
40
4.4100712
50
176.2367112
51
177.9338561
0
ARC
8
DEFAULT_255_2_778
10
29.5445648
20
8.7887148
40
3.3820452
50
177.926054
51
179.9517647
0
ARC
8
DEFAULT_255_2_778
10
28.380994
20
8.7827114
40
2.2184906
50
179.771419
51
184.8102037
0
ARC
8
DEFAULT_255_2_778
10
27.3349419
20
8.6910922
40
1.1684456
50
184.6346769
51
192.6607428
0
ARC
8
DEFAULT_255_2_778
10
26.7128038
20
8.5466868
40
0.5298037
50
192.1702609
51
207.1008145
0
ARC
8
DEFAULT_255_2_778
10
26.5033754
20
8.4453692
40
0.2972589
50
208.105677
51
215.4019229
0
ARC
8
DEFAULT_255_2_778
10
26.1758483
20
8.371334
40
0.1300047
50
275.5096439
51
310.9638995
0
ARC
8
DEFAULT_255_2_778
10
26.1324744
20
8.6113191
40
0.3735882
50
269.5079352
51
278.5986651
0
ARC
8
DEFAULT_255_2_778
10
26.1330808
20
8.9502362
40
0.7125016
50
263.9145542
51
269.693238
0
ARC
8
DEFAULT_255_2_778
10
26.1634792
20
9.2773052
40
1.0409596
50
262.6648792
51
264.1592651
0
ARC
8
DEFAULT_255_2_778
10
26.0967839
20
8.5762216
40
0.3379065
50
232.6678897
51
258.7008365
0
ARC
8
DEFAULT_255_2_778
10
26.4234411
20
9.0348407
40
0.9008539
50
222.1950485
51
233.8373535
0
ARC
8
DEFAULT_255_2_778
10
27.201981
20
9.7580307
40
1.9634226
50
216.127914
51
222.5707078
0
ARC
8
DEFAULT_255_2_778
10
27.9152912
20
10.2995244
40
2.8588739
50
215.7491024
51
216.4647196
0
ARC
8
DEFAULT_255_2_778
10
26.8062438
20
9.4781191
40
1.4790127
50
202.8773653
51
215.024963
0
ARC
8
DEFAULT_255_2_778
10
27.4407953
20
9.7612452
40
2.173764
50
198.3342946
51
203.2507769
0
ARC
8
DEFAULT_255_2_778
10
27.1822918
20
9.6979248
40
1.9085826
50
182.0886651
51
198.9709996
0
ARC
8
DEFAULT_255_2_778
10
23.4837329
20
16.7461917
40
7.3397561
50
278.5162542
51
284.1255122
0
ARC
8
DEFAULT_255_2_778
10
24.2149329
20
12.7730962
40
3.3049337
50
270.0631795
51
276.1793115
0
ARC
8
DEFAULT_255_2_778
10
24.2158215
20
12.4271
40
2.9589368
50
263.4691449
51
270.0533601
0
ARC
8
DEFAULT_255_2_778
10
17.4538955
20
8.4699772
40
6.5054291
50
7.3585745
51
8.9974497
0
ARC
8
DEFAULT_255_2_778
10
12.0310499
20
7.7566194
40
11.974985
50
6.6028029
51
7.4204507
0
ARC
8
DEFAULT_255_2_778
10
3.9227544
20
6.8217353
40
20.136998
50
5.7791367
51
6.5924026
0
ARC
8
DEFAULT_255_2_778
10
-9.4490592
20
5.4615619
40
33.5778105
50
5.2173482
51
5.7907374
0
ARC
8
DEFAULT_255_2_778
10
-19.2848284
20
4.5475368
40
43.4559483
50
5.1692896
51
5.2382215
0
ARC
8
DEFAULT_255_2_778
10
-62.2928501
20
0.6322713
40
86.6418132
50
4.8213426
51
5.1854062
0
ARC
8
DEFAULT_255_2_778
10
-80.8548752
20
-0.9381941
40
105.2701548
50
4.5575048
51
4.8239488
0
ARC
8
DEFAULT_255_2_778
10
-99.8967485
20
-2.4571044
40
124.3725114
50
4.3195773
51
4.5579875
0
ARC
8
DEFAULT_255_2_778
10
31.1439847
20
-77.2536822
40
84.4566279
50
94.4725026
51
94.7689286
0
ARC
8
DEFAULT_255_2_778
10
29.0810974
20
-50.8416635
40
57.964172
50
94.0944802
51
94.4754886
0
ARC
8
DEFAULT_255_2_778
10
25.7534234
20
-3.6240265
40
10.629578
50
93.7702688
51
94.3759714
0
ARC
8
DEFAULT_255_2_778
10
25.4572659
20
0.9539571
40
6.0420307
50
92.5075198
51
93.8225574
0
ARC
8
DEFAULT_255_2_778
10
25.309564
20
4.4085472
40
2.5842887
50
90.2684864
51
92.5868815
0
LINE
8
DEFAULT_255_2_778
10
25.2974541
20
6.9928074
11
25.2988399
21
6.9928081
0
ARC
8
DEFAULT_255_2_778
10
25.3029812
20
6.0586061
40
0.9342111
50
86.8684977
51
90.2539868
0
ARC
8
DEFAULT_255_2_778
10
25.3413085
20
6.7168371
40
0.2748789
50
79.6746228
51
87.350485
0
ARC
8
DEFAULT_255_2_778
10
25.373358
20
6.4409853
40
0.5465506
50
82.0655589
51
88.19458
0
ARC
8
DEFAULT_255_2_778
10
25.1427677
20
4.5204153
40
2.480837
50
81.5882954
51
82.9139415
0
ARC
8
DEFAULT_255_2_778
10
25.4509377
20
6.4428804
40
0.5344946
50
72.3945894
51
84.1218283
0
ARC
8
DEFAULT_255_2_778
10
25.5644222
20
6.8060601
40
0.1540099
50
57.7178502
51
71.7702288
0
ARC
8
DEFAULT_255_2_778
10
35.8166542
20
20.4075331
40
16.879085
50
232.949446
51
233.7550036
0
ARC
8
DEFAULT_255_2_778
10
43.5558014
20
30.952175
40
29.9589871
50
233.7412582
51
234.2905311
0
ARC
8
DEFAULT_255_2_778
10
25.7586452
20
6.2014788
40
0.5260416
50
44.6579989
51
53.7799015
0
ARC
8
DEFAULT_255_2_778
10
25.9882386
20
6.4245544
40
0.2059522
50
26.9794105
51
45.4086511
0
ARC
8
DEFAULT_255_2_778
10
26.0935155
20
6.4788541
40
0.0875007
50
1.1959956
51
26.5673906
0
ARC
8
DEFAULT_255_2_778
10
26.0978894
20
6.4855124
40
0.083248
50
300.1008523
51
356.6725311
0
ARC
8
DEFAULT_255_2_778
10
25.9741692
20
6.6593417
40
0.2963499
50
288.0242018
51
303.9427038
0
ARC
8
DEFAULT_255_2_778
10
25.8381254
20
7.0399355
40
0.7004568
50
282.7552659
51
288.9734873
0
ARC
8
DEFAULT_255_2_778
10
24.8602184
20
10.5895813
40
4.3817151
50
283.7135595
51
284.9795254
0
ARC
8
DEFAULT_255_2_778
10
22.4625827
20
20.3011671
40
14.3848812
50
283.3746778
51
283.8210208
0
ARC
8
DEFAULT_255_2_778
10
18.4227879
20
37.2706957
40
31.8286432
50
283.087874
51
283.3834474
0
ARC
8
DEFAULT_255_2_778
10
12.331306
20
63.4304014
40
58.6882095
50
282.9334654
51
283.0971583
0
ARC
8
DEFAULT_255_2_778
10
4.5651389
20
97.2346753
40
93.3731094
50
282.8152702
51
282.9353624
0
ARC
8
DEFAULT_255_2_778
10
9.4704843
20
70.7536562
40
66.472625
50
283.258582
51
283.7553135
0
ARC
8
DEFAULT_255_2_778
10
12.0112233
20
59.9662392
40
55.3900387
50
282.6986896
51
283.2596552
0
ARC
8
DEFAULT_255_2_778
10
-28.1409592
20
1.943511
40
52.4799477
50
3.5448792
51
4.357672
0
ARC
8
DEFAULT_255_2_778
10
82.4030352
20
7.1668111
40
58.1980964
50
181.9481476
51
182.4756846
0
ARC
8
DEFAULT_255_2_778
10
73.5614684
20
6.7927805
40
49.3486262
50
182.4852441
51
182.6814927
0
ARC
8
DEFAULT_255_2_778
10
33.6998898
20
4.8780801
40
9.441238
50
182.3918457
51
184.806208
0
ARC
8
DEFAULT_255_2_778
10
31.3647939
20
4.6901409
40
7.098611
50
184.8737621
51
186.015984
0
ARC
8
DEFAULT_255_2_778
10
11.7789875
20
3.3130912
40
12.5422771
50
1.8393561
51
2.8932424
0
ARC
8
DEFAULT_255_2_778
10
18.4386701
20
3.5219333
40
5.8793248
50
0.1406365
51
1.8883104
0
LINE
8
DEFAULT_255_2_778
10
24.3179772
20
3.5363645
11
24.3179772
21
3.3315645
0
LINE
8
DEFAULT_255_2_778
10
24.3179772
20
3.3315645
11
24.3179772
21
3.1267645
0
ARC
8
DEFAULT_255_2_778
10
25.7691584
20
-1.9566235
40
5.2864696
50
97.8374686
51
105.9327302
0
ARC
8
DEFAULT_255_2_778
10
26.5618734
20
-7.6008219
40
10.9860533
50
94.089132
51
97.919077
0
ARC
8
DEFAULT_255_2_778
10
27.3988866
20
4.3125087
40
1.8810152
50
201.2329755
51
210.5196868
0
ARC
8
DEFAULT_255_2_778
10
27.9359348
20
4.5384511
40
2.4634863
50
201.0910073
51
201.6075811
0
ARC
8
DEFAULT_255_2_778
10
26.655239
20
3.9788639
40
1.0689725
50
180.2659507
51
197.8067263
0
ARC
8
DEFAULT_255_2_778
10
26.9952631
20
3.9976905
40
1.4091859
50
179.9969905
51
180.9672566
0
ARC
8
DEFAULT_255_2_778
10
31.0123289
20
4.0095878
40
5.4262645
50
176.0618157
51
180.124841
0
ARC
8
DEFAULT_255_2_778
10
24.4373408
20
4.3943088
40
1.1615989
50
359.405908
51
9.6980109
0
ARC
8
DEFAULT_255_2_778
10
24.9468338
20
4.4764858
40
0.6455619
50
10.1261681
51
18.0923363
0
ARC
8
DEFAULT_255_2_778
10
27.531263
20
7.0553308
40
3.0887898
50
228.4988896
51
230.3538327
0
ARC
8
DEFAULT_255_2_778
10
25.932442
20
5.2488685
40
0.6764189
50
225.4695313
51
228.5328762
0
ARC
8
DEFAULT_255_2_778
10
25.4653653
20
4.7799168
40
0.0151241
50
188.1290874
51
241.1913551
0
ARC
8
DEFAULT_255_2_778
10
25.477625
20
4.7672303
40
0.0292032
50
97.3384369
51
158.8265992
0
ARC
8
DEFAULT_255_2_778
10
25.6034795
20
4.4143093
40
0.4032721
50
98.9024255
51
108.7435715
0
ARC
8
DEFAULT_255_2_778
10
25.7433526
20
3.6746546
40
1.1559054
50
98.4660072
51
100.0785003
0
ARC
8
DEFAULT_255_2_778
10
26.1396684
20
-1.5484455
40
6.3915639
50
92.2300909
51
95.0848588
0
ARC
8
DEFAULT_255_2_778
10
26.2915782
20
-5.2979081
40
10.1440996
50
90.1830938
51
92.2633777
0
ARC
8
DEFAULT_255_2_778
10
26.3158095
20
-8.0098773
40
12.8561418
50
89.9988067
51
90.2524614
0
ARC
8
DEFAULT_255_2_778
10
26.3281012
20
4.1815296
40
0.6648437
50
74.2479209
51
91.0362734
0
ARC
8
DEFAULT_255_2_778
10
26.4341831
20
4.5283212
40
0.3023818
50
2.4992652
51
75.7549883
0
ARC
8
DEFAULT_255_2_778
10
26.1892646
20
4.4845138
40
0.5499738
50
359.8777478
51
5.948182
0
ARC
8
DEFAULT_255_2_778
10
26.0883241
20
4.4835047
40
0.650913
50
358.0948042
51
359.9855326
0
ARC
8
DEFAULT_255_2_778
10
28.5057109
20
4.4772471
40
1.7669006
50
180.4988199
51
185.0415629
0
ARC
8
DEFAULT_255_2_778
10
31.1630286
20
4.6940634
40
4.4330259
50
184.8148198
51
186.9960783
0
ARC
8
DEFAULT_255_2_778
10
34.9307809
20
5.1463136
40
8.2278162
50
186.926201
51
188.1289608
0
ARC
8
DEFAULT_255_2_778
10
39.8161777
20
5.8408046
40
13.1623288
50
188.1146392
51
188.9938221
0
ARC
8
DEFAULT_255_2_778
10
28.4509009
20
4.0278225
40
1.6534249
50
188.5093265
51
201.4356426
0
ARC
8
DEFAULT_255_2_778
10
27.9490994
20
3.8251978
40
1.1122957
50
201.1666213
51
225.8381854
0
ARC
8
DEFAULT_255_2_778
10
31.7791844
20
2.7312251
40
0.41588
50
32.9099418
51
46.534181
0
ARC
8
DEFAULT_255_2_778
10
32.0612877
20
2.9118613
40
0.0809201
50
4.3255528
51
34.0597172
0
ARC
8
DEFAULT_255_2_778
10
32.065829
20
2.9473923
40
0.0816367
50
278.5578924
51
338.8708173
0
ARC
8
DEFAULT_255_2_778
10
31.8683584
20
3.2690536
40
0.4537146
50
270.6085329
51
297.5166096
0
ARC
8
DEFAULT_255_2_778
10
31.9703768
20
-1.318314
40
4.1348211
50
91.347008
51
97.684634
0
ARC
8
DEFAULT_255_2_778
10
32.1850477
20
-2.9418181
40
5.7724524
50
97.6414307
51
102.483795
0
ARC
8
DEFAULT_255_2_778
10
32.6325573
20
-4.980968
40
7.8601272
50
102.4556545
51
106.2737913
0
ARC
8
DEFAULT_255_2_778
10
32.9590238
20
-6.1509784
40
9.0747558
50
106.1823481
51
106.2945052
0
ARC
8
DEFAULT_255_2_778
10
31.9046854
20
-2.59296
40
5.3638521
50
106.1481846
51
111.6584691
0
ARC
8
DEFAULT_255_2_778
10
31.3743063
20
-1.2655964
40
3.9344524
50
111.6141943
51
118.834831
0
ARC
8
DEFAULT_255_2_778
10
30.8617882
20
-0.3393739
40
2.8758891
50
118.7896377
51
128.2643463
0
ARC
8
DEFAULT_255_2_778
10
29.0847326
20
1.8719694
40
0.0468624
50
94.8418059
51
133.4957749
0
ARC
8
DEFAULT_255_2_778
10
29.0508897
20
1.894852
40
0.0112253
50
81.8698976
51
188.1301024
0
LINE
8
DEFAULT_255_2_778
10
29.0397772
20
1.8932645
11
29.0270772
21
1.8932645
0
LINE
8
DEFAULT_255_2_778
10
29.0270772
20
1.8932645
11
29.0270772
21
1.8805645
0
ARC
8
DEFAULT_255_2_778
10
28.8816411
20
2.1366328
40
0.294487
50
268.372498
51
299.5947787
0
ARC
8
DEFAULT_255_2_778
10
28.8874056
20
2.4127814
40
0.5706917
50
250.5599198
51
268.5814078
0
ARC
8
DEFAULT_255_2_778
10
29.1175751
20
3.1063543
40
1.3014023
50
241.7559214
51
251.1669639
0
ARC
8
DEFAULT_255_2_778
10
29.696573
20
4.2064442
40
2.5445353
50
236.3550531
51
241.993068
0
ARC
8
DEFAULT_255_2_778
10
30.2050773
20
4.9993187
40
3.4863637
50
236.3136164
51
236.6174253
0
ARC
8
DEFAULT_255_2_778
10
29.9612736
20
4.7159196
40
3.1156612
50
232.4324983
51
237.1536691
0
ARC
8
DEFAULT_255_2_778
10
29.0711156
20
3.5669378
40
1.6622193
50
224.9916796
51
232.6062814
0
ARC
8
DEFAULT_255_2_778
10
28.431433
20
2.9353964
40
0.763348
50
211.6808307
51
225.413973
0
ARC
8
DEFAULT_255_2_778
10
28.0388305
20
2.7003437
40
0.3058639
50
182.1290279
51
212.8353918
0
ARC
8
DEFAULT_255_2_778
10
27.9447793
20
2.6890046
40
0.2116018
50
176.949687
51
180.0064372
0
ARC
8
DEFAULT_255_2_778
10
254.1692284
20
-15.1488576
40
227.138153
50
175.253058
51
175.4928979
0
ARC
8
DEFAULT_255_2_778
10
19.4252692
20
4.5778237
40
8.4363097
50
353.6719403
51
0.0355938
0
ARC
8
DEFAULT_255_2_778
10
18.7653713
20
4.5827956
40
9.0962059
50
0.0016939
51
4.5207803
0
ARC
8
DEFAULT_255_2_778
10
-10.290861
20
2.3849888
40
38.2354002
50
4.3720354
51
5.489575
0
ARC
8
DEFAULT_255_2_778
10
27.3465436
20
5.6191516
40
0.5983871
50
45.0663051
51
59.0735302
0
ARC
8
DEFAULT_255_2_778
10
27.2147531
20
5.7094804
40
0.6098534
50
43.914425
51
55.0198931
0
ARC
8
DEFAULT_255_2_778
10
29.6353284
20
8.2563015
40
2.9119767
50
223.7896316
51
224.6686715
0
ARC
8
DEFAULT_255_2_778
10
40.8214506
20
19.021236
40
18.4365702
50
223.5965493
51
223.883214
0
ARC
8
DEFAULT_255_2_778
10
67.9813884
20
44.9100592
40
55.9584739
50
223.5037491
51
223.617225
0
ARC
8
DEFAULT_255_2_778
10
112.4434949
20
87.1164654
40
117.2631199
50
223.4373179
51
223.5065534
0
ARC
8
DEFAULT_255_2_778
10
28.2895963
20
7.3175563
40
1.2927985
50
213.4279536
51
219.7457346
0
ARC
8
DEFAULT_255_2_778
10
27.475295
20
6.7888132
40
0.3220044
50
198.1323558
51
214.7289074
0
ARC
8
DEFAULT_255_2_778
10
27.2777726
20
6.7181968
40
0.1124555
50
191.5063574
51
195.2585994
0
ARC
8
DEFAULT_255_2_778
10
27.2337298
20
6.6945788
40
0.0661632
50
78.9463394
51
178.9731221
0
ARC
8
DEFAULT_255_2_778
10
27.2571061
20
6.531196
40
0.2285687
50
89.9571064
51
92.6809113
0
ARC
8
DEFAULT_255_2_778
10
24.7652651
20
24.3131919
40
17.729437
50
278.0801298
51
278.7066791
0
ARC
8
DEFAULT_255_2_778
10
27.6862072
20
4.5820126
40
2.21876
50
89.8458353
51
96.1352055
0
ARC
8
DEFAULT_255_2_778
10
6.0228412
20
5.0636395
40
21.7388529
50
4.583322
51
7.9802025
0
ARC
8
DEFAULT_255_2_778
10
-93.6485915
20
-6.4257379
40
122.0649363
50
6.8257303
51
7.122526
0
ARC
8
DEFAULT_255_2_778
10
-79.5588997
20
-4.6646689
40
107.8656131
50
7.1222733
51
7.4445768
0
ARC
8
DEFAULT_255_2_778
10
23.6020753
20
8.6640728
40
3.8501693
50
9.6755303
51
11.2661937
0
ARC
8
DEFAULT_255_2_778
10
18.1219272
20
7.5888648
40
9.43479
50
11.1680925
51
11.8230002
0
ARC
8
DEFAULT_255_2_778
10
8.238254
20
5.5163582
40
19.5334172
50
11.8332169
51
12.4376093
0
ARC
8
DEFAULT_255_2_778
10
-10.7723951
20
1.3337014
40
38.9987543
50
12.4229909
51
12.8032482
0
ARC
8
DEFAULT_255_2_778
10
25.2297536
20
9.5164959
40
2.0783964
50
12.7720478
51
12.802912
0
ARC
8
DEFAULT_255_2_778
10
29.1225929
20
10.3639007
40
1.9057885
50
187.5081015
51
191.711252
0
ARC
8
DEFAULT_255_2_778
10
28.4965373
20
10.2825272
40
1.2744682
50
181.9264963
51
187.558839
0
ARC
8
DEFAULT_255_2_778
10
28.1946865
20
10.2691181
40
0.9723427
50
180.0162536
51
181.7347468
0
ARC
8
DEFAULT_255_2_778
10
27.8738786
20
10.2772031
40
0.6515884
50
167.2021241
51
180.7352047
0
ARC
8
DEFAULT_255_2_778
10
27.5474705
20
10.3560368
40
0.3158596
50
139.1298275
51
168.0314735
0
ARC
8
DEFAULT_255_2_778
10
27.485372
20
10.402022
40
0.2388825
50
121.9734909
51
137.7241125
0
ARC
8
DEFAULT_255_2_778
10
27.4371175
20
10.4778362
40
0.14902
50
92.3175618
51
121.6703923
0
ARC
8
DEFAULT_255_2_778
10
27.4520888
20
10.3531314
40
0.2744076
50
89.911427
51
94.3885029
0
ARC
8
DEFAULT_255_2_778
10
27.4450018
20
10.1487984
40
0.4787992
50
77.5191116
51
89.1011312
0
ARC
8
DEFAULT_255_2_778
10
27.3466065
20
9.6675923
40
0.9699306
50
72.3694517
51
77.9872834
0
ARC
8
DEFAULT_255_2_778
10
40.8544113
20
55.5003672
40
46.812128
50
253.6037896
51
253.8161555
0
ARC
8
DEFAULT_255_2_778
10
32.5919671
20
27.0128129
40
17.1505593
50
253.7993258
51
254.1998298
0
ARC
8
DEFAULT_255_2_778
10
29.8269911
20
17.2577818
40
7.0112458
50
254.2356009
51
254.4776112
0
ARC
8
DEFAULT_255_2_778
10
28.2784942
20
12.8311085
40
2.3518031
50
261.9874706
51
270.0947945
0
ARC
8
DEFAULT_255_2_778
10
28.2801463
20
13.1566412
40
2.6773336
50
270.047913
51
275.0168825
0
ARC
8
DEFAULT_255_2_778
10
31.5754225
20
-19.9602023
40
30.6032501
50
94.681141
51
95.7407139
0
ARC
8
DEFAULT_255_2_778
10
26.7623651
20
29.7077365
40
19.3061322
50
276.8884443
51
278.7235708
0
ARC
8
DEFAULT_255_2_778
10
27.1223885
20
27.3084991
40
16.8800483
50
278.7508193
51
279.419744
0
ARC
8
DEFAULT_255_2_778
10
16.8394926
20
86.3416915
40
76.8017019
50
279.7797152
51
280.0707869
0
ARC
8
DEFAULT_255_2_778
10
13.9331891
20
102.7124439
40
93.4284313
50
280.0700861
51
280.3255426
0
LINE
8
DEFAULT_255_2_778
10
30.6793772
20
10.7970645
11
30.7176772
21
10.7970645
0
ARC
8
DEFAULT_255_2_778
10
30.70306
20
10.4315663
40
0.3657904
50
68.1514714
51
87.7098207
0
ARC
8
DEFAULT_255_2_778
10
30.4606883
20
9.7720301
40
1.0683489
50
60.780126
51
69.2502428
0
ARC
8
DEFAULT_255_2_778
10
29.8084381
20
8.5860277
40
2.4218593
50
55.9334711
51
61.0098124
0
ARC
8
DEFAULT_255_2_778
10
28.8194467
20
7.0949771
40
4.2110461
50
54.0111031
51
56.1505062
0
ARC
8
DEFAULT_255_2_778
10
29.3011575
20
7.8302497
40
3.3333157
50
50.2050555
51
53.283997
0
ARC
8
DEFAULT_255_2_778
10
30.3777529
20
9.1159851
40
1.656373
50
45.1454599
51
50.3526466
0
ARC
8
DEFAULT_255_2_778
10
31.087327
20
9.8224701
40
0.6550939
50
35.5281902
51
45.5588453
0
ARC
8
DEFAULT_255_2_778
10
31.4775485
20
10.093808
40
0.1799425
50
10.7803172
51
37.4186729
0
ARC
8
DEFAULT_255_2_778
10
31.5764356
20
10.1177136
40
0.0784878
50
0.1092523
51
7.137053
0
ARC
8
DEFAULT_255_2_778
10
31.595182
20
10.1172821
40
0.059744
50
302.2670324
51
0.5573762
0
ARC
8
DEFAULT_255_2_778
10
32.6542126
20
8.7382722
40
1.6792555
50
127.7097145
51
142.4148272
0
ARC
8
DEFAULT_255_2_778
10
32.3176066
20
8.996747
40
1.2548588
50
142.3928303
51
177.9166847
0
ARC
8
DEFAULT_255_2_778
10
35.4639285
20
8.752927
40
4.40986
50
176.2367339
51
177.9340118
0
ARC
8
DEFAULT_255_2_778
10
34.4373107
20
8.789501
40
3.382591
50
177.9262226
51
179.951809
0
ARC
8
DEFAULT_255_2_778
10
33.2743884
20
8.7835013
40
2.219685
50
179.7716926
51
184.8088998
0
ARC
8
DEFAULT_255_2_778
10
32.2285754
20
8.6919308
40
1.1698824
50
184.6338159
51
192.6536679
0
ARC
8
DEFAULT_255_2_778
10
31.6061902
20
8.547556
40
0.5310065
50
192.164846
51
207.0734233
0
ARC
8
DEFAULT_255_2_778
10
31.3964248
20
8.446189
40
0.2981366
50
208.0749894
51
215.3574612
0
ARC
8
DEFAULT_255_2_778
10
31.0679474
20
8.3720888
40
0.1302633
50
275.5213789
51
310.9239541
0
ARC
8
DEFAULT_255_2_778
10
31.0246269
20
8.6117959
40
0.373565
50
269.5086413
51
278.5988918
0
ARC
8
DEFAULT_255_2_778
10
31.0252319
20
8.9500879
40
0.7118533
50
263.9117935
51
269.6934538
0
ARC
8
DEFAULT_255_2_778
10
31.0555797
20
9.2764616
40
1.0396143
50
262.6608632
51
264.1564012
0
ARC
8
DEFAULT_255_2_778
10
30.988977
20
8.5766516
40
0.3378365
50
232.6602868
51
258.6996537
0
ARC
8
DEFAULT_255_2_778
10
31.3157476
20
9.0353135
40
0.9008843
50
222.1871058
51
233.8303815
0
ARC
8
DEFAULT_255_2_778
10
32.0946474
20
9.7586377
40
1.9638081
50
216.1202451
51
222.5628363
0
ARC
8
DEFAULT_255_2_778
10
32.8092785
20
10.3009566
40
2.8608107
50
215.7417155
51
216.456979
0
ARC
8
DEFAULT_255_2_778
10
31.6975921
20
9.4792088
40
1.4785966
50
202.9066603
51
215.0594404
0
ARC
8
DEFAULT_255_2_778
10
32.3336967
20
9.7634455
40
2.1752185
50
198.3660078
51
203.2814899
0
ARC
8
DEFAULT_255_2_778
10
32.0739299
20
9.6984887
40
1.9083232
50
182.0908706
51
198.972532
0
ARC
8
DEFAULT_255_2_778
10
28.3756329
20
16.7466917
40
7.3397561
50
278.5162542
51
284.1255122
0
ARC
8
DEFAULT_255_2_778
10
29.1067632
20
12.7835152
40
3.3148027
50
270.063332
51
276.1620547
0
ARC
8
DEFAULT_255_2_778
10
29.1076417
20
12.4339191
40
2.9652059
50
263.4845645
51
270.0538232
0
ARC
8
DEFAULT_255_2_778
10
22.3028297
20
8.4655923
40
6.5486304
50
7.3529114
51
8.9808735
0
ARC
8
DEFAULT_255_2_778
10
16.8467996
20
7.7484928
40
12.0515754
50
6.6020319
51
7.4144157
0
ARC
8
DEFAULT_255_2_778
10
8.6869343
20
6.8076905
40
20.2654968
50
5.7838394
51
6.5918664
0
ARC
8
DEFAULT_255_2_778
10
-4.7725931
20
5.4374551
40
33.7945912
50
5.2258381
51
5.7954813
0
ARC
8
DEFAULT_255_2_778
10
-14.8773212
20
4.4975674
40
43.9429276
50
5.1780523
51
5.2462116
0
ARC
8
DEFAULT_255_2_778
10
-57.4900562
20
0.6258811
40
86.7311864
50
4.8209566
51
5.1846851
0
ARC
8
DEFAULT_255_2_778
10
-76.0544471
20
-0.9446525
40
105.3618912
50
4.5573296
51
4.8235575
0
ARC
8
DEFAULT_255_2_778
10
-95.0976722
20
-2.4636185
40
124.4655997
50
4.3195785
51
4.5578149
0
ARC
8
DEFAULT_255_2_778
10
36.2049038
20
-79.283192
40
86.4936618
50
94.4792601
51
94.7687062
0
ARC
8
DEFAULT_255_2_778
10
34.0889811
20
-52.2349046
40
59.3627391
50
94.1100828
51
94.4821202
0
ARC
8
DEFAULT_255_2_778
10
30.6453234
20
-3.6234265
40
10.629578
50
93.7702688
51
94.3759714
0
ARC
8
DEFAULT_255_2_778
10
30.3491659
20
0.9545571
40
6.0420307
50
92.5075198
51
93.8225574
0
ARC
8
DEFAULT_255_2_778
10
30.201464
20
4.4091472
40
2.5842887
50
90.2684864
51
92.5868815
0
LINE
8
DEFAULT_255_2_778
10
30.1893541
20
6.9934074
11
30.1907399
21
6.9934081
0
ARC
8
DEFAULT_255_2_778
10
30.1948812
20
6.0592061
40
0.9342111
50
86.8684977
51
90.2539868
0
ARC
8
DEFAULT_255_2_778
10
30.2332085
20
6.7174371
40
0.2748789
50
79.6746228
51
87.350485
0
ARC
8
DEFAULT_255_2_778
10
30.265258
20
6.4415853
40
0.5465506
50
82.0655589
51
88.19458
0
ARC
8
DEFAULT_255_2_778
10
30.0346677
20
4.5210153
40
2.480837
50
81.5882954
51
82.9139415
0
ARC
8
DEFAULT_255_2_778
10
30.3431308
20
6.4458764
40
0.5320812
50
72.345238
51
84.1268046
0
ARC
8
DEFAULT_255_2_778
10
30.4563221
20
6.8070753
40
0.1535748
50
57.6151995
51
71.7167471
0
ARC
8
DEFAULT_255_2_778
10
40.7095664
20
20.4094031
40
16.8807882
50
232.9495059
51
233.7549822
0
ARC
8
DEFAULT_255_2_778
10
48.4455441
20
30.9496897
40
29.9553041
50
233.7412083
51
234.2905487
0
ARC
8
DEFAULT_255_2_778
10
30.6505466
20
6.2024839
40
0.5256334
50
44.6261497
51
53.7474925
0
ARC
8
DEFAULT_255_2_778
10
30.8799919
20
6.4251713
40
0.2059204
50
26.9550179
51
45.3753233
0
ARC
8
DEFAULT_255_2_778
10
30.9852253
20
6.4793929
40
0.0875434
50
1.1947094
51
26.5428441
0
ARC
8
DEFAULT_255_2_778
10
30.9896682
20
6.4860345
40
0.0832209
50
300.1164645
51
356.6822094
0
ARC
8
DEFAULT_255_2_778
10
30.8661389
20
6.6595509
40
0.2959583
50
288.0230197
51
303.9506194
0
ARC
8
DEFAULT_255_2_778
10
30.7303216
20
7.0395209
40
0.6994018
50
282.7499501
51
288.9725821
0
ARC
8
DEFAULT_255_2_778
10
29.7679215
20
10.5212381
40
4.3110307
50
283.7265291
51
285.0134687
0
ARC
8
DEFAULT_255_2_778
10
27.4045484
20
20.0831093
40
14.1606345
50
283.3821137
51
283.8355991
0
ARC
8
DEFAULT_255_2_778
10
23.4349973
20
36.7480846
40
31.2918552
50
283.0901335
51
283.3908264
0
ARC
8
DEFAULT_255_2_778
10
17.4371754
20
62.4997208
40
57.7327438
50
282.9332768
51
283.0997061
0
ARC
8
DEFAULT_255_2_778
10
9.8054321
20
95.7192595
40
91.8176561
50
282.8130428
51
282.9351895
0
ARC
8
DEFAULT_255_2_778
10
14.5551095
20
69.9548914
40
65.6504339
50
283.2548306
51
283.7577143
0
ARC
8
DEFAULT_255_2_778
10
17.0610937
20
59.311667
40
54.7161676
50
282.6881303
51
283.2559616
0
ARC
8
DEFAULT_255_2_778
10
-23.3860534
20
1.9346485
40
52.6172649
50
3.5459398
51
4.3566114
0
ARC
8
DEFAULT_255_2_778
10
87.267643
20
7.1659176
40
58.1707692
50
181.9475913
51
182.4754684
0
ARC
8
DEFAULT_255_2_778
10
78.4086578
20
6.7911821
40
49.3038664
50
182.4850537
51
182.6814877
0
ARC
8
DEFAULT_255_2_778
10
38.5917898
20
4.8785801
40
9.441238
50
182.3918457
51
184.806208
0
ARC
8
DEFAULT_255_2_778
10
36.2566939
20
4.6906409
40
7.098611
50
184.8737621
51
186.015984
0
ARC
8
DEFAULT_255_2_778
10
16.6385085
20
3.3124284
40
12.5746735
50
1.8394611
51
2.8910875
0
ARC
8
DEFAULT_255_2_778
10
23.3330212
20
3.5223687
40
5.8768739
50
0.1413255
51
1.8887534
0
LINE
8
DEFAULT_255_2_778
10
29.2098772
20
3.5368645
11
29.2098772
21
3.3320645
0
LINE
8
DEFAULT_255_2_778
10
29.2098772
20
3.3320645
11
29.2098772
21
3.1272645
0
ARC
8
DEFAULT_255_2_778
10
30.6645136
20
-1.9677119
40
5.2985613
50
97.8604611
51
105.9342591
0
ARC
8
DEFAULT_255_2_778
10
31.4565345
20
-7.6436507
40
11.0294901
50
94.0889427
51
97.9037446
0
ARC
8
DEFAULT_255_2_778
10
32.2904866
20
4.3130087
40
1.8810152
50
201.2329755
51
210.5196868
0
ARC
8
DEFAULT_255_2_778
10
32.8275348
20
4.5389511
40
2.4634863
50
201.0910073
51
201.6075811
0
ARC
8
DEFAULT_255_2_778
10
31.5495298
20
3.9794601
40
1.0715641
50
180.2698254
51
197.7676247
0
ARC
8
DEFAULT_255_2_778
10
31.8884236
20
3.9981792
40
1.4106462
50
179.996532
51
180.9653175
0
ARC
8
DEFAULT_255_2_778
10
35.9465842
20
4.0100901
40
5.4688198
50
176.0925327
51
180.1238941
0
ARC
8
DEFAULT_255_2_778
10
29.3289408
20
4.3948088
40
1.1615989
50
359.405908
51
9.6980109
0
ARC
8
DEFAULT_255_2_778
10
29.8384338
20
4.4769858
40
0.6455619
50
10.1261681
51
18.0923363
0
ARC
8
DEFAULT_255_2_778
10
32.4904325
20
7.1330114
40
3.1913324
50
228.5079703
51
230.3038537
0
ARC
8
DEFAULT_255_2_778
10
30.8371395
20
5.2644048
40
0.696324
50
225.5689232
51
228.5420492
0
ARC
8
DEFAULT_255_2_778
10
30.3569671
20
4.7804173
40
0.0151254
50
188.1148321
51
241.1863149
0
ARC
8
DEFAULT_255_2_778
10
30.3692555
20
4.7677367
40
0.0292308
50
97.3918287
51
158.8527373
0
ARC
8
DEFAULT_255_2_778
10
30.4953207
20
4.4150257
40
0.4031733
50
98.9393078
51
108.7845236
0
ARC
8
DEFAULT_255_2_778
10
30.6354215
20
3.6769786
40
1.1542695
50
98.5016273
51
100.1165762
0
ARC
8
DEFAULT_255_2_778
10
31.0315744
20
-1.5527067
40
6.3964331
50
92.2310825
51
95.0837292
0
ARC
8
DEFAULT_255_2_778
10
31.1830548
20
-5.2905689
40
10.1373606
50
90.1834337
51
92.2641524
0
ARC
8
DEFAULT_255_2_778
10
31.2072104
20
-7.992421
40
12.8392855
50
89.9988094
51
90.2526272
0
ARC
8
DEFAULT_255_2_778
10
31.2195006
20
4.1822901
40
0.6646832
50
74.2439695
51
91.0364768
0
ARC
8
DEFAULT_255_2_778
10
31.3255223
20
4.5288686
40
0.3024415
50
2.4937133
51
75.7459615
0
ARC
8
DEFAULT_255_2_778
10
31.0803803
20
4.4850198
40
0.550258
50
359.8777714
51
5.9466427
0
ARC
8
DEFAULT_255_2_778
10
30.9793876
20
4.4840103
40
0.6512495
50
358.0952962
51
359.9855392
0
ARC
8
DEFAULT_255_2_778
10
33.3990694
20
4.4777408
40
1.7688591
50
180.4980635
51
185.035475
0
ARC
8
DEFAULT_255_2_778
10
36.0580288
20
4.6944258
40
4.43661
50
184.8090246
51
186.9882003
0
ARC
8
DEFAULT_255_2_778
10
39.8283173
20
5.1464506
40
8.2338916
50
186.9183008
51
188.119943
0
ARC
8
DEFAULT_255_2_778
10
44.7193868
20
5.8410138
40
13.1740304
50
188.1058378
51
188.9840463
0
ARC
8
DEFAULT_255_2_778
10
33.3434902
20
4.0288927
40
1.6547697
50
188.5188227
51
201.4366478
0
ARC
8
DEFAULT_255_2_778
10
32.8403683
20
3.8256998
40
1.1122037
50
201.1657081
51
225.8358187
0
ARC
8
DEFAULT_255_2_778
10
35.9469321
20
3.363655
40
1.0241776
50
307.1680839
51
319.6513577
0
ARC
8
DEFAULT_255_2_778
10
36.2029541
20
3.0186224
40
0.594572
50
284.1277898
51
307.5957477
0
ARC
8
DEFAULT_255_2_778
10
36.239023
20
2.9028957
40
0.4735896
50
270.0145294
51
283.3134593
0
ARC
8
DEFAULT_255_2_778
10
36.2418668
20
2.9441137
40
0.5148148
50
251.1437063
51
269.6968631
0
ARC
8
DEFAULT_255_2_778
10
36.2727596
20
3.0478564
40
0.6229891
50
251.4122096
51
251.538659
0
ARC
8
DEFAULT_255_2_778
10
35.0305311
20
-0.2909747
40
2.9398241
50
69.2063774
51
79.2295062
0
ARC
8
DEFAULT_255_2_778
10
34.8797272
20
-1.0168771
40
3.6811414
50
79.0350422
51
82.9540245
0
ARC
8
DEFAULT_255_2_778
10
35.1187018
20
1.271976
40
1.3809479
50
81.1449992
51
89.8927642
0
ARC
8
DEFAULT_255_2_778
10
35.1194143
20
1.4427698
40
1.2101534
50
89.9113614
51
125.1980087
0
ARC
8
DEFAULT_255_2_778
10
37.4721537
20
-2.1714868
40
5.5220638
50
123.5304306
51
133.4435371
0
ARC
8
DEFAULT_255_2_778
10
37.1996945
20
-1.8667838
40
5.1134933
50
133.5747028
51
133.9110678
0
ARC
8
DEFAULT_255_2_778
10
33.4984123
20
1.9906154
40
0.2326006
50
278.6057603
51
311.7435519
0
ARC
8
DEFAULT_255_2_778
10
33.4299501
20
2.2684757
40
0.5182352
50
275.9840829
51
281.4941136
0
ARC
8
DEFAULT_255_2_778
10
33.4912675
20
2.3470612
40
0.5940414
50
258.110209
51
269.2968319
0
ARC
8
DEFAULT_255_2_778
10
33.7793905
20
3.8832261
40
2.1568877
50
247.4684043
51
259.028151
0
ARC
8
DEFAULT_255_2_778
10
33.9486124
20
4.3330967
40
2.6373127
50
247.6579479
51
247.8177955
0
ARC
8
DEFAULT_255_2_778
10
33.6892235
20
3.8825181
40
2.1230655
50
239.3130378
51
249.5105707
0
ARC
8
DEFAULT_255_2_778
10
33.429769
20
3.4293146
40
1.6009336
50
233.8278836
51
239.0206962
0
ARC
8
DEFAULT_255_2_778
10
32.8831135
20
2.8177317
40
0.7886926
50
229.9155908
51
239.6731541
0
ARC
8
DEFAULT_255_2_778
10
32.4885113
20
2.3607699
40
0.1851409
50
203.9474439
51
232.2880551
0
ARC
8
DEFAULT_255_2_778
10
32.3782423
20
2.30693
40
0.0626687
50
180.6084335
51
199.8780779
0
ARC
8
DEFAULT_255_2_778
10
32.3622723
20
2.3023091
40
0.0468624
50
136.5042251
51
175.1581941
0
ARC
8
DEFAULT_255_2_778
10
31.4243197
20
3.1114967
40
1.1919576
50
319.3216449
51
344.2849649
0
ARC
8
DEFAULT_255_2_778
10
31.1403024
20
3.2111565
40
1.4924727
50
343.5552471
51
345.3688449
0
ARC
8
DEFAULT_255_2_778
10
24.7159794
20
4.5560735
40
8.0546046
50
347.6560699
51
351.4887528
0
ARC
8
DEFAULT_255_2_778
10
25.8850311
20
4.3694063
40
6.8708102
50
351.5853816
51
351.8693714
0
ARC
8
DEFAULT_255_2_778
10
23.429875
20
5.1003896
40
9.4122001
50
349.5774542
51
355.6352262
0
ARC
8
DEFAULT_255_2_778
10
-74.5211778
20
10.4717385
40
107.5084509
50
356.753886
51
357.2802952
0
ARC
8
DEFAULT_255_2_778
10
-29.7017546
20
6.6255723
40
62.5805192
50
358.8508054
51
359.7326619
0
ARC
8
DEFAULT_255_2_778
10
-35.4851465
20
6.6630245
40
68.3640237
50
359.7238895
51
0.0010392
0
ARC
8
DEFAULT_255_2_778
10
-0.5560374
20
7.3159238
40
33.4412646
50
358.8834248
51
359.9972429
0
ARC
8
DEFAULT_255_2_778
10
0.4067058
20
7.3158553
40
32.4785215
50
359.9972819
51
1.1330034
0
ARC
8
DEFAULT_255_2_778
10
-45.3951031
20
6.3626236
40
78.2902384
50
1.1676853
51
1.6435429
0
ARC
8
DEFAULT_255_2_778
10
-62.8183568
20
5.8646218
40
95.7206076
50
1.6423909
51
2.0585423
0
ARC
8
DEFAULT_255_2_778
10
24.0975991
20
8.8468298
40
8.7547688
50
2.9865361
51
8.105493
0
ARC
8
DEFAULT_255_2_778
10
25.4043184
20
9.0288642
40
7.4354382
50
8.1365202
51
12.5756007
0
ARC
8
DEFAULT_255_2_778
10
32.1802804
20
10.5267985
40
0.4960714
50
14.1137617
51
27.7788441
0
ARC
8
DEFAULT_255_2_778
10
32.4734496
20
10.677789
40
0.1663462
50
28.827773
51
41.8926784
0
ARC
8
DEFAULT_255_2_778
10
32.6169333
20
10.8224619
40
0.0389248
50
190.4750546
51
239.6703349
0
ARC
8
DEFAULT_255_2_778
10
32.599543
20
10.8167508
40
0.0209303
50
180.0098941
51
183.7411501
0
ARC
8
DEFAULT_255_2_778
10
32.623101
20
10.8086023
40
0.0452277
50
112.7861482
51
169.6252882
0
ARC
8
DEFAULT_255_2_778
10
32.7222384
20
10.6576157
40
0.2252454
50
112.6001092
51
121.1912539
0
ARC
8
DEFAULT_255_2_778
10
33.0247628
20
10.1175113
40
0.8431911
50
100.0479927
51
117.4803323
0
ARC
8
DEFAULT_255_2_778
10
32.970081
20
10.3816835
40
0.5735826
50
90.1302334
51
99.2735964
0
LINE
8
DEFAULT_255_2_778
10
32.9687772
20
10.9552645
11
33.0327772
21
10.9552645
0
ARC
8
DEFAULT_255_2_778
10
32.8835555
20
10.0388879
40
0.9284467
50
72.5456725
51
80.7511994
0
ARC
8
DEFAULT_255_2_778
10
32.4684874
20
8.670357
40
2.3585079
50
68.6816355
51
72.8986025
0
ARC
8
DEFAULT_255_2_778
10
31.5657664
20
6.3356149
40
4.8616851
50
66.0634422
51
68.7740668
0
ARC
8
DEFAULT_255_2_778
10
30.3332109
20
3.523704
40
7.9318497
50
64.9942468
51
66.1668263
0
ARC
8
DEFAULT_255_2_778
10
32.997684
20
9.2556511
40
1.6109083
50
56.4918375
51
64.7016152
0
ARC
8
DEFAULT_255_2_778
10
33.4756217
20
9.9677233
40
0.7533484
50
42.3624686
51
56.9028637
0
ARC
8
DEFAULT_255_2_778
10
33.7840114
20
10.2450006
40
0.3386582
50
16.4082295
51
42.8563903
0
ARC
8
DEFAULT_255_2_778
10
32.7116182
20
9.9819371
40
1.4425735
50
7.4775084
51
14.398936
0
ARC
8
DEFAULT_255_2_778
10
31.0154465
20
9.7479894
40
3.1547862
50
3.6196064
51
7.6813445
0
ARC
8
DEFAULT_255_2_778
10
28.7643718
20
9.5915266
40
5.4112665
50
1.8303602
51
3.7682202
0
ARC
8
DEFAULT_255_2_778
10
-76.0086746
20
4.7652583
40
110.2949021
50
1.7123019
51
2.5978159
0
ARC
8
DEFAULT_255_2_778
10
-18.5767243
20
6.3317344
40
52.8420032
50
0.0145621
51
1.8753127
0
ARC
8
DEFAULT_255_2_778
10
-46.0941007
20
6.3519046
40
80.3593782
50
358.9813341
51
359.9951944
0
ARC
8
DEFAULT_255_2_778
10
12.4213468
20
5.7809924
40
21.8480735
50
354.0111215
51
357.7500616
0
ARC
8
DEFAULT_255_2_778
10
34.7951457
20
3.372842
40
0.6576687
50
168.721773
51
179.9544749
0
ARC
8
DEFAULT_255_2_778
10
33.4798087
20
3.3738871
40
0.6576687
50
348.721773
51
359.9544749
0
ARC
8
DEFAULT_255_2_778
10
34.4629795
20
0.7706683
40
2.4976003
50
90.0138953
51
97.7823807
0
ARC
8
DEFAULT_255_2_778
10
34.4622057
20
0.7830957
40
2.4851729
50
84.7806954
51
89.996125
0
ARC
8
DEFAULT_255_2_778
10
33.9517995
20
-2.0666848
40
5.3753409
50
76.5607666
51
82.1251113
0
ARC
8
DEFAULT_255_2_778
10
33.7447155
20
-2.9934913
40
6.3249134
50
75.9745423
51
76.6874931
0
ARC
8
DEFAULT_255_2_778
10
34.8330561
20
3.2725842
40
0.4630618
50
343.731762
51
359.2444857
0
ARC
8
DEFAULT_255_2_778
10
34.6914277
20
3.2805622
40
0.6048139
50
358.6656731
51
0.005934
0
ARC
8
DEFAULT_255_2_778
10
34.4623278
20
3.2717971
40
0.8339606
50
0.6065038
51
12.2923361
0
ARC
8
DEFAULT_255_2_778
10
33.9208013
20
3.1619846
40
1.3864742
50
11.9619071
51
18.0319786
0
ARC
8
DEFAULT_255_2_778
10
37.9594639
20
4.5929686
40
2.8988914
50
195.5548026
51
200.2173136
0
ARC
8
DEFAULT_255_2_778
10
36.483839
20
4.1877094
40
1.3686479
50
187.8908483
51
195.7761417
0
ARC
8
DEFAULT_255_2_778
10
35.9034155
20
4.0996383
40
0.7816656
50
184.4224314
51
187.3372076
0
ARC
8
DEFAULT_255_2_778
10
36.9643639
20
4.2259442
40
1.8497208
50
180.0503083
51
185.7892194
0
ARC
8
DEFAULT_255_2_778
10
36.7449986
20
4.2284088
40
1.6303599
50
167.6482164
51
180.1436899
0
ARC
8
DEFAULT_255_2_778
10
36.4342131
20
4.389312
40
1.2955276
50
147.2865295
51
171.6626747
0
ARC
8
DEFAULT_255_2_778
10
35.5050198
20
4.9792081
40
0.1950047
50
97.5177739
51
145.5696323
0
ARC
8
DEFAULT_255_2_778
10
35.5654419
20
4.7178202
40
0.4627656
50
89.466144
51
100.7019205
0
ARC
8
DEFAULT_255_2_778
10
35.5688486
20
4.4758963
40
0.7046702
50
86.3851685
51
89.9264025
0
ARC
8
DEFAULT_255_2_778
10
35.4980774
20
3.5356258
40
1.6475711
50
73.0896097
51
85.9905511
0
ARC
8
DEFAULT_255_2_778
10
35.3688343
20
3.0539798
40
2.1460477
50
71.5283772
51
73.5286513
0
ARC
8
DEFAULT_255_2_778
10
35.1748262
20
2.6472265
40
2.5939
50
60.5531934
51
70.3103321
0
ARC
8
DEFAULT_255_2_778
10
35.4114616
20
3.0860689
40
2.0954393
50
57.1414621
51
60.2886039
0
ARC
8
DEFAULT_255_2_778
10
35.9771338
20
4.0212903
40
1.0034449
50
47.9070878
51
55.2998054
0
ARC
8
DEFAULT_255_2_778
10
36.4374906
20
4.5222466
40
0.3231647
50
31.7418681
51
48.9360578
0
ARC
8
DEFAULT_255_2_778
10
36.6318918
20
4.6423168
40
0.094673
50
2.4193992
51
31.8400347
0
ARC
8
DEFAULT_255_2_778
10
36.670524
20
4.6459942
40
0.0559574
50
327.4225166
51
0.3267577
0
ARC
8
DEFAULT_255_2_778
10
38.0549428
20
3.7755458
40
1.5793716
50
147.8553271
51
166.4060851
0
ARC
8
DEFAULT_255_2_778
10
37.8870597
20
3.8250506
40
1.4045827
50
166.7593039
51
180.0290073
0
ARC
8
DEFAULT_255_2_778
10
37.9414261
20
3.8247143
40
1.4589489
50
180.0147171
51
184.6489987
0
ARC
8
DEFAULT_255_2_778
10
39.323767
20
3.9979411
40
2.8514265
50
185.8670982
51
205.1932987
0
LINE
8
DEFAULT_255_2_778
10
36.7435772
20
2.7841645
11
36.7435772
21
2.7457645
0
ARC
8
DEFAULT_255_2_778
10
36.6968219
20
2.7399278
40
0.0471183
50
316.2830976
51
7.1157883
0
ARC
8
DEFAULT_255_2_778
10
100.2530626
20
6.6177449
40
60.5276914
50
181.6470159
51
183.3219625
0
ARC
8
DEFAULT_255_2_778
10
-442.0995911
20
-2.0431469
40
481.8996733
50
0.8229303
51
1.031584
0
ARC
8
DEFAULT_255_2_778
10
67.0253679
20
7.202329
40
27.3093308
50
180.5764342
51
181.1950497
0
ARC
8
DEFAULT_255_2_778
10
74.6532597
20
7.2804494
40
34.9376224
50
180.0581584
51
180.5786907
0
ARC
8
DEFAULT_255_2_778
10
79.5860773
20
7.2922379
40
39.8704501
50
179.9998179
51
180.0679035
0
ARC
8
DEFAULT_255_2_778
10
84.9751138
20
7.2858441
40
45.2594871
50
179.5500386
51
179.9917455
0
ARC
8
DEFAULT_255_2_778
10
95.5251677
20
7.2042246
40
55.8098565
50
179.1703577
51
179.5513064
0
ARC
8
DEFAULT_255_2_778
10
102.2472875
20
7.1138059
40
62.5325813
50
179.1262634
51
179.1767014
0
ARC
8
DEFAULT_255_2_778
10
87.6436399
20
6.4442646
40
47.9491419
50
177.3418681
51
178.0601415
0
ARC
8
DEFAULT_255_2_778
10
77.9977369
20
6.8903475
40
38.2929299
50
176.6438984
51
177.339264
0
ARC
8
DEFAULT_255_2_778
10
70.4564612
20
7.3337871
40
30.7386281
50
175.8410499
51
176.6461375
0
ARC
8
DEFAULT_255_2_778
10
39.0213486
20
12.1641966
40
2.7148266
50
277.5690789
51
286.6403984
0
ARC
8
DEFAULT_255_2_778
10
38.8901477
20
13.0529481
40
3.6131395
50
273.8504239
51
277.7750721
0
ARC
8
DEFAULT_255_2_778
10
38.9805084
20
14.0250321
40
4.5795997
50
270.0132927
51
271.9053998
0
ARC
8
DEFAULT_255_2_778
10
38.9714804
20
13.2880674
40
3.8426481
50
263.2078665
51
270.1504535
0
ARC
8
DEFAULT_255_2_778
10
38.9133542
20
12.7295145
40
3.2811513
50
261.2829117
51
263.0622253
0
ARC
8
DEFAULT_255_2_778
10
411.9464957
20
6.4060252
40
373.5431186
50
179.5275332
51
180.0009756
0
ARC
8
DEFAULT_255_2_778
10
-1536.0701906
20
19.4092665
40
1574.527315
50
359.4147242
51
359.5265857
0
LINE
8
DEFAULT_255_2_778
10
38.3749772
20
3.3257645
11
38.4517772
21
3.3257645
0
LINE
8
DEFAULT_255_2_778
10
38.4517772
20
3.3257645
11
38.5157772
21
3.3257645
0
ARC
8
DEFAULT_255_2_778
10
38.5207045
20
-1.1157472
40
4.4415145
50
81.2746083
51
90.0635617
0
ARC
8
DEFAULT_255_2_778
10
38.6993423
20
0.1909695
40
3.1228966
50
68.9294548
51
80.877264
0
ARC
8
DEFAULT_255_2_778
10
41.4193477
20
9.4752087
40
0.1826415
50
129.3035776
51
136.3121289
0
ARC
8
DEFAULT_255_2_778
10
41.3074902
20
9.6123034
40
0.0057108
50
104.1858553
51
132.157261
0
ARC
8
DEFAULT_255_2_778
10
41.3061131
20
9.6174682
40
0.0003726
50
347.8155269
51
93.4532207
0
ARC
8
DEFAULT_255_2_778
10
41.2792369
20
9.6266027
40
0.0287561
50
321.2941089
51
341.3136248
0
ARC
8
DEFAULT_255_2_778
10
40.9067607
20
9.8784112
40
0.478274
50
322.712315
51
325.6607463
0
ARC
8
DEFAULT_255_2_778
10
43.03102
20
8.2768409
40
2.1820908
50
143.0457307
51
145.9393587
0
ARC
8
DEFAULT_255_2_778
10
41.6923496
20
9.2954882
40
0.5113038
50
156.5495501
51
172.981477
0
ARC
8
DEFAULT_255_2_778
10
41.8764843
20
9.0944007
40
0.7401258
50
159.1387102
51
170.4679895
0
ARC
8
DEFAULT_255_2_778
10
44.2202304
20
8.5646172
40
3.1421173
50
168.0174403
51
176.9798839
0
ARC
8
DEFAULT_255_2_778
10
47.6139342
20
7.9639877
40
6.5762419
50
173.3094577
51
177.455303
0
ARC
8
DEFAULT_255_2_778
10
63.922646
20
6.9298481
40
22.9168697
50
176.6826472
51
179.9834579
0
ARC
8
DEFAULT_255_2_778
10
108.9133039
20
6.9303533
40
67.9075269
50
179.9948437
51
181.1081333
0
ARC
8
DEFAULT_255_2_778
10
265.2355784
20
12.594847
40
224.3256514
50
181.7825067
51
182.247418
0
ARC
8
DEFAULT_255_2_778
10
169.8810021
20
9.23767
40
128.9133446
50
182.4184054
51
183.2278525
0
ARC
8
DEFAULT_255_2_778
10
40.7755672
20
1.9522167
40
0.397511
50
0.0736801
51
3.8582573
0
ARC
8
DEFAULT_255_2_778
10
40.9883318
20
1.9409844
40
0.1851189
50
325.44109
51
3.6371391
0
ARC
8
DEFAULT_255_2_778
10
41.0313048
20
1.9326646
40
0.1460644
50
264.9617105
51
318.5501079
0
ARC
8
DEFAULT_255_2_778
10
41.0278187
20
2.1991113
40
0.4120526
50
248.601041
51
268.7009599
0
ARC
8
DEFAULT_255_2_778
10
42.0953398
20
6.9405159
40
5.2677643
50
254.6374896
51
256.6327672
0
ARC
8
DEFAULT_255_2_778
10
41.2676805
20
3.9532267
40
2.1679566
50
250.8724477
51
254.8139744
0
ARC
8
DEFAULT_255_2_778
10
40.7393034
20
2.4515352
40
0.5760811
50
241.8565588
51
251.582942
0
ARC
8
DEFAULT_255_2_778
10
40.0563005
20
1.3999246
40
0.6816839
50
52.8916213
51
63.0472822
0
ARC
8
DEFAULT_255_2_778
10
40.8888451
20
2.713926
40
0.8792439
50
226.9353689
51
233.4534889
0
ARC
8
DEFAULT_255_2_778
10
40.0874767
20
1.7260066
40
0.3997643
50
59.8147364
51
73.8343448
0
ARC
8
DEFAULT_255_2_778
10
39.9274489
20
1.8370373
40
0.3848484
50
45.1683235
51
57.4029668
0
ARC
8
DEFAULT_255_2_778
10
39.9620322
20
1.8940772
40
0.3181665
50
49.8808318
51
57.1160648
0
ARC
8
DEFAULT_255_2_778
10
40.1469314
20
2.1084766
40
0.0352181
50
21.3277666
51
55.1575525
0
ARC
8
DEFAULT_255_2_778
10
40.1739196
20
2.1203789
40
0.0058882
50
0.1839378
51
8.8580051
0
ARC
8
DEFAULT_255_2_778
10
40.1719779
20
2.1223712
40
0.0080748
50
258.2832162
51
345.8536199
0
ARC
8
DEFAULT_255_2_778
10
40.1655672
20
2.1646682
40
0.0504297
50
269.7240487
51
275.4286693
0
ARC
8
DEFAULT_255_2_778
10
40.1719133
20
2.304893
40
0.1907678
50
257.9143796
51
268.0206538
0
ARC
8
DEFAULT_255_2_778
10
40.2887148
20
2.9061198
40
0.8032086
50
254.9229412
51
258.746729
0
ARC
8
DEFAULT_255_2_778
10
40.4541102
20
3.5511252
40
1.4690554
50
254.8742465
51
255.2379001
0
ARC
8
DEFAULT_255_2_778
10
34.1745274
20
-18.3827781
40
21.3462282
50
73.9652835
51
74.3344813
0
ARC
8
DEFAULT_255_2_778
10
38.4757615
20
-3.022494
40
5.3950905
50
74.2693006
51
75.1635275
0
ARC
8
DEFAULT_255_2_778
10
39.5205808
20
0.911811
40
1.3244178
50
75.2744051
51
76.0316215
0
ARC
8
DEFAULT_255_2_778
10
41.3649038
20
20.6294006
40
18.4952831
50
264.3062898
51
265.2715564
0
ARC
8
DEFAULT_255_2_778
10
39.3776823
20
0.4025656
40
1.82915
50
85.2240282
51
89.9445598
0
ARC
8
DEFAULT_255_2_778
10
39.377947
20
0.6305292
40
1.6011861
50
89.9461372
51
95.1047933
0
ARC
8
DEFAULT_255_2_778
10
39.2509599
20
0.2246437
40
2.0007808
50
90.4433787
51
93.6415479
0
ARC
8
DEFAULT_255_2_778
10
39.4676177
20
-3.5190706
40
5.7507376
50
93.4267529
51
94.7413125
0
ARC
8
DEFAULT_255_2_778
10
39.9573853
20
-9.5069096
40
11.7585714
50
94.7079554
51
95.5234927
0
ARC
8
DEFAULT_255_2_778
10
38.9759152
20
0.4256968
40
1.777736
50
94.851133
51
100.2861262
0
ARC
8
DEFAULT_255_2_778
10
38.7573291
20
1.5933944
40
0.5898101
50
99.6484308
51
111.3744377
0
ARC
8
DEFAULT_255_2_778
10
38.5769276
20
2.032728
40
0.1152143
50
107.4561114
51
147.4811472
0
ARC
8
DEFAULT_255_2_778
10
38.1971935
20
2.1752465
40
0.2938486
50
311.026275
51
344.0839054
0
ARC
8
DEFAULT_255_2_778
10
38.2667667
20
2.0759019
40
0.1737007
50
268.4529811
51
315.2269935
0
ARC
8
DEFAULT_255_2_778
10
38.1877427
20
2.3326288
40
0.4367368
50
269.9119454
51
279.7997064
0
ARC
8
DEFAULT_255_2_778
10
38.1982475
20
2.4951644
40
0.5993762
50
246.806933
51
268.9315944
0
ARC
8
DEFAULT_255_2_778
10
38.3948635
20
2.9783258
40
1.1209641
50
235.4202171
51
247.295464
0
ARC
8
DEFAULT_255_2_778
10
38.8733003
20
3.6860476
40
1.975211
50
228.2396467
51
235.645176
0
ARC
8
DEFAULT_255_2_778
10
39.0701327
20
3.9602487
40
2.3111186
50
222.6005149
51
229.1271595
0
ARC
8
DEFAULT_255_2_778
10
38.2592552
20
3.2213577
40
1.2141068
50
212.217512
51
222.8354304
0
ARC
8
DEFAULT_255_2_778
10
37.7094588
20
2.8821478
40
0.5681508
50
192.4325158
51
212.8360931
0
ARC
8
DEFAULT_255_2_778
10
37.4990735
20
2.8283835
40
0.3511981
50
180.1825485
51
191.2562007
0
ARC
8
DEFAULT_255_2_778
10
-462.0354424
20
6.3880815
40
499.1960196
50
359.5912998
51
359.9999981
0
ARC
8
DEFAULT_255_2_778
10
-461.9246192
20
9.9485316
40
499.0978964
50
359.5912596
51
0.0000267
0
ARC
8
DEFAULT_255_2_778
10
37.6514045
20
10.3026
40
0.5948153
50
184.187666
51
216.5030892
0
LINE
8
DEFAULT_255_2_778
10
37.0581772
20
10.2591645
11
37.0581772
21
10.2874645
0
ARC
8
DEFAULT_255_2_778
10
37.505313
20
10.276722
40
0.4472648
50
145.2240442
51
178.6237247
0
ARC
8
DEFAULT_255_2_778
10
37.7576608
20
10.1281564
40
0.739602
50
140.5839359
51
146.9209469
0
ARC
8
DEFAULT_255_2_778
10
37.3719102
20
10.4622706
40
0.2298222
50
88.9816215
51
143.8742094
0
ARC
8
DEFAULT_255_2_778
10
37.3747681
20
10.3652127
40
0.326846
50
80.381971
51
89.7849412
0
ARC
8
DEFAULT_255_2_778
10
37.0925621
20
8.5992484
40
2.1152048
50
75.7311634
51
80.8374901
0
ARC
8
DEFAULT_255_2_778
10
37.3615651
20
9.6680471
40
1.0130805
50
70.5756464
51
75.5770699
0
ARC
8
DEFAULT_255_2_778
10
38.1195423
20
11.6719911
40
1.1299132
50
248.1206991
51
269.1202669
0
ARC
8
DEFAULT_255_2_778
10
38.1331211
20
11.8704759
40
1.3286248
50
268.6661732
51
270.0031903
0
ARC
8
DEFAULT_255_2_778
10
38.1281059
20
12.0617477
40
1.519905
50
270.1918483
51
279.4056499
0
ARC
8
DEFAULT_255_2_778
10
38.079375
20
12.3864773
40
1.8482394
50
279.2508787
51
282.9248888
0
ARC
8
DEFAULT_255_2_778
10
40.6249165
20
-0.0091187
40
10.8066061
50
99.0843608
51
101.3790924
0
ARC
8
DEFAULT_255_2_778
10
40.1196881
20
3.1667982
40
7.5907556
50
96.1993485
51
99.1036056
0
ARC
8
DEFAULT_255_2_778
10
39.8306432
20
7.0823662
40
3.6693736
50
90.7630636
51
98.3152936
0
ARC
8
DEFAULT_255_2_778
10
39.8123181
20
7.6442039
40
3.1073607
50
90.0007533
51
90.5631652
0
LINE
8
DEFAULT_255_2_778
10
39.8122772
20
10.7515645
11
40.0299772
21
10.7515645
0
ARC
8
DEFAULT_255_2_778
10
39.867159
20
8.909241
40
1.8495042
50
68.1394098
51
84.9495184
0
ARC
8
DEFAULT_255_2_778
10
39.6997099
20
8.4504593
40
2.3376965
50
63.7327678
51
68.5173214
0
ARC
8
DEFAULT_255_2_778
10
40.478984
20
10.0208286
40
0.5846223
50
53.1202091
51
64.1077168
0
ARC
8
DEFAULT_255_2_778
10
39.755929
20
9.0230881
40
1.8167588
50
48.8336645
51
53.7639964
0
ARC
8
DEFAULT_255_2_778
10
38.3947257
20
7.4446688
40
3.90103
50
46.5779698
51
49.0433106
0
ARC
8
DEFAULT_255_2_778
10
36.37563
20
5.3042417
40
6.8435057
50
44.923486
51
46.6178911
0
ARC
8
DEFAULT_255_2_778
10
40.4718771
20
9.3704878
40
1.0718134
50
35.7480176
51
45.6455034
0
ARC
8
DEFAULT_255_2_778
10
41.0169191
20
9.7546764
40
0.4050633
50
15.618313
51
36.684467
0
ARC
8
DEFAULT_255_2_778
10
41.2119341
20
9.8151591
40
0.2010474
50
0.3720227
51
13.9805339
0
ARC
8
DEFAULT_255_2_778
10
41.1824906
20
9.8241113
40
0.2306134
50
307.1568844
51
358.0998207
0
ARC
8
DEFAULT_255_2_778
10
41.0257098
20
9.9835716
40
0.4533019
50
304.8711218
51
310.7790295
0
ARC
8
DEFAULT_255_2_778
10
39.9978134
20
16.6256707
40
11.0928666
50
290.3129582
51
293.6667837
0
ARC
8
DEFAULT_255_2_778
10
41.6019054
20
13.0206658
40
7.1471834
50
293.4898522
51
298.633545
0
ARC
8
DEFAULT_255_2_778
10
63.6921886
20
7.2344755
40
18.6716612
50
180.0001104
51
181.4943023
0
ARC
8
DEFAULT_255_2_778
10
63.6864229
20
7.2344287
40
18.6658957
50
178.5054668
51
179.9999668
0
ARC
8
DEFAULT_255_2_778
10
61.5724858
20
7.714636
40
16.54561
50
176.6483276
51
179.977046
0
ARC
8
DEFAULT_255_2_778
10
11.1452569
20
12.2675063
40
34.0989561
50
353.9641295
51
354.8503356
0
ARC
8
DEFAULT_255_2_778
10
48.9311828
20
9.0245657
40
3.8289477
50
169.1584763
51
177.2710767
0
ARC
8
DEFAULT_255_2_778
10
42.1477272
20
17.5712578
40
8.3899713
50
285.2225781
51
291.1182066
0
ARC
8
DEFAULT_255_2_778
10
43.2047874
20
14.1576627
40
4.8201837
50
273.7253979
51
283.7524489
0
ARC
8
DEFAULT_255_2_778
10
42.1524687
20
8.6034781
40
1.5551293
50
6.6684075
51
28.5898749
0
ARC
8
DEFAULT_255_2_778
10
87.6956221
20
14.2173144
40
44.3327436
50
187.0396476
51
187.715988
0
ARC
8
DEFAULT_255_2_778
10
81.2221409
20
13.3506209
40
37.8015116
50
187.7316011
51
187.8390171
0
ARC
8
DEFAULT_255_2_778
10
31.4212049
20
6.8981173
40
12.4205501
50
1.4317755
51
5.9927931
0
ARC
8
DEFAULT_255_2_778
10
32.5659856
20
6.5668913
40
11.2901354
50
0.0144571
51
3.2576451
0
ARC
8
DEFAULT_255_2_778
10
33.005146
20
6.5689678
40
10.8509747
50
358.1684829
51
0.0040777
0
ARC
8
DEFAULT_255_2_778
10
44.4785479
20
13.2454747
40
7.5535132
50
286.207633
51
287.5504642
0
ARC
8
DEFAULT_255_2_778
10
45.7985686
20
7.8215614
40
1.9920149
50
288.1041311
51
293.3117775
0
LINE
8
DEFAULT_255_2_778
10
46.4175772
20
5.9281645
11
46.4175772
21
5.7101645
0
ARC
8
DEFAULT_255_2_778
10
44.3301486
20
5.4795523
40
2.1001287
50
0.0030612
51
6.3042829
0
ARC
8
DEFAULT_255_2_778
10
76.9417311
20
6.1369412
40
30.5185326
50
181.2340727
51
183.5399013
0
LINE
8
DEFAULT_255_2_778
10
46.4814265
20
4.252616
11
46.4815772
21
4.2501645
0
ARC
8
DEFAULT_255_2_778
10
4.8729942
20
2.3262033
40
41.6530408
50
0.9771837
51
2.647444
0
ARC
8
DEFAULT_255_2_778
10
-16.2755344
20
-0.0637525
40
62.8719989
50
2.5843141
51
2.8264912
0
ARC
8
DEFAULT_255_2_778
10
-59.4375601
20
-2.0185498
40
106.0782678
50
2.4185149
51
2.5879087
0
ARC
8
DEFAULT_255_2_778
10
-91.4257491
20
-3.3849558
40
138.0956244
50
2.4045994
51
2.4248773
0
ARC
8
DEFAULT_255_2_778
10
44.9945622
20
2.2884589
40
1.5583812
50
0.08165
51
4.4349635
0
ARC
8
DEFAULT_255_2_778
10
45.4796603
20
2.2800011
40
1.0733345
50
346.8483766
51
0.5700438
0
ARC
8
DEFAULT_255_2_778
10
45.8576483
20
2.19144
40
0.6851104
50
327.1457079
51
346.8680439
0
ARC
8
DEFAULT_255_2_778
10
46.2539478
20
1.9643779
40
0.2302959
50
277.143242
51
321.1012576
0
ARC
8
DEFAULT_255_2_778
10
46.1986359
20
2.2203739
40
0.4917235
50
269.5850717
51
279.8299502
0
ARC
8
DEFAULT_255_2_778
10
46.1958992
20
2.4363414
40
0.7076787
50
266.3929893
51
269.9332712
0
ARC
8
DEFAULT_255_2_778
10
46.5082718
20
4.2131519
40
2.5086045
50
253.0447329
51
261.8208826
0
ARC
8
DEFAULT_255_2_778
10
46.6913494
20
4.868391
40
3.1887921
50
252.1872909
51
253.3315793
0
ARC
8
DEFAULT_255_2_778
10
46.6346446
20
4.283249
40
2.6173418
50
238.2275383
51
249.4496273
0
ARC
8
DEFAULT_255_2_778
10
46.4533434
20
3.9698914
40
2.2555047
50
237.1262074
51
237.9515339
0
ARC
8
DEFAULT_255_2_778
10
45.8647481
20
2.9926614
40
1.1158602
50
228.6550794
51
235.2728567
0
ARC
8
DEFAULT_255_2_778
10
45.3497013
20
2.4160179
40
0.3427603
50
214.1657256
51
229.6153541
0
ARC
8
DEFAULT_255_2_778
10
45.1353742
20
2.2721695
40
0.0846493
50
183.4377956
51
215.0734742
0
ARC
8
DEFAULT_255_2_778
10
45.0933716
20
2.2674685
40
0.042496
50
142.4557004
51
180.5056824
0
ARC
8
DEFAULT_255_2_778
10
44.4150317
20
2.7118333
40
0.7685597
50
327.0105613
51
350.4434447
0
ARC
8
DEFAULT_255_2_778
10
43.9949418
20
2.7941207
40
1.1965352
50
349.8974697
51
0.3342629
0
ARC
8
DEFAULT_255_2_778
10
43.5896014
20
2.7994369
40
1.6018563
50
0.0595324
51
3.8848323
0
ARC
8
DEFAULT_255_2_778
10
76.726662
20
5.1651107
40
31.6195503
50
183.5886111
51
184.0935129
0
ARC
8
DEFAULT_255_2_778
10
65.8685914
20
4.4837975
40
20.7401255
50
183.030329
51
183.5876512
0
ARC
8
DEFAULT_255_2_778
10
58.4570336
20
4.0932581
40
13.3182857
50
182.2892659
51
183.0381393
0
ARC
8
DEFAULT_255_2_778
10
-103.9803018
20
-0.2241716
40
149.1777151
50
1.4540563
51
1.8330284
0
ARC
8
DEFAULT_255_2_778
10
139.4215421
20
9.8904032
40
94.4516998
50
182.635905
51
183.2427748
0
ARC
8
DEFAULT_255_2_778
10
40.9034045
20
25.7028235
40
20.5822595
50
279.9728672
51
281.6788274
0
ARC
8
DEFAULT_255_2_778
10
41.8139368
20
21.4652564
40
16.2518514
50
277.2086825
51
279.398539
0
ARC
8
DEFAULT_255_2_778
10
-80.9305139
20
5.3487386
40
124.7837913
50
359.1793264
51
359.9968437
0
ARC
8
DEFAULT_255_2_778
10
3.2175941
20
4.13078
40
40.6268723
50
356.684787
51
359.1970723
0
ARC
8
DEFAULT_255_2_778
10
43.704664
20
1.8060829
40
0.0759482
50
276.4725229
51
341.0063765
0
ARC
8
DEFAULT_255_2_778
10
43.6057385
20
2.1667992
40
0.4492292
50
269.8439336
51
283.8434342
0
ARC
8
DEFAULT_255_2_778
10
43.5849403
20
2.6419232
40
0.9245588
50
269.9836965
51
271.2131464
0
ARC
8
DEFAULT_255_2_778
10
43.5986727
20
3.3962384
40
1.6789322
50
260.2388948
51
269.5223806
0
ARC
8
DEFAULT_255_2_778
10
43.7288543
20
4.2467062
40
2.5392087
50
257.3984764
51
260.5974844
0
ARC
8
DEFAULT_255_2_778
10
43.7429414
20
4.1380068
40
2.4364892
50
243.3446513
51
256.5174814
0
ARC
8
DEFAULT_255_2_778
10
43.0231354
20
2.6632209
40
0.7957312
50
229.481966
51
242.0256815
0
ARC
8
DEFAULT_255_2_778
10
42.6982321
20
2.2933251
40
0.3035239
50
202.0414329
51
230.7421807
0
ARC
8
DEFAULT_255_2_778
10
42.585161
20
2.2405827
40
0.1790402
50
180.1459395
51
199.9753841
0
ARC
8
DEFAULT_255_2_778
10
42.5817189
20
2.2401004
40
0.1755976
50
175.0459067
51
179.9914201
0
ARC
8
DEFAULT_255_2_778
10
12.9056592
20
4.2668169
40
29.5696179
50
356.0992889
51
359.0004044
0
ARC
8
DEFAULT_255_2_778
10
-47.4797442
20
5.2625546
40
89.9632215
50
359.0372531
51
359.9998152
0
ARC
8
DEFAULT_255_2_778
10
42.8393721
20
7.345657
40
2.1135717
50
250.6101025
51
260.3060374
0
ARC
8
DEFAULT_255_2_778
10
42.5563136
20
6.7377779
40
1.4476654
50
239.3027116
51
253.1911082
0
ARC
8
DEFAULT_255_2_778
10
39.6158239
20
2.5085172
40
3.7085472
50
53.5859606
51
54.861609
0
ARC
8
DEFAULT_255_2_778
10
32.3217659
20
-7.7974033
40
16.3345136
50
54.7451091
51
55.2003901
0
ARC
8
DEFAULT_255_2_778
10
23.0449791
20
-21.1099057
40
32.5604585
50
55.1650015
51
55.2604029
0
ARC
8
DEFAULT_255_2_778
10
41.7770419
20
5.9317981
40
0.3359023
50
224.0352694
51
238.0877399
0
ARC
8
DEFAULT_255_2_778
10
41.5644026
20
5.7288137
40
0.0419806
50
187.4580973
51
226.5990348
0
ARC
8
DEFAULT_255_2_778
10
41.5824642
20
5.6886977
40
0.0690241
50
98.3163827
51
149.8515484
0
ARC
8
DEFAULT_255_2_778
10
41.713919
20
5.2420641
40
0.5340035
50
94.076096
51
105.3588751
0
ARC
8
DEFAULT_255_2_778
10
42.011701
20
2.1394152
40
3.6507724
50
95.2684745
51
95.2766061
0
ARC
8
DEFAULT_255_2_778
10
41.6755939
20
8.7702247
40
2.9954603
50
270.0168957
51
277.8821116
0
ARC
8
DEFAULT_255_2_778
10
40.4683973
20
17.5071924
40
11.8154334
50
277.8706906
51
279.8820975
0
LINE
8
DEFAULT_255_2_778
10
42.4961772
20
5.8670645
11
42.4961772
21
5.9821645
0
LINE
8
DEFAULT_255_2_778
10
42.4961772
20
5.9821645
11
42.4961772
21
6.0845645
0
LINE
8
DEFAULT_255_2_778
10
42.4961772
20
6.0845645
11
42.4961772
21
7.2246645
0
ARC
8
DEFAULT_255_2_778
10
25.9581491
20
6.8509545
40
16.5422499
50
1.2944932
51
5.2053673
0
ARC
8
DEFAULT_255_2_778
10
79.9987571
20
11.9486603
40
37.7383834
50
185.1020482
51
185.4692394
0
ARC
8
DEFAULT_255_2_778
10
99.6424045
20
13.709542
40
57.4607958
50
184.8778736
51
185.1090253
0
ARC
8
DEFAULT_255_2_778
10
122.5673598
20
15.668054
40
80.4692581
50
184.6946836
51
184.8793407
0
ARC
8
DEFAULT_255_2_778
10
40.7073102
20
8.9899257
40
1.6633154
50
3.1720573
51
13.8290311
0
ARC
8
DEFAULT_255_2_778
10
41.3723343
20
9.1588604
40
0.9772017
50
13.5311686
51
31.5568153
0
ARC
8
DEFAULT_255_2_778
10
41.5929841
20
9.2845207
40
0.7234663
50
32.2219067
51
41.1583499
0
ARC
8
DEFAULT_255_2_778
10
42.3313617
20
9.9632634
40
0.2802855
50
210.7971156
51
226.28866
0
ARC
8
DEFAULT_255_2_778
10
42.1715883
20
9.8692186
40
0.0948972
50
182.2878014
51
211.4134063
0
ARC
8
DEFAULT_255_2_778
10
42.1464465
20
9.8620761
40
0.0697604
50
115.8581466
51
177.2439545
0
ARC
8
DEFAULT_255_2_778
10
42.1980189
20
9.7916121
40
0.1564497
50
117.8313271
51
121.6088345
0
ARC
8
DEFAULT_255_2_778
10
42.3205303
20
9.4523482
40
0.5160992
50
88.9733779
51
112.2659327
0
ARC
8
DEFAULT_255_2_778
10
42.4490634
20
12.4045537
40
2.4391078
50
267.1967928
51
270.009058
0
ARC
8
DEFAULT_255_2_778
10
42.4380671
20
12.7465965
40
2.781174
50
270.2344829
51
282.0620639
0
ARC
8
DEFAULT_255_2_778
10
42.2657098
20
13.5721847
40
3.6245546
50
281.9992745
51
290.3255684
0
ARC
8
DEFAULT_255_2_778
10
42.0789159
20
14.1156844
40
4.1991184
50
290.1396739
51
290.6428113
0
ARC
8
DEFAULT_255_2_778
10
39.0225005
20
22.0035214
40
12.6582885
50
291.0021909
51
293.3292453
0
ARC
8
DEFAULT_255_2_778
10
40.1672231
20
19.3554449
40
9.7733811
50
293.3148289
51
296.1951805
0
ARC
8
DEFAULT_255_2_778
10
41.0248339
20
17.60005
40
7.8196995
50
296.2344125
51
298.2394013
0
ARC
8
DEFAULT_255_2_778
10
52.3904321
20
-5.3766888
40
17.8207203
50
114.6022323
51
115.4773364
0
ARC
8
DEFAULT_255_2_778
10
48.9216373
20
2.2097793
40
9.4788382
50
113.295711
51
114.6292669
0
ARC
8
DEFAULT_255_2_778
10
45.3719739
20
10.4157173
40
0.5382814
50
89.8007173
51
111.6964332
0
ARC
8
DEFAULT_255_2_778
10
45.3905941
20
10.123248
40
0.8309165
50
89.9942661
51
91.1549318
0
ARC
8
DEFAULT_255_2_778
10
45.37649
20
9.9324051
40
1.0218579
50
77.6950173
51
89.2044945
0
ARC
8
DEFAULT_255_2_778
10
45.2621401
20
9.3215259
40
1.643177
50
75.9958083
51
78.3388764
0
ARC
8
DEFAULT_255_2_778
10
45.2426389
20
8.7653354
40
2.1906118
50
62.6495044
51
79.0226506
0
ARC
8
DEFAULT_255_2_778
10
45.3974625
20
8.9972771
40
1.9137176
50
45.0883385
51
63.5763142
0
ARC
8
DEFAULT_255_2_778
10
46.627124
20
10.2217851
40
0.1784773
50
26.4079399
51
47.1175323
0
ARC
8
DEFAULT_255_2_778
10
46.5554144
20
10.2237393
40
0.2441639
50
0.1701869
51
18.4878533
0
ARC
8
DEFAULT_255_2_778
10
51.2643081
20
8.2772684
40
4.8708721
50
156.4366146
51
170.0171707
0
ARC
8
DEFAULT_255_2_778
10
51.9357848
20
8.1457432
40
5.5549983
50
169.8817303
51
174.9350652
0
ARC
8
DEFAULT_255_2_778
10
65.0525176
20
7.2237948
40
18.7034434
50
175.6692504
51
180.0005523
0
ARC
8
DEFAULT_255_2_778
10
65.0976939
20
7.223671
40
18.7486195
50
180.0001724
51
180.8581765
0
ARC
8
DEFAULT_255_2_778
10
46.1752624
20
6.7408375
40
0.2678824
50
36.7841294
51
48.9523166
0
ARC
8
DEFAULT_255_2_778
10
44.9634756
20
5.7693564
40
1.8208786
50
35.2977481
51
38.4343226
0
ARC
8
DEFAULT_255_2_778
10
41.6766777
20
3.4227156
40
5.8594036
50
33.8994887
51
35.4545874
0
ARC
8
DEFAULT_255_2_778
10
34.9448216
20
-1.1171673
40
13.9790306
50
33.0854714
51
33.9551129
0
ARC
8
DEFAULT_255_2_778
10
28.6597199
20
-5.2343167
40
21.4925649
50
33.1144786
51
33.135088
0
ARC
8
DEFAULT_255_2_778
10
45.3198998
20
5.5984719
40
1.6204678
50
27.6583202
51
34.1168752
0
ARC
8
DEFAULT_255_2_778
10
46.2095083
20
6.0574441
40
0.6194928
50
15.1331927
51
28.2528687
0
ARC
8
DEFAULT_255_2_778
10
46.5709279
20
6.1579783
40
0.2443757
50
0.8408527
51
14.5014866
0
ARC
8
DEFAULT_255_2_778
10
46.7066777
20
6.1466455
40
0.1096195
50
293.9503868
51
7.82213
0
ARC
8
DEFAULT_255_2_778
10
55.0990496
20
8.4222779
40
4.4458132
50
169.3301959
51
170.5024061
0
ARC
8
DEFAULT_255_2_778
10
60.1458941
20
7.4771967
40
9.5803826
50
168.6620095
51
169.3641396
0
ARC
8
DEFAULT_255_2_778
10
52.1076528
20
9.2016524
40
1.3644727
50
162.8603603
51
173.3076895
0
ARC
8
DEFAULT_255_2_778
10
53.9148045
20
2.1456834
40
8.0809322
50
112.6427291
51
119.8352578
0
ARC
8
DEFAULT_255_2_778
10
43.54132
20
20.5556171
40
13.0508162
50
294.6528975
51
299.1305707
0
ARC
8
DEFAULT_255_2_778
10
50.6474905
20
8.6946599
40
1.6624133
50
180.0101787
51
187.0867532
0
LINE
8
DEFAULT_255_2_778
10
48.9977772
20
8.4895645
11
48.9977772
21
8.3104645
0
ARC
8
DEFAULT_255_2_778
10
29.4994055
20
6.8793159
40
19.5508232
50
1.6761577
51
4.197889
0
ARC
8
DEFAULT_255_2_778
10
31.7744964
20
6.9519763
40
17.2745814
50
0.0128964
51
1.6559844
0
ARC
8
DEFAULT_255_2_778
10
81.2552945
20
6.9669044
40
32.2062192
50
180.0196402
51
181.8016229
0
ARC
8
DEFAULT_255_2_778
10
84.1617848
20
7.0478274
40
35.1138183
50
181.7844992
51
182.345207
0
ARC
8
DEFAULT_255_2_778
10
32.8377151
20
5.6240928
40
16.2396674
50
357.1529883
51
359.9536817
0
ARC
8
DEFAULT_255_2_778
10
30.139743
20
5.748365
40
18.9404845
50
355.6664264
51
357.1828983
0
ARC
8
DEFAULT_255_2_778
10
64.7327244
20
2.850244
40
15.7749999
50
174.6643448
51
177.0892101
0
ARC
8
DEFAULT_255_2_778
10
61.2930621
20
3.0232112
40
12.3309921
50
177.0802633
51
179.9379539
0
LINE
8
DEFAULT_255_2_778
10
48.9620772
20
3.0365645
11
48.9620772
21
3.0238645
0
LINE
8
DEFAULT_255_2_778
10
48.9620772
20
3.0238645
11
48.9620772
21
3.0238645
0
ARC
8
DEFAULT_255_2_778
10
49.0402778
20
3.0403146
40
0.079912
50
191.8793566
51
218.7960337
0
ARC
8
DEFAULT_255_2_778
10
49.3497781
20
3.2374065
40
0.4464419
50
213.6159509
51
216.3864412
0
ARC
8
DEFAULT_255_2_778
10
48.8476973
20
2.9109875
40
0.1554004
50
359.0697334
51
23.3437845
0
ARC
8
DEFAULT_255_2_778
10
49.0078897
20
2.7651064
40
0.1434389
50
65.6296845
51
91.922665
0
LINE
8
DEFAULT_255_2_778
10
49.0670772
20
2.8957645
11
49.1311772
21
2.8957645
0
ARC
8
DEFAULT_255_2_778
10
49.6821333
20
6.4185492
40
3.5656085
50
261.1110701
51
267.1134922
0
ARC
8
DEFAULT_255_2_778
10
49.3066104
20
-0.0723085
40
2.9363196
50
78.5983746
51
86.1732975
0
ARC
8
DEFAULT_255_2_778
10
64.4593989
20
2.9889835
40
14.5734697
50
180.0000106
51
180.719167
0
ARC
8
DEFAULT_255_2_778
10
64.5604406
20
2.9862277
40
14.6745117
50
172.7833414
51
179.9892507
0
ARC
8
DEFAULT_255_2_778
10
177.7444829
20
-12.7413546
40
128.9450944
50
171.2594613
51
172.1680832
0
ARC
8
DEFAULT_255_2_778
10
105.6093639
20
-1.757234
40
55.9786579
50
169.9557152
51
171.1518807
0
ARC
8
DEFAULT_255_2_778
10
73.0213326
20
4.1000502
40
22.8686843
50
167.220061
51
170.1658089
0
ARC
8
DEFAULT_255_2_778
10
52.3148678
20
9.4710727
40
0.1498693
50
126.6165577
51
158.3636757
0
ARC
8
DEFAULT_255_2_778
10
52.8177452
20
9.2331251
40
0.7059564
50
155.459761
51
165.6752967
0
ARC
8
DEFAULT_255_2_778
10
53.7799176
20
8.9644003
40
1.7048471
50
164.9254119
51
168.3191182
0
ARC
8
DEFAULT_255_2_778
10
45.1684506
20
10.6890131
40
7.0776567
50
347.4057489
51
348.7610085
0
ARC
8
DEFAULT_255_2_778
10
49.8255335
20
9.6428982
40
2.3045356
50
344.8070873
51
347.5422124
0
ARC
8
DEFAULT_255_2_778
10
51.5449183
20
9.1731265
40
0.5221393
50
339.3705031
51
345.1092744
0
ARC
8
DEFAULT_255_2_778
10
55.9062981
20
7.8487751
40
4.0371345
50
163.5920251
51
169.944535
0
ARC
8
DEFAULT_255_2_778
10
59.5002023
20
6.7694422
40
7.7764767
50
166.7359896
51
170.0123339
0
ARC
8
DEFAULT_255_2_778
10
79.6217112
20
2.4360036
40
28.3552957
50
168.4401447
51
170.7294081
0
ARC
8
DEFAULT_255_2_778
10
107.2912836
20
-1.8480095
40
56.3540728
50
170.962678
51
172.1345756
0
ARC
8
DEFAULT_255_2_778
10
98.2565751
20
-0.9994694
40
47.2898973
50
171.6550076
51
174.0169413
0
ARC
8
DEFAULT_255_2_778
10
184.513351
20
-10.2716508
40
134.0434907
50
173.9183088
51
174.7490904
0
ARC
8
DEFAULT_255_2_778
10
50.8888044
20
1.9960266
40
0.1435733
50
312.7255368
51
359.8555205
0
ARC
8
DEFAULT_255_2_778
10
50.905087
20
2.0001252
40
0.136336
50
266.9457627
51
306.5178934
0
ARC
8
DEFAULT_255_2_778
10
50.8996153
20
2.1570016
40
0.2930241
50
260.9012007
51
269.6495262
0
ARC
8
DEFAULT_255_2_778
10
51.5948605
20
6.3746607
40
4.5675989
50
258.5588221
51
260.6562483
0
ARC
8
DEFAULT_255_2_778
10
51.0332054
20
3.6062317
40
1.7427714
50
255.500916
51
258.6030009
0
ARC
8
DEFAULT_255_2_778
10
49.6662419
20
-0.8155854
40
2.8885715
50
71.2052848
51
80.4503337
0
ARC
8
DEFAULT_255_2_778
10
49.4978908
20
-1.7454546
40
3.8335025
50
80.2747097
51
84.8653385
0
ARC
8
DEFAULT_255_2_778
10
50.0791319
20
5.9346698
40
3.8693413
50
256.3655194
51
266.4712631
0
ARC
8
DEFAULT_255_2_778
10
49.9851201
20
5.5035456
40
3.4282207
50
253.6676869
51
256.1939574
0
ARC
8
DEFAULT_255_2_778
10
47.5037211
20
1.6614645
40
1.6147119
50
13.7173354
51
19.9975836
0
ARC
8
DEFAULT_255_2_778
10
49.7739504
20
2.3320504
40
0.7582665
50
202.2964812
51
213.2055964
0
ARC
8
DEFAULT_255_2_778
10
49.4630574
20
2.1374662
40
0.3916467
50
214.2953158
51
216.7079848
0
ARC
8
DEFAULT_255_2_778
10
49.1207254
20
1.8824052
40
0.0352579
50
2.5488386
51
36.4739356
0
ARC
8
DEFAULT_255_2_778
10
49.1103761
20
1.8934696
40
0.0465512
50
280.2746297
51
348.2290236
0
ARC
8
DEFAULT_255_2_778
10
48.9892431
20
2.2026406
40
0.3778378
50
277.3957919
51
290.0335737
0
ARC
8
DEFAULT_255_2_778
10
48.8484564
20
3.1343603
40
1.3200753
50
272.9776146
51
278.2500866
0
ARC
8
DEFAULT_255_2_778
10
48.7733002
20
4.272075
40
2.4602097
50
272.1914925
51
273.3491992
0
LINE
8
DEFAULT_255_2_778
10
48.8673772
20
1.8136645
11
48.8546772
21
1.8136645
0
ARC
8
DEFAULT_255_2_778
10
48.8631609
20
2.6909541
40
0.8773306
50
237.4812886
51
269.4459477
0
ARC
8
DEFAULT_255_2_778
10
49.0733807
20
3.0561178
40
1.2983908
50
228.5610343
51
238.3216178
0
ARC
8
DEFAULT_255_2_778
10
48.8471346
20
2.868261
40
1.0088441
50
208.3176797
51
231.1335188
0
ARC
8
DEFAULT_255_2_778
10
49.1389775
20
3.0461798
40
1.3502827
50
205.4155796
51
209.0894999
0
ARC
8
DEFAULT_255_2_778
10
48.9531926
20
2.9966267
40
1.1617375
50
190.7076378
51
207.1409222
0
ARC
8
DEFAULT_255_2_778
10
49.6351284
20
3.1355956
40
1.8576458
50
181.6759839
51
191.011358
0
ARC
8
DEFAULT_255_2_778
10
-46.8124064
20
1.2855336
40
94.6077273
50
1.0875854
51
1.2791178
0
ARC
8
DEFAULT_255_2_778
10
-18.2474793
20
1.9273377
40
66.0355916
50
1.2756555
51
1.5495177
0
ARC
8
DEFAULT_255_2_778
10
3.3371204
20
2.5107553
40
44.4431087
50
1.550114
51
1.8473448
0
ARC
8
DEFAULT_255_2_778
10
18.2968712
20
2.9951412
40
29.4755181
50
1.843687
51
2.2344761
0
LINE
8
DEFAULT_255_2_778
10
47.7499772
20
4.1443645
11
47.7499772
21
5.0023645
0
LINE
8
DEFAULT_255_2_778
10
47.7499772
20
5.0023645
11
47.7499772
21
5.4251645
0
ARC
8
DEFAULT_255_2_778
10
37.2189625
20
5.41107
40
10.5310241
50
0.0766839
51
2.024022
0
ARC
8
DEFAULT_255_2_778
10
33.5794562
20
5.2973758
40
14.1722831
50
1.9637086
51
2.5886346
0
ARC
8
DEFAULT_255_2_778
10
-18.3815899
20
4.7331774
40
66.1298337
50
1.0434683
51
1.9237774
0
ARC
8
DEFAULT_255_2_778
10
-13.0831625
20
4.9024142
40
60.8287119
50
1.931997
51
2.2422008
0
ARC
8
DEFAULT_255_2_778
10
-118.6271261
20
-0.0721413
40
166.488618
50
2.5317861
51
2.7568713
0
ARC
8
DEFAULT_255_2_778
10
-138.9723704
20
-1.0513614
40
186.8574137
50
2.7567251
51
2.9651396
0
ARC
8
DEFAULT_255_2_778
10
55.7451623
20
9.2666769
40
8.1364676
50
182.0002023
51
184.5977138
0
ARC
8
DEFAULT_255_2_778
10
59.0422955
20
9.3850333
40
11.4357233
50
179.9462341
51
182.0162573
0
ARC
8
DEFAULT_255_2_778
10
45.6605218
20
9.4086079
40
1.9460978
50
359.621871
51
11.6021704
0
ARC
8
DEFAULT_255_2_778
10
46.1984055
20
9.5187401
40
1.3970551
50
11.6142501
51
27.529416
0
ARC
8
DEFAULT_255_2_778
10
47.4866776
20
10.2251725
40
0.0782678
50
186.9037892
51
230.8634691
0
ARC
8
DEFAULT_255_2_778
10
47.48451
20
10.213132
40
0.0755786
50
95.337549
51
178.0038464
0
ARC
8
DEFAULT_255_2_778
10
47.5569632
20
9.953983
40
0.3437163
50
88.7738286
51
103.370569
0
ARC
8
DEFAULT_255_2_778
10
47.5615698
20
9.5325471
40
0.7650785
50
85.2129932
51
89.7941618
0
ARC
8
DEFAULT_255_2_778
10
47.5389221
20
9.225923
40
1.0725274
50
83.9438414
51
85.3743083
0
ARC
8
DEFAULT_255_2_778
10
45.3320621
20
-13.9487885
40
24.3520188
50
84.2206861
51
84.5331439
0
ARC
8
DEFAULT_255_2_778
10
46.8302235
20
0.772168
40
9.55503
50
83.5025877
51
84.2697896
0
ARC
8
DEFAULT_255_2_778
10
47.6927679
20
8.2867349
40
1.9911364
50
81.5776519
51
83.6944736
0
ARC
8
DEFAULT_255_2_778
10
47.9311992
20
9.9091188
40
0.3513311
50
79.0596476
51
81.2891674
0
ARC
8
DEFAULT_255_2_778
10
42.2000126
20
-7.0990014
40
18.2960141
50
70.9634311
51
71.5249166
0
ARC
8
DEFAULT_255_2_778
10
38.0701688
20
-19.0820332
40
30.970739
50
70.576594
51
70.9718284
0
ARC
8
DEFAULT_255_2_778
10
48.0054717
20
9.1156313
40
1.0739659
50
49.8954939
51
70.1936153
0
ARC
8
DEFAULT_255_2_778
10
48.1083008
20
9.2532308
40
0.9025344
50
47.7463688
51
49.2613865
0
ARC
8
DEFAULT_255_2_778
10
63.5647808
20
-19.7488761
40
33.1787277
50
115.4798993
51
116.5874989
0
ARC
8
DEFAULT_255_2_778
10
57.0657098
20
-6.0394952
40
18.0069346
50
113.5166004
51
115.5777486
0
ARC
8
DEFAULT_255_2_778
10
47.8735299
20
15.7987223
40
5.6924559
50
290.6462899
51
295.2691827
0
ARC
8
DEFAULT_255_2_778
10
50.8205926
20
9.5675109
40
1.2005333
50
93.2908169
51
115.5144118
0
ARC
8
DEFAULT_255_2_778
10
50.8802998
20
10.1210961
40
0.6576687
50
90.0455251
51
101.278227
0
ARC
8
DEFAULT_255_2_778
10
50.8951865
20
9.7601769
40
1.0187042
50
48.4341162
51
90.8667111
0
ARC
8
DEFAULT_255_2_778
10
48.7425992
20
7.2342118
40
4.3373075
50
40.4646098
51
49.2977921
0
ARC
8
DEFAULT_255_2_778
10
49.1928551
20
7.6313189
40
3.737049
50
36.7859287
51
40.3125855
0
ARC
8
DEFAULT_255_2_778
10
51.6667456
20
9.4632307
40
0.6589204
50
22.5071434
51
38.028906
0
LINE
8
DEFAULT_255_2_778
10
52.2754772
20
9.7154645
11
52.2754772
21
9.6770645
0
ARC
8
DEFAULT_255_2_778
10
52.1679788
20
9.686174
40
0.1078837
50
293.8653884
51
355.1563214
0
ARC
8
DEFAULT_255_2_778
10
52.1051349
20
9.7648603
40
0.2068627
50
300.9031553
51
300.9839484
0
ARC
8
DEFAULT_255_2_778
10
57.0367844
20
2.7312251
40
0.41588
50
32.9099418
51
46.534181
0
ARC
8
DEFAULT_255_2_778
10
57.3188877
20
2.9118613
40
0.0809201
50
4.3255528
51
34.0597172
0
ARC
8
DEFAULT_255_2_778
10
57.323582
20
2.9472014
40
0.0814253
50
278.4714255
51
338.9572843
0
ARC
8
DEFAULT_255_2_778
10
57.1259584
20
3.2690536
40
0.4537146
50
270.6085329
51
297.5166096
0
ARC
8
DEFAULT_255_2_778
10
57.2279634
20
-1.3179637
40
4.1344707
50
91.3469369
51
97.6849372
0
ARC
8
DEFAULT_255_2_778
10
57.4425317
20
-2.940609
40
5.771237
50
97.6417692
51
102.4848278
0
ARC
8
DEFAULT_255_2_778
10
57.8898342
20
-4.9786319
40
7.8577667
50
102.4567061
51
106.275617
0
ARC
8
DEFAULT_255_2_778
10
58.2165696
20
-6.1494308
40
9.0732271
50
106.1841489
51
106.2963126
0
ARC
8
DEFAULT_255_2_778
10
57.1623595
20
-2.5935075
40
5.3643708
50
106.1462915
51
111.6565763
0
ARC
8
DEFAULT_255_2_778
10
56.6318361
20
-1.2656582
40
3.9344666
50
111.612273
51
118.8333416
0
ARC
8
DEFAULT_255_2_778
10
56.1191659
20
-0.3391051
40
2.8755404
50
118.7881175
51
128.264187
0
ARC
8
DEFAULT_255_2_778
10
54.3423326
20
1.8719694
40
0.0468624
50
94.8418059
51
133.4957749
0
ARC
8
DEFAULT_255_2_778
10
54.3084897
20
1.894852
40
0.0112253
50
81.8698976
51
188.1301024
0
LINE
8
DEFAULT_255_2_778
10
54.2973772
20
1.8932645
11
54.2846772
21
1.8932645
0
LINE
8
DEFAULT_255_2_778
10
54.2846772
20
1.8932645
11
54.2846772
21
1.8805645
0
ARC
8
DEFAULT_255_2_778
10
54.1393804
20
2.1360956
40
0.2939512
50
268.3618714
51
299.6228866
0
ARC
8
DEFAULT_255_2_778
10
54.1450886
20
2.412957
40
0.5708669
50
250.5630596
51
268.5835513
0
ARC
8
DEFAULT_255_2_778
10
54.3749845
20
3.1057777
40
1.3007775
50
241.7534849
51
251.1689711
0
ARC
8
DEFAULT_255_2_778
10
54.9533123
20
4.2044704
40
2.542362
50
236.3483575
51
241.9904261
0
ARC
8
DEFAULT_255_2_778
10
55.4629662
20
4.9988523
40
3.4860804
50
236.3067812
51
236.6105607
0
ARC
8
DEFAULT_255_2_778
10
55.2189736
20
4.7159196
40
3.1156612
50
232.4324983
51
237.1536691
0
ARC
8
DEFAULT_255_2_778
10
54.3288156
20
3.5669378
40
1.6622193
50
224.9916796
51
232.6062814
0
ARC
8
DEFAULT_255_2_778
10
53.689133
20
2.9353964
40
0.763348
50
211.6808307
51
225.413973
0
ARC
8
DEFAULT_255_2_778
10
53.2965305
20
2.7003437
40
0.3058639
50
182.1290279
51
212.8353918
0
ARC
8
DEFAULT_255_2_778
10
53.2024793
20
2.6890046
40
0.2116018
50
176.949687
51
180.0064372
0
ARC
8
DEFAULT_255_2_778
10
258.8093512
20
-13.4802196
40
206.4532121
50
175.241043
51
175.5049129
0
ARC
8
DEFAULT_255_2_778
10
44.6665983
20
4.5778196
40
8.4525805
50
353.6841989
51
0.0355529
0
ARC
8
DEFAULT_255_2_778
10
44.0229713
20
4.5827956
40
9.0962059
50
0.0016939
51
4.5207803
0
ARC
8
DEFAULT_255_2_778
10
15.4824373
20
2.4345322
40
37.7174271
50
4.3567136
51
5.4895878
0
ARC
8
DEFAULT_255_2_778
10
52.6016914
20
5.6158768
40
0.6025082
50
45.1144467
51
59.0253886
0
ARC
8
DEFAULT_255_2_778
10
52.4724531
20
5.7094804
40
0.6098534
50
43.914425
51
55.0198931
0
ARC
8
DEFAULT_255_2_778
10
54.8264197
20
8.1950223
40
2.8215279
50
223.8265611
51
224.7345777
0
ARC
8
DEFAULT_255_2_778
10
65.6414886
20
18.6176602
40
17.8414134
50
223.6268437
51
223.9232449
0
ARC
8
DEFAULT_255_2_778
10
91.9180822
20
43.6916924
40
54.1617427
50
223.5307462
51
223.6480429
0
ARC
8
DEFAULT_255_2_778
10
134.6634685
20
84.3072243
40
113.1260494
50
223.4619069
51
223.5337051
0
ARC
8
DEFAULT_255_2_778
10
53.5498386
20
7.3198704
40
1.2964635
50
213.4435815
51
219.7440544
0
ARC
8
DEFAULT_255_2_778
10
52.73357
20
6.7895082
40
0.3231373
50
198.1962546
51
214.7396188
0
ARC
8
DEFAULT_255_2_778
10
52.5354776
20
6.7184543
40
0.1129039
50
191.5934068
51
195.3319863
0
ARC
8
DEFAULT_255_2_778
10
52.4910298
20
6.6945788
40
0.0661632
50
78.9463394
51
178.9731221
0
ARC
8
DEFAULT_255_2_778
10
52.5144061
20
6.531196
40
0.2285687
50
89.9571064
51
92.6809113
0
ARC
8
DEFAULT_255_2_778
10
49.9875617
20
24.5600306
40
17.9787452
50
278.0800048
51
278.698181
0
ARC
8
DEFAULT_255_2_778
10
52.9436072
20
4.5820126
40
2.21876
50
89.8458353
51
96.1352055
0
ARC
8
DEFAULT_255_2_778
10
31.2802412
20
5.0636395
40
21.7388529
50
4.583322
51
7.9802025
0
ARC
8
DEFAULT_255_2_778
10
-68.3911915
20
-6.4257379
40
122.0649363
50
6.8257303
51
7.122526
0
ARC
8
DEFAULT_255_2_778
10
-54.3014997
20
-4.6646689
40
107.8656131
50
7.1222733
51
7.4445768
0
ARC
8
DEFAULT_255_2_778
10
48.8724102
20
8.6662342
40
3.8370552
50
9.6761768
51
11.272294
0
ARC
8
DEFAULT_255_2_778
10
43.4109735
20
7.59417
40
9.4027093
50
11.1737356
51
11.8308933
0
ARC
8
DEFAULT_255_2_778
10
33.5604503
20
5.5272378
40
19.4677483
50
11.8409952
51
12.4474465
0
ARC
8
DEFAULT_255_2_778
10
14.5980458
20
1.3517721
40
38.8844228
50
12.4328362
51
12.8142271
0
ARC
8
DEFAULT_255_2_778
10
59.4122935
20
11.5434735
40
7.0741193
50
192.792927
51
192.8019954
0
ARC
8
DEFAULT_255_2_778
10
54.3809109
20
10.3637299
40
1.9067508
50
187.5003953
51
191.7000173
0
ARC
8
DEFAULT_255_2_778
10
53.7548457
20
10.2824406
40
1.2754319
50
181.9245137
51
187.5510834
0
ARC
8
DEFAULT_255_2_778
10
53.4524527
20
10.2690297
40
0.9727644
50
180.0158433
51
181.7332023
0
ARC
8
DEFAULT_255_2_778
10
53.1317546
20
10.2771258
40
0.6521199
50
167.2094955
51
180.7349807
0
ARC
8
DEFAULT_255_2_778
10
52.8049475
20
10.3560146
40
0.3159904
50
139.1469339
51
168.0400581
0
ARC
8
DEFAULT_255_2_778
10
52.7426839
20
10.4021084
40
0.2388158
50
121.9868945
51
137.7401447
0
ARC
8
DEFAULT_255_2_778
10
52.694507
20
10.47752
40
0.1493362
50
92.3142207
51
121.6359078
0
ARC
8
DEFAULT_255_2_778
10
52.7094973
20
10.3525256
40
0.2750134
50
89.9115692
51
94.3836578
0
ARC
8
DEFAULT_255_2_778
10
52.7024061
20
10.1478404
40
0.4797571
50
77.5316539
51
89.1023864
0
ARC
8
DEFAULT_255_2_778
10
52.6039614
20
9.665908
40
0.9716101
50
72.3857594
51
77.9990794
0
ARC
8
DEFAULT_255_2_778
10
66.2209207
20
55.8914846
40
47.2180827
50
253.6109774
51
253.8215971
0
ARC
8
DEFAULT_255_2_778
10
57.8882351
20
27.1516395
40
17.2946426
50
253.8048453
51
254.2021071
0
ARC
8
DEFAULT_255_2_778
10
55.0999765
20
17.3128014
40
7.0683493
50
254.2375098
51
254.4775803
0
ARC
8
DEFAULT_255_2_778
10
53.5361757
20
12.8308466
40
2.3515413
50
261.987028
51
270.0943809
0
ARC
8
DEFAULT_255_2_778
10
53.5378186
20
13.1549948
40
2.6756872
50
270.0477674
51
275.0184243
0
ARC
8
DEFAULT_255_2_778
10
56.8622704
20
-20.2809047
40
30.9252697
50
94.6866577
51
95.7351972
0
ARC
8
DEFAULT_255_2_778
10
52.0176554
20
29.726546
40
19.325083
50
276.8885542
51
278.7220463
0
ARC
8
DEFAULT_255_2_778
10
52.3771018
20
27.3307953
40
16.9025326
50
278.7491808
51
279.4173621
0
ARC
8
DEFAULT_255_2_778
10
42.0364377
20
86.6738922
40
77.139395
50
279.7822735
51
280.072016
0
ARC
8
DEFAULT_255_2_778
10
39.1119424
20
103.145186
40
93.8682978
50
280.071301
51
280.3255454
0
LINE
8
DEFAULT_255_2_778
10
55.9369772
20
10.7970645
11
55.9753772
21
10.7970645
0
ARC
8
DEFAULT_255_2_778
10
55.9607461
20
10.4317192
40
0.3656382
50
68.1465918
51
87.7066733
0
ARC
8
DEFAULT_255_2_778
10
55.7181229
20
9.7716098
40
1.0688212
50
60.7810166
51
69.2470173
0
ARC
8
DEFAULT_255_2_778
10
55.0651445
20
8.5842293
40
2.42389
50
55.9383707
51
61.0108901
0
ARC
8
DEFAULT_255_2_778
10
54.0751757
20
7.0914287
40
4.2150754
50
54.0177686
51
56.1554358
0
ARC
8
DEFAULT_255_2_778
10
54.5584726
20
7.8303112
40
3.3334966
50
50.1993313
51
53.2780615
0
ARC
8
DEFAULT_255_2_778
10
55.6352274
20
9.115968
40
1.6565119
50
45.1403909
51
50.3470911
0
ARC
8
DEFAULT_255_2_778
10
56.3449086
20
9.8224335
40
0.6551705
50
35.5243842
51
45.5538218
0
ARC
8
DEFAULT_255_2_778
10
56.7351904
20
10.0937759
40
0.179967
50
10.7800915
51
37.4145589
0
ARC
8
DEFAULT_255_2_778
10
56.8340556
20
10.117684
40
0.0785336
50
0.1104153
51
7.1338338
0
ARC
8
DEFAULT_255_2_778
10
56.8528668
20
10.1172505
40
0.0597252
50
302.2955512
51
0.5611268
0
ARC
8
DEFAULT_255_2_778
10
57.9121173
20
8.7380181
40
1.6795817
50
127.7099365
51
142.412452
0
ARC
8
DEFAULT_255_2_778
10
57.5755048
20
8.9965171
40
1.2551651
50
142.3903495
51
177.9066904
0
ARC
8
DEFAULT_255_2_778
10
60.7215285
20
8.752927
40
4.40986
50
176.2367339
51
177.9340118
0
ARC
8
DEFAULT_255_2_778
10
59.6949107
20
8.789501
40
3.382591
50
177.9262226
51
179.951809
0
ARC
8
DEFAULT_255_2_778
10
58.5319884
20
8.7835013
40
2.219685
50
179.7716926
51
184.8088998
0
ARC
8
DEFAULT_255_2_778
10
57.4861754
20
8.6919308
40
1.1698824
50
184.6338159
51
192.6536679
0
ARC
8
DEFAULT_255_2_778
10
56.8637902
20
8.547556
40
0.5310065
50
192.164846
51
207.0734233
0
ARC
8
DEFAULT_255_2_778
10
56.6540248
20
8.446189
40
0.2981366
50
208.0749894
51
215.3574612
0
ARC
8
DEFAULT_255_2_778
10
56.3256565
20
8.3718066
40
0.1299786
50
275.516215
51
310.9691063
0
ARC
8
DEFAULT_255_2_778
10
56.2823196
20
8.6114924
40
0.3732614
50
269.5078942
51
278.6024301
0
ARC
8
DEFAULT_255_2_778
10
56.2829256
20
8.9499798
40
0.7117452
50
263.9113256
51
269.6931421
0
ARC
8
DEFAULT_255_2_778
10
56.313293
20
9.2765556
40
1.0397093
50
262.6608012
51
264.1561697
0
ARC
8
DEFAULT_255_2_778
10
56.2466386
20
8.5767174
40
0.3378935
50
232.6660236
51
258.708227
0
ARC
8
DEFAULT_255_2_778
10
56.572988
20
9.0348452
40
0.9002622
50
222.1827758
51
233.83404
0
ARC
8
DEFAULT_255_2_778
10
57.3510027
20
9.7572355
40
1.9619019
50
216.1101805
51
222.5583646
0
ARC
8
DEFAULT_255_2_778
10
58.0642918
20
10.2983762
40
2.8571229
50
215.7311882
51
216.4472814
0
ARC
8
DEFAULT_255_2_778
10
56.9524839
20
9.4772254
40
1.4751585
50
202.8794569
51
215.0590376
0
ARC
8
DEFAULT_255_2_778
10
57.586711
20
9.7602864
40
2.1695868
50
198.3274844
51
203.2546645
0
ARC
8
DEFAULT_255_2_778
10
57.3318299
20
9.6984887
40
1.9083232
50
182.0908706
51
198.972532
0
ARC
8
DEFAULT_255_2_778
10
53.6335329
20
16.7466917
40
7.3397561
50
278.5162542
51
284.1255122
0
ARC
8
DEFAULT_255_2_778
10
54.3647388
20
12.7821167
40
3.3134041
50
270.0629158
51
276.1633506
0
ARC
8
DEFAULT_255_2_778
10
54.365616
20
12.4352281
40
2.9665149
50
263.4860077
51
270.0533301
0
ARC
8
DEFAULT_255_2_778
10
47.602192
20
8.4702321
40
6.5069524
50
7.3590738
51
8.9975108
0
ARC
8
DEFAULT_255_2_778
10
42.1800166
20
7.7569192
40
11.975838
50
6.6033867
51
7.4209151
0
ARC
8
DEFAULT_255_2_778
10
34.0729023
20
6.822078
40
20.1366726
50
5.7798208
51
6.5930149
0
ARC
8
DEFAULT_255_2_778
10
20.7028456
20
5.4619178
40
33.575736
50
5.2180774
51
5.791428
0
ARC
8
DEFAULT_255_2_778
10
10.8366578
20
4.5449939
40
43.4844301
50
5.1700526
51
5.2389297
0
ARC
8
DEFAULT_255_2_778
10
-32.2321562
20
0.6258811
40
86.7311864
50
4.8209566
51
5.1846851
0
ARC
8
DEFAULT_255_2_778
10
-50.7965471
20
-0.9446525
40
105.3618912
50
4.5573296
51
4.8235575
0
ARC
8
DEFAULT_255_2_778
10
-69.8397722
20
-2.4636185
40
124.4655997
50
4.3195785
51
4.5578149
0
ARC
8
DEFAULT_255_2_778
10
61.4628038
20
-79.283192
40
86.4936618
50
94.4792601
51
94.7687062
0
ARC
8
DEFAULT_255_2_778
10
59.3468811
20
-52.2349046
40
59.3627391
50
94.1100828
51
94.4821202
0
ARC
8
DEFAULT_255_2_778
10
55.9032234
20
-3.6234265
40
10.629578
50
93.7702688
51
94.3759714
0
ARC
8
DEFAULT_255_2_778
10
55.6070659
20
0.9545571
40
6.0420307
50
92.5075198
51
93.8225574
0
ARC
8
DEFAULT_255_2_778
10
55.459364
20
4.4091472
40
2.5842887
50
90.2684864
51
92.5868815
0
LINE
8
DEFAULT_255_2_778
10
55.4472541
20
6.9934074
11
55.4486399
21
6.9934081
0
ARC
8
DEFAULT_255_2_778
10
55.4527812
20
6.0592061
40
0.9342111
50
86.8684977
51
90.2539868
0
ARC
8
DEFAULT_255_2_778
10
55.4911085
20
6.7174371
40
0.2748789
50
79.6746228
51
87.350485
0
ARC
8
DEFAULT_255_2_778
10
55.523158
20
6.4415853
40
0.5465506
50
82.0655589
51
88.19458
0
ARC
8
DEFAULT_255_2_778
10
55.2925677
20
4.5210153
40
2.480837
50
81.5882954
51
82.9139415
0
ARC
8
DEFAULT_255_2_778
10
55.6010308
20
6.4458764
40
0.5320812
50
72.345238
51
84.1268046
0
ARC
8
DEFAULT_255_2_778
10
55.7142221
20
6.8070753
40
0.1535748
50
57.6151995
51
71.7167471
0
ARC
8
DEFAULT_255_2_778
10
65.9674664
20
20.4094031
40
16.8807882
50
232.9495059
51
233.7549822
0
ARC
8
DEFAULT_255_2_778
10
73.7034441
20
30.9496897
40
29.9553041
50
233.7412083
51
234.2905487
0
ARC
8
DEFAULT_255_2_778
10
55.9083749
20
6.2018825
40
0.5261608
50
44.6602566
51
53.7799297
0
ARC
8
DEFAULT_255_2_778
10
56.1380427
20
6.4250471
40
0.2059561
50
26.9841313
51
45.411333
0
ARC
8
DEFAULT_255_2_778
10
56.2433502
20
6.4793719
40
0.087466
50
1.1972143
51
26.5727542
0
ARC
8
DEFAULT_255_2_778
10
56.247742
20
6.4860312
40
0.0831955
50
300.0799147
51
356.6705192
0
ARC
8
DEFAULT_255_2_778
10
56.1240694
20
6.6599046
40
0.2963054
50
288.0066211
51
303.9251363
0
ARC
8
DEFAULT_255_2_778
10
55.9881157
20
7.0406059
40
0.7004835
50
282.7388138
51
288.9562804
0
ARC
8
DEFAULT_255_2_778
10
55.0247756
20
10.5250737
40
4.3150063
50
283.7280113
51
285.0136897
0
ARC
8
DEFAULT_255_2_778
10
52.6596127
20
20.0932802
40
14.1711897
50
283.3838234
51
283.8369209
0
ARC
8
DEFAULT_255_2_778
10
48.6878807
20
36.7651475
40
31.3096205
50
283.0920775
51
283.3925589
0
ARC
8
DEFAULT_255_2_778
10
42.689752
20
62.5139611
40
57.7478295
50
282.9353277
51
283.1016883
0
ARC
8
DEFAULT_255_2_778
10
35.0474658
20
95.7738365
40
91.874415
50
282.8152038
51
282.9372554
0
ARC
8
DEFAULT_255_2_778
10
39.7790767
20
70.1049878
40
65.8043177
50
283.2536453
51
283.7554165
0
ARC
8
DEFAULT_255_2_778
10
42.2937694
20
59.4237713
40
54.8310746
50
282.688115
51
283.2547817
0
ARC
8
DEFAULT_255_2_778
10
1.8718466
20
1.9346485
40
52.6172649
50
3.5459398
51
4.3566114
0
ARC
8
DEFAULT_255_2_778
10
112.525543
20
7.1659176
40
58.1707692
50
181.9475913
51
182.4754684
0
ARC
8
DEFAULT_255_2_778
10
103.6665578
20
6.7911821
40
49.3038664
50
182.4850537
51
182.6814877
0
ARC
8
DEFAULT_255_2_778
10
63.8496898
20
4.8785801
40
9.441238
50
182.3918457
51
184.806208
0
ARC
8
DEFAULT_255_2_778
10
61.5145939
20
4.6906409
40
7.098611
50
184.8737621
51
186.015984
0
ARC
8
DEFAULT_255_2_778
10
41.8964085
20
3.3124284
40
12.5746735
50
1.8394611
51
2.8910875
0
ARC
8
DEFAULT_255_2_778
10
48.5909212
20
3.5223687
40
5.8768739
50
0.1413255
51
1.8887534
0
LINE
8
DEFAULT_255_2_778
10
54.4677772
20
3.5368645
11
54.4677772
21
3.3320645
0
LINE
8
DEFAULT_255_2_778
10
54.4677772
20
3.3320645
11
54.4677772
21
3.1272645
0
ARC
8
DEFAULT_255_2_778
10
55.9217133
20
-1.9657996
40
5.2965303
50
97.8525707
51
105.9326532
0
ARC
8
DEFAULT_255_2_778
10
56.7156212
20
-7.6490125
40
11.0349229
50
94.0931037
51
97.9044768
0
ARC
8
DEFAULT_255_2_778
10
57.5483866
20
4.3130087
40
1.8810152
50
201.2329755
51
210.5196868
0
ARC
8
DEFAULT_255_2_778
10
58.0854348
20
4.5389511
40
2.4634863
50
201.0910073
51
201.6075811
0
ARC
8
DEFAULT_255_2_778
10
56.8074298
20
3.9794601
40
1.0715641
50
180.2698254
51
197.7676247
0
ARC
8
DEFAULT_255_2_778
10
57.1463236
20
3.9981792
40
1.4106462
50
179.996532
51
180.9653175
0
ARC
8
DEFAULT_255_2_778
10
61.2044842
20
4.0100901
40
5.4688198
50
176.0925327
51
180.1238941
0
ARC
8
DEFAULT_255_2_778
10
54.5868408
20
4.3948088
40
1.1615989
50
359.405908
51
9.6980109
0
ARC
8
DEFAULT_255_2_778
10
55.0963338
20
4.4769858
40
0.6455619
50
10.1261681
51
18.0923363
0
ARC
8
DEFAULT_255_2_778
10
57.7483325
20
7.1330114
40
3.1913324
50
228.5079703
51
230.3038537
0
ARC
8
DEFAULT_255_2_778
10
56.0950395
20
5.2644048
40
0.696324
50
225.5689232
51
228.5420492
0
ARC
8
DEFAULT_255_2_778
10
55.6148799
20
4.7803862
40
0.0151043
50
188.0724197
51
241.0870315
0
ARC
8
DEFAULT_255_2_778
10
55.6271896
20
4.7677309
40
0.0292287
50
97.4085976
51
158.8748131
0
ARC
8
DEFAULT_255_2_778
10
55.7532237
20
4.4153392
40
0.4028607
50
98.9455388
51
108.7962223
0
ARC
8
DEFAULT_255_2_778
10
55.8932789
20
3.6779864
40
1.1532664
50
98.5069365
51
100.1228966
0
ARC
8
DEFAULT_255_2_778
10
56.2894744
20
-1.5527067
40
6.3964331
50
92.2310825
51
95.0837292
0
ARC
8
DEFAULT_255_2_778
10
56.4409548
20
-5.2905689
40
10.1373606
50
90.1834337
51
92.2641524
0
ARC
8
DEFAULT_255_2_778
10
56.4651104
20
-7.992421
40
12.8392855
50
89.9988094
51
90.2526272
0
ARC
8
DEFAULT_255_2_778
10
56.4774006
20
4.1822901
40
0.6646832
50
74.2439695
51
91.0364768
0
ARC
8
DEFAULT_255_2_778
10
56.5834223
20
4.5288686
40
0.3024415
50
2.4937133
51
75.7459615
0
ARC
8
DEFAULT_255_2_778
10
56.3382803
20
4.4850198
40
0.550258
50
359.8777714
51
5.9466427
0
ARC
8
DEFAULT_255_2_778
10
56.2372876
20
4.4840103
40
0.6512495
50
358.0952962
51
359.9855392
0
ARC
8
DEFAULT_255_2_778
10
58.6569694
20
4.4777408
40
1.7688591
50
180.4980635
51
185.035475
0
ARC
8
DEFAULT_255_2_778
10
61.3159288
20
4.6944258
40
4.43661
50
184.8090246
51
186.9882003
0
ARC
8
DEFAULT_255_2_778
10
65.0862173
20
5.1464506
40
8.2338916
50
186.9183008
51
188.119943
0
ARC
8
DEFAULT_255_2_778
10
69.9772868
20
5.8410138
40
13.1740304
50
188.1058378
51
188.9840463
0
ARC
8
DEFAULT_255_2_778
10
58.6007576
20
4.0287937
40
1.6541294
50
188.5186755
51
201.4416711
0
ARC
8
DEFAULT_255_2_778
10
58.0981182
20
3.8257526
40
1.1120674
50
201.1713403
51
225.8469537
0
LINE
8
DEFAULT_255_2_778
10
15.4882772
20
9.7717645
11
15.4914772
21
9.7574645
0
LINE
8
DEFAULT_255_2_778
10
20.8730772
20
5.6297645
11
20.8712772
21
5.6175645
0
LINE
8
DEFAULT_255_2_778
10
18.6296772
20
8.3580645
11
18.6299772
21
8.3583645
0
LINE
8
DEFAULT_255_2_778
10
27.1741772
20
3.0272645
11
27.1728772
21
3.0328645
0
LINE
8
DEFAULT_255_2_778
10
32.0654772
20
3.0278645
11
32.0652772
21
3.0330645
0
LINE
8
DEFAULT_255_2_778
10
36.7308772
20
2.7073645
11
36.7274772
21
2.7005645
0
LINE
8
DEFAULT_255_2_778
10
39.8220772
20
3.1050645
11
39.8270772
21
3.1103645
0
LINE
8
DEFAULT_255_2_778
10
41.2848772
20
9.6116645
11
41.2872772
21
9.6013645
0
LINE
8
DEFAULT_255_2_778
10
43.8505772
20
6.2221645
11
43.8486772
21
6.2226645
0
LINE
8
DEFAULT_255_2_778
10
46.7511772
20
6.0464645
11
46.7562772
21
6.0435645
0
LINE
8
DEFAULT_255_2_778
10
50.7191772
20
9.1587645
11
50.7141772
21
9.1558645
0
LINE
8
DEFAULT_255_2_778
10
52.2113772
20
9.5873645
11
52.2254772
21
9.5913645
0
LINE
8
DEFAULT_255_2_778
10
57.3234772
20
3.0278645
11
57.3228772
21
3.0330645
0
LINE
8
DEFAULT_255_2_778
10
61.3191358
20
5.6174967
11
61.3064358
21
5.6174967
0
LINE
8
DEFAULT_255_2_778
10
61.3064358
20
5.6174967
11
61.2937358
21
5.6047967
0
ARC
8
DEFAULT_255_2_778
10
199.7929234
20
47.1703432
40
144.6019351
50
196.705237
51
197.4485759
0
ARC
8
DEFAULT_255_2_778
10
170.316004
20
35.9049372
40
113.1195237
50
196.4819132
51
197.4384806
0
ARC
8
DEFAULT_255_2_778
10
62.3194576
20
1.979917
40
0.0801368
50
0.7890577
51
18.3130239
0
ARC
8
DEFAULT_255_2_778
10
62.3312208
20
1.9864822
40
0.0685838
50
279.7938353
51
355.4324919
0
ARC
8
DEFAULT_255_2_778
10
62.2364796
20
2.2524415
40
0.3501056
50
272.9398678
51
287.6937983
0
ARC
8
DEFAULT_255_2_778
10
62.130903
20
2.702575
40
0.8092625
50
269.7732888
51
278.780451
0
ARC
8
DEFAULT_255_2_778
10
62.136889
20
3.1012364
40
1.2079525
50
259.3405328
51
269.5641791
0
ARC
8
DEFAULT_255_2_778
10
62.2146549
20
3.5721892
40
1.6851968
50
256.8627479
51
259.7039511
0
ARC
8
DEFAULT_255_2_778
10
62.3434461
20
4.8222259
40
2.9360821
50
247.9761189
51
259.9610609
0
ARC
8
DEFAULT_255_2_778
10
61.6891049
20
3.1127034
40
1.1064711
50
235.5695342
51
246.1910628
0
ARC
8
DEFAULT_255_2_778
10
61.3232257
20
2.5901418
40
0.468628
50
214.9500323
51
236.3425706
0
ARC
8
DEFAULT_255_2_778
10
61.1565533
20
2.4662653
40
0.2611208
50
198.7810786
51
213.6212414
0
ARC
8
DEFAULT_255_2_778
10
137.7210594
20
26.6904111
40
80.5663092
50
196.4064536
51
197.5607514
0
ARC
8
DEFAULT_255_2_778
10
-96.5378114
20
-43.1693934
40
163.8881142
50
16.7032545
51
17.2707025
0
ARC
8
DEFAULT_255_2_778
10
59.9727575
20
9.675834
40
4.1890537
50
266.6495425
51
269.8396765
0
ARC
8
DEFAULT_255_2_778
10
60.0639487
20
11.4620499
40
5.977561
50
265.9390857
51
266.7775693
0
ARC
8
DEFAULT_255_2_778
10
59.6320813
20
9.3316113
40
3.8321242
50
265.3322993
51
270.1279025
0
ARC
8
DEFAULT_255_2_778
10
-62.3244647
20
-3.041249
40
121.9450474
50
3.1585376
51
4.022132
0
ARC
8
DEFAULT_255_2_778
10
-60.9616996
20
-3.1019381
40
120.5877728
50
2.345618
51
3.2230061
0
ARC
8
DEFAULT_255_2_778
10
59.4667374
20
1.8411593
40
0.058813
50
274.6174293
51
352.4154631
0
ARC
8
DEFAULT_255_2_778
10
59.3681838
20
2.1883337
40
0.4187352
50
269.6737322
51
284.2803654
0
ARC
8
DEFAULT_255_2_778
10
59.3462115
20
2.6889713
40
0.9195748
50
269.9828181
51
271.2205471
0
ARC
8
DEFAULT_255_2_778
10
59.3511271
20
1.9637126
40
0.1943853
50
249.1168187
51
268.4696634
0
ARC
8
DEFAULT_255_2_778
10
59.407464
20
4.097875
40
2.3191834
50
253.710021
51
266.8948153
0
ARC
8
DEFAULT_255_2_778
10
59.4914733
20
4.1188806
40
2.3640921
50
242.6252416
51
251.8982189
0
ARC
8
DEFAULT_255_2_778
10
59.2682023
20
3.6653602
40
1.8587242
50
240.2948361
51
242.3088506
0
ARC
8
DEFAULT_255_2_778
10
58.6206648
20
2.499151
40
0.525119
50
220.5282893
51
238.6080656
0
ARC
8
DEFAULT_255_2_778
10
58.3828708
20
2.3000397
40
0.2150118
50
181.5305706
51
221.3763984
0
ARC
8
DEFAULT_255_2_778
10
-56.9948988
20
-2.4748054
40
115.2615409
50
2.3713673
51
3.2764405
0
ARC
8
DEFAULT_255_2_778
10
5390.1527768
20
304.899404
40
5340.5516095
50
183.2091332
51
183.2286791
0
ARC
8
DEFAULT_255_2_778
10
-13.0678862
20
0.6558243
40
71.2394591
50
4.2471963
51
5.3534265
0
ARC
8
DEFAULT_255_2_778
10
-17.3527264
20
0.3274621
40
75.5362804
50
5.2981748
51
6.3526684
0
ARC
8
DEFAULT_255_2_778
10
73.7803532
20
10.8904546
40
16.2112835
50
185.8226114
51
187.8176025
0
ARC
8
DEFAULT_255_2_778
10
77.0464822
20
11.2365039
40
19.4956722
50
185.1703844
51
185.8605781
0
ARC
8
DEFAULT_255_2_778
10
55.2457576
20
9.211885
40
2.3993601
50
6.4061882
51
19.7892951
0
ARC
8
DEFAULT_255_2_778
10
55.6005961
20
9.3301245
40
2.025465
50
20.0404383
51
27.3507399
0
ARC
8
DEFAULT_255_2_778
10
57.5138362
20
10.3161905
40
0.1269697
50
181.8928467
51
205.9166954
0
ARC
8
DEFAULT_255_2_778
10
57.4511329
20
10.3080906
40
0.0643159
50
95.4239219
51
176.5181265
0
ARC
8
DEFAULT_255_2_778
10
57.5254821
20
10.043729
40
0.3380953
50
88.5775913
51
103.7618844
0
ARC
8
DEFAULT_255_2_778
10
57.5307633
20
9.5599442
40
0.8217818
50
85.344501
51
89.7830682
0
ARC
8
DEFAULT_255_2_778
10
57.5033325
20
9.1816664
40
1.2010429
50
83.9395494
51
85.5049017
0
ARC
8
DEFAULT_255_2_778
10
54.4288857
20
-22.9964858
40
33.5256706
50
84.2926231
51
84.5206766
0
ARC
8
DEFAULT_255_2_778
10
56.3723193
20
-3.6281201
40
14.0600499
50
83.7886567
51
84.323826
0
ARC
8
DEFAULT_255_2_778
10
57.5272417
20
6.9278607
40
3.4410844
50
82.5644925
51
83.8889882
0
ARC
8
DEFAULT_255_2_778
10
57.8661206
20
9.5428915
40
0.8041923
50
81.2371135
51
82.3947682
0
ARC
8
DEFAULT_255_2_778
10
57.0068378
20
6.9606127
40
3.5169054
50
70.3918457
51
73.7896066
0
ARC
8
DEFAULT_255_2_778
10
56.0729883
20
4.3198139
40
6.3179533
50
68.152496
51
70.4509634
0
ARC
8
DEFAULT_255_2_778
10
58.2005369
20
9.5383234
40
0.6832938
50
45.9541527
51
70.8988535
0
ARC
8
DEFAULT_255_2_778
10
58.2948232
20
9.6485771
40
0.5385674
50
28.0937149
51
45.0093352
0
ARC
8
DEFAULT_255_2_778
10
57.5101552
20
9.2070261
40
1.4388569
50
24.3288529
51
28.8907392
0
ARC
8
DEFAULT_255_2_778
10
58.6423902
20
9.6701646
40
0.2208851
50
10.4153171
51
35.9356017
0
ARC
8
DEFAULT_255_2_778
10
61.9319059
20
4.4481289
40
6.0932051
50
116.9547655
51
120.27909
0
ARC
8
DEFAULT_255_2_778
10
61.3531625
20
5.872186
40
4.5633558
50
114.6288554
51
118.582633
0
ARC
8
DEFAULT_255_2_778
10
56.8130495
20
15.3771112
40
5.9712204
50
296.2220056
51
300.8580446
0
ARC
8
DEFAULT_255_2_778
10
55.884385
20
16.9508085
40
7.7984765
50
300.7848236
51
303.4390801
0
ARC
8
DEFAULT_255_2_778
10
61.3101881
20
8.8538908
40
1.9491788
50
112.8247017
51
125.3758344
0
ARC
8
DEFAULT_255_2_778
10
61.1106462
20
9.3251159
40
1.437448
50
96.4031922
51
112.7799516
0
LINE
8
DEFAULT_255_2_778
10
60.9503358
20
10.7535967
11
61.0913358
21
10.7535967
0
ARC
8
DEFAULT_255_2_778
10
61.0812457
20
9.3097499
40
1.443882
50
65.9650299
51
89.5996044
0
ARC
8
DEFAULT_255_2_778
10
60.9486125
20
8.9671868
40
1.810858
50
62.5726701
51
66.5469176
0
ARC
8
DEFAULT_255_2_778
10
60.7395808
20
8.5758075
40
2.2545356
50
50.6153734
51
62.439063
0
ARC
8
DEFAULT_255_2_778
10
61.0823535
20
8.9964291
40
1.7119393
50
36.3405775
51
50.5496477
0
ARC
8
DEFAULT_255_2_778
10
61.9545508
20
9.6112095
40
0.6454307
50
16.6589844
51
38.2618599
0
ARC
8
DEFAULT_255_2_778
10
62.1484055
20
9.6765688
40
0.4410321
50
0.1595181
51
15.7439961
0
ARC
8
DEFAULT_255_2_778
10
62.1663125
20
9.6782863
40
0.4231236
50
345.9264698
51
359.9336949
0
ARC
8
DEFAULT_255_2_778
10
71.2512342
20
7.4167628
40
8.9390505
50
166.0258811
51
168.1372846
0
ARC
8
DEFAULT_255_2_778
10
74.4749361
20
6.7245064
40
12.2362179
50
168.0680597
51
168.7379565
0
ARC
8
DEFAULT_255_2_778
10
19.2419665
20
16.7457787
40
43.9007836
50
348.3314543
51
349.9890122
0
ARC
8
DEFAULT_255_2_778
10
16.3140821
20
17.3360979
40
46.8875542
50
348.2428386
51
348.3486159
0
ARC
8
DEFAULT_255_2_778
10
51.7101819
20
9.9976719
40
10.7387925
50
340.9268167
51
348.0935043
0
ARC
8
DEFAULT_255_2_778
10
57.4060268
20
8.1309798
40
4.7466412
50
333.5183126
51
339.7552798
0
ARC
8
DEFAULT_255_2_778
10
60.9061136
20
6.3263207
40
0.8109143
50
300.8163928
51
337.3775371
0
LINE
8
DEFAULT_255_2_778
10
59.0778358
20
8.3582967
11
59.0778358
21
8.2685967
0
ARC
8
DEFAULT_255_2_778
10
59.5009591
20
8.2690863
40
0.4231236
50
180.0663051
51
194.0735302
0
ARC
8
DEFAULT_255_2_778
10
31.4905234
20
4.8099797
40
27.8033249
50
5.1814387
51
6.9332416
0
ARC
8
DEFAULT_255_2_778
10
27.6578641
20
4.5345092
40
31.645282
50
3.4936316
51
5.0514719
0
ARC
8
DEFAULT_255_2_778
10
42.2014867
20
-142.2566828
40
149.6929257
50
83.126905
51
83.4625815
0
LINE
8
DEFAULT_255_2_778
10
60.1153358
20
6.3604967
11
60.2304358
21
6.3604967
0
ARC
8
DEFAULT_255_2_778
10
60.2442788
20
6.8359886
40
0.4756934
50
268.332421
51
298.2600628
0
ARC
8
DEFAULT_255_2_778
10
60.2536701
20
6.7784482
40
0.4209925
50
300.8429516
51
340.2397599
0
ARC
8
DEFAULT_255_2_778
10
60.0355448
20
6.8817539
40
0.6616165
50
338.2061719
51
342.3269115
0
ARC
8
DEFAULT_255_2_778
10
57.2242509
20
7.5635638
40
3.5530685
50
345.6157339
51
355.212666
0
ARC
8
DEFAULT_255_2_778
10
56.6743656
20
7.6244757
40
4.1061458
50
355.0060494
51
355.5865718
0
ARC
8
DEFAULT_255_2_778
10
64.8941521
20
7.1551385
40
4.1286655
50
168.7344993
51
177.8712742
0
ARC
8
DEFAULT_255_2_778
10
77.5099094
20
4.9916733
40
16.9274644
50
167.4634228
51
169.8948108
0
ARC
8
DEFAULT_255_2_778
10
1606.9979527
20
-267.253396
40
1570.4408167
50
169.8542993
51
169.8808653
0
ARC
8
DEFAULT_255_2_778
10
65.9099115
20
1.0309765
40
9.6308029
50
119.8652711
51
123.9038886
0
ARC
8
DEFAULT_255_2_778
10
55.43749
20
17.0298155
40
9.4921998
50
300.6185705
51
302.5013632
0
ARC
8
DEFAULT_255_2_778
10
57.1967817
20
14.0514892
40
6.0330784
50
298.0989508
51
300.646267
0
ARC
8
DEFAULT_255_2_778
10
66.003675
20
-2.5366249
40
12.7479711
50
117.9009331
51
119.6500623
0
ARC
8
DEFAULT_255_2_778
10
67.367584
20
-4.9537801
40
15.5233627
50
119.6115022
51
120.1226782
0
ARC
8
DEFAULT_255_2_778
10
59.1568423
20
9.1158312
40
0.7678709
50
278.8326731
51
303.1853409
0
ARC
8
DEFAULT_255_2_778
10
59.1802422
20
9.0152579
40
0.6649416
50
269.9955944
51
278.1709539
0
ARC
8
DEFAULT_255_2_778
10
59.1806821
20
9.0365984
40
0.6862821
50
261.3642946
51
269.9590063
0
ARC
8
DEFAULT_255_2_778
10
64.1961196
20
3.2797831
40
0.78656
50
325.9106506
51
334.4625804
0
ARC
8
DEFAULT_255_2_778
10
62.9537144
20
4.0957144
40
2.2728868
50
322.6968409
51
326.4305577
0
ARC
8
DEFAULT_255_2_778
10
60.8721839
20
5.6717245
40
4.8837389
50
320.4547119
51
322.7889726
0
ARC
8
DEFAULT_255_2_778
10
58.3550456
20
7.7327843
40
8.1370212
50
319.552621
51
320.5483901
0
ARC
8
DEFAULT_255_2_778
10
52.4988705
20
12.7096911
40
15.8223524
50
318.8448811
51
319.5951831
0
ARC
8
DEFAULT_255_2_778
10
58.4300279
20
7.5174794
40
7.9396107
50
317.550937
51
318.8887667
0
ARC
8
DEFAULT_255_2_778
10
62.0694782
20
4.1798513
40
3.001468
50
315.0362221
51
317.6725485
0
ARC
8
DEFAULT_255_2_778
10
63.4986516
20
2.7533409
40
0.9821939
50
311.5594355
51
315.0008445
0
ARC
8
DEFAULT_255_2_778
10
64.0089159
20
2.1873978
40
0.2203013
50
270.0831895
51
309.9025985
0
ARC
8
DEFAULT_255_2_778
10
64.022195
20
2.2834729
40
0.3166415
50
238.9425926
51
267.6543879
0
ARC
8
DEFAULT_255_2_778
10
64.2365408
20
2.6796651
40
0.7669016
50
229.6626786
51
240.4948782
0
ARC
8
DEFAULT_255_2_778
10
70.6126141
20
10.2719614
40
10.6813892
50
228.7916298
51
229.953673
0
ARC
8
DEFAULT_255_2_778
10
67.0969887
20
6.2646524
40
5.3505261
50
226.9233702
51
228.8436515
0
ARC
8
DEFAULT_255_2_778
10
65.2479603
20
4.2834195
40
2.6405118
50
225.0245221
51
226.8685079
0
ARC
8
DEFAULT_255_2_778
10
65.7744643
20
4.7941287
40
3.3739471
50
223.9533399
51
224.8295289
0
ARC
8
DEFAULT_255_2_778
10
75.0234501
20
13.731072
40
16.235232
50
223.6013844
51
224.0037619
0
ARC
8
DEFAULT_255_2_778
10
99.5593558
20
37.1265654
40
50.1374391
50
223.442968
51
223.6254955
0
ARC
8
DEFAULT_255_2_778
10
126.91113
20
63.055459
40
87.8259904
50
223.4128601
51
223.4546789
0
ARC
8
DEFAULT_255_2_778
10
63.5458361
20
3.1468242
40
0.624575
50
212.4006127
51
226.0721309
0
ARC
8
DEFAULT_255_2_778
10
63.1877656
20
2.9252623
40
0.2035838
50
182.8621487
51
213.7508796
0
ARC
8
DEFAULT_255_2_778
10
63.1421325
20
2.9161752
40
0.1577004
50
126.4064576
51
180.3918427
0
ARC
8
DEFAULT_255_2_778
10
58.6479563
20
8.8843801
40
7.3133912
50
306.9928465
51
309.278062
0
ARC
8
DEFAULT_255_2_778
10
60.5947092
20
6.5100213
40
4.2429838
50
309.2270477
51
312.5277551
0
ARC
8
DEFAULT_255_2_778
10
61.9967593
20
4.9888421
40
2.1742447
50
312.3958931
51
317.7505091
0
ARC
8
DEFAULT_255_2_778
10
62.9341122
20
4.1456074
40
0.9134561
50
317.3706365
51
327.4128278
0
ARC
8
DEFAULT_255_2_778
10
63.3357095
20
3.8825596
40
0.4334411
50
328.1192388
51
334.5641709
0
ARC
8
DEFAULT_255_2_778
10
63.9163545
20
3.6258305
40
0.2019488
50
122.2891399
51
159.5477827
0
ARC
8
DEFAULT_255_2_778
10
63.867083
20
3.6891522
40
0.1223491
50
89.5069755
51
118.6215451
0
ARC
8
DEFAULT_255_2_778
10
63.8545764
20
3.5555205
40
0.256335
50
56.466485
51
86.9678053
0
ARC
8
DEFAULT_255_2_778
10
63.6984239
20
3.2734777
40
0.578267
50
52.9004216
51
59.0082279
0
LINE
8
DEFAULT_255_2_778
10
64.0472358
20
3.7346967
11
64.4955358
21
3.3632967
0
ARC
8
DEFAULT_255_2_778
10
58.646084
20
-3.3381964
40
8.8952851
50
47.5038239
51
48.8836584
0
ARC
8
DEFAULT_255_2_778
10
61.8592302
20
0.1616816
40
4.1441373
50
45.2624878
51
47.570376
0
ARC
8
DEFAULT_255_2_778
10
63.7575923
20
2.0683543
40
1.453587
50
40.6893333
51
45.5167186
0
ARC
8
DEFAULT_255_2_778
10
64.6539179
20
2.8290072
40
0.2781336
50
27.1880463
51
42.2544272
0
ARC
8
DEFAULT_255_2_778
10
64.8646466
20
2.9383343
40
0.0407465
50
3.0420695
51
25.8334954
0
LINE
8
DEFAULT_255_2_778
10
64.9053358
20
2.9404967
11
64.9053358
21
2.9404967
0
ARC
8
DEFAULT_255_2_778
10
91.7872935
20
6.3986072
40
20.7447934
50
170.566611
51
173.5970415
0
ARC
8
DEFAULT_255_2_778
10
94.3023552
20
6.106699
40
23.2767221
50
173.5733937
51
175.2571776
0
ARC
8
DEFAULT_255_2_778
10
294.9886345
20
-10.6195585
40
224.6588209
50
175.2379052
51
175.4697925
0
ARC
8
DEFAULT_255_2_778
10
271.8478404
20
-8.7868034
40
201.4455632
50
175.4695823
51
175.7189478
0
ARC
8
DEFAULT_255_2_778
10
-53395.0180139
20
3490.7954712
40
53579.4113397
50
356.2698666
51
356.2711292
0
ARC
8
DEFAULT_255_2_778
10
97.1560239
20
3.3261984
40
26.3264833
50
176.1962058
51
178.7077921
0
ARC
8
DEFAULT_255_2_778
10
80.6949725
20
3.3198368
40
9.8769814
50
176.5169436
51
180.0291818
0
ARC
8
DEFAULT_255_2_778
10
81.5101732
20
3.3164554
40
10.6921811
50
180.008837
51
181.8450849
0
ARC
8
DEFAULT_255_2_778
10
90.3221634
20
4.0643943
40
19.5291929
50
183.20602
51
185.240497
0
ARC
8
DEFAULT_255_2_778
10
87.4891733
20
3.8139213
40
16.6851698
50
185.2725328
51
186.1566076
0
ARC
8
DEFAULT_255_2_778
10
70.7666972
20
2.0262661
40
0.1335503
50
283.4831721
51
359.2408611
0
ARC
8
DEFAULT_255_2_778
10
70.5797239
20
2.3044746
40
0.4627098
50
278.5755746
51
298.1238721
0
ARC
8
DEFAULT_255_2_778
10
70.6182181
20
2.0985732
40
0.2534771
50
270.1170152
51
276.9114481
0
LINE
8
DEFAULT_255_2_778
10
70.6187358
20
1.8450967
11
70.6060358
21
1.8450967
0
LINE
8
DEFAULT_255_2_778
10
70.6060358
20
1.8450967
11
70.5933358
21
1.8450967
0
ARC
8
DEFAULT_255_2_778
10
70.524969
20
2.3950196
40
0.5541563
50
270.010346
51
277.0866834
0
ARC
8
DEFAULT_255_2_778
10
70.5258575
20
2.4061175
40
0.5652547
50
255.9400082
51
269.9200882
0
ARC
8
DEFAULT_255_2_778
10
70.4619415
20
2.6296014
40
0.7752876
50
254.9176357
51
264.5669851
0
ARC
8
DEFAULT_255_2_778
10
70.3359939
20
2.1501773
40
0.2796235
50
245.319722
51
254.2741161
0
ARC
8
DEFAULT_255_2_778
10
70.5758122
20
2.9934026
40
1.1537881
50
234.8689859
51
251.998108
0
ARC
8
DEFAULT_255_2_778
10
70.8235029
20
3.3736059
40
1.6073479
50
230.8792478
51
235.4470431
0
ARC
8
DEFAULT_255_2_778
10
70.7364849
20
3.2738766
40
1.4750786
50
218.7886924
51
231.057348
0
ARC
8
DEFAULT_255_2_778
10
70.3710269
20
2.9733897
40
1.001992
50
208.3169105
51
218.4869524
0
ARC
8
DEFAULT_255_2_778
10
76.4851161
20
6.2154897
40
7.9224712
50
207.0058656
51
207.983768
0
ARC
8
DEFAULT_255_2_778
10
86.6279684
20
11.4074846
40
19.3169478
50
206.6616832
51
207.0657101
0
ARC
8
DEFAULT_255_2_778
10
103.3556389
20
19.8061049
40
38.0346343
50
206.3234608
51
206.6609969
0
ARC
8
DEFAULT_255_2_778
10
132.0460398
20
34.010406
40
70.0487129
50
206.1142404
51
206.3307931
0
ARC
8
DEFAULT_255_2_778
10
157.7285706
20
46.6160366
40
98.6580499
50
206.0651478
51
206.1225695
0
ARC
8
DEFAULT_255_2_778
10
104.9793107
20
21.2179606
40
40.1155596
50
205.8332606
51
206.5831614
0
ARC
8
DEFAULT_255_2_778
10
95.3370526
20
16.551724
40
29.4035617
50
204.9470849
51
205.8366288
0
ARC
8
DEFAULT_255_2_778
10
90.0473207
20
14.0812755
40
23.5653871
50
204.5819805
51
204.925589
0
ARC
8
DEFAULT_255_2_778
10
56.6500023
20
9.6119656
40
13.1025088
50
330.3899848
51
335.9784651
0
ARC
8
DEFAULT_255_2_778
10
72.2705598
20
0.568869
40
4.9483756
50
148.7209747
51
163.3669602
0
ARC
8
DEFAULT_255_2_778
10
67.1692105
20
2.0820193
40
0.3727914
50
323.7928696
51
344.9622619
0
ARC
8
DEFAULT_255_2_778
10
67.3599469
20
1.9407338
40
0.1354372
50
276.609394
51
324.3564935
0
ARC
8
DEFAULT_255_2_778
10
67.3139588
20
1.9488766
40
0.1554004
50
269.0697334
51
293.3437845
0
ARC
8
DEFAULT_255_2_778
10
67.3272173
20
2.6025485
40
0.8092058
50
259.8833913
51
268.882522
0
ARC
8
DEFAULT_255_2_778
10
67.5760876
20
4.1059182
40
2.332994
50
256.0643069
51
260.3517125
0
ARC
8
DEFAULT_255_2_778
10
67.8777072
20
5.397145
40
3.658901
50
256.1387002
51
256.3497416
0
ARC
8
DEFAULT_255_2_778
10
67.1602831
20
2.6476355
40
0.8184608
50
239.3096918
51
258.7875734
0
ARC
8
DEFAULT_255_2_778
10
67.4790879
20
3.2033974
40
1.45913
50
228.6142885
51
239.6830027
0
ARC
8
DEFAULT_255_2_778
10
67.9601967
20
3.772531
40
2.2042634
50
224.9112862
51
229.0120891
0
ARC
8
DEFAULT_255_2_778
10
67.2919097
20
3.1231456
40
1.2725644
50
215.7563992
51
225.4481066
0
ARC
8
DEFAULT_255_2_778
10
66.8075976
20
2.7800363
40
0.6790637
50
199.1500811
51
216.1417295
0
ARC
8
DEFAULT_255_2_778
10
66.5608076
20
2.6910362
40
0.4167461
50
180.4299493
51
198.7215195
0
ARC
8
DEFAULT_255_2_778
10
66.5012917
20
2.6882268
40
0.3572185
50
165.1303184
51
180.0509826
0
ARC
8
DEFAULT_255_2_778
10
64.1157353
20
3.3330677
40
2.1139594
50
344.8305058
51
357.6325776
0
ARC
8
DEFAULT_255_2_778
10
63.7271101
20
3.360211
40
2.5033985
50
357.379285
51
0.0156549
0
ARC
8
DEFAULT_255_2_778
10
63.4297615
20
3.3577983
40
2.8007488
50
0.0633497
51
4.9568155
0
ARC
8
DEFAULT_255_2_778
10
88.088447
20
5.0316714
40
21.9152384
50
182.092594
51
183.7461999
0
ARC
8
DEFAULT_255_2_778
10
85.1832401
20
4.9169189
40
19.0077808
50
181.4606694
51
182.0666895
0
ARC
8
DEFAULT_255_2_778
10
50.72641
20
4.1337224
40
15.4581115
50
1.1071108
51
5.8165225
0
ARC
8
DEFAULT_255_2_778
10
124.5388437
20
10.4706091
40
58.6282993
50
183.4245541
51
184.6670507
0
ARC
8
DEFAULT_255_2_778
10
-760.7017681
20
-52.9125535
40
828.8828292
50
4.1428327
51
4.2635508
0
ARC
8
DEFAULT_255_2_778
10
-64.6177788
20
-0.9010286
40
130.8584521
50
4.2120241
51
4.9827973
0
LINE
8
DEFAULT_255_2_778
10
65.7461358
20
10.4648967
11
65.7461358
21
10.4932967
0
ARC
8
DEFAULT_255_2_778
10
65.8815987
20
10.5090423
40
0.136375
50
89.4643135
51
186.6300749
0
ARC
8
DEFAULT_255_2_778
10
65.9147247
20
10.3264663
40
0.3205314
50
89.8550143
51
95.7028443
0
ARC
8
DEFAULT_255_2_778
10
65.9061943
20
10.2350499
40
0.4120526
50
68.601041
51
88.7009599
0
ARC
8
DEFAULT_255_2_778
10
62.5649064
20
-1.8786912
40
12.9759847
50
73.7208623
51
74.3902356
0
ARC
8
DEFAULT_255_2_778
10
64.5241201
20
4.8029764
40
6.0130061
50
72.3248159
51
73.7940166
0
ARC
8
DEFAULT_255_2_778
10
65.7927616
20
8.7656261
40
1.8522439
50
69.3851183
51
72.4983966
0
ARC
8
DEFAULT_255_2_778
10
66.2258677
20
9.9271519
40
0.6126132
50
66.888079
51
69.0500993
0
ARC
8
DEFAULT_255_2_778
10
65.0899373
20
8.3146632
40
2.5747154
50
48.4007282
51
57.6843793
0
ARC
8
DEFAULT_255_2_778
10
64.6570508
20
7.8044108
40
3.2437209
50
46.8313638
51
48.6665614
0
ARC
8
DEFAULT_255_2_778
10
66.4079702
20
9.6799733
40
0.6779319
50
14.183009
51
46.3123455
0
ARC
8
DEFAULT_255_2_778
10
66.4550475
20
9.7015968
40
0.6270624
50
3.0258005
51
13.3213874
0
ARC
8
DEFAULT_255_2_778
10
-43.073907
20
-0.1182378
40
110.5949176
50
4.2124995
51
5.1112749
0
ARC
8
DEFAULT_255_2_778
10
-49.1836439
20
-0.5617227
40
116.7207256
50
3.3524674
51
4.2093046
0
ARC
8
DEFAULT_255_2_778
10
22.7337997
20
2.6003738
40
44.7537353
50
3.8078502
51
4.6954636
0
ARC
8
DEFAULT_255_2_778
10
10.4283179
20
1.0695796
40
57.1381263
50
3.8119096
51
4.5200284
0
ARC
8
DEFAULT_255_2_778
10
61.4819546
20
7.346934
40
6.4531287
50
337.4112501
51
344.2630129
0
ARC
8
DEFAULT_255_2_778
10
60.3294239
20
7.6821381
40
7.6533803
50
344.1877895
51
347.8559654
0
ARC
8
DEFAULT_255_2_778
10
64.3096733
20
6.7519687
40
3.5672492
50
349.0129458
51
355.9406936
0
ARC
8
DEFAULT_255_2_778
10
64.7416794
20
6.717033
40
3.1338566
50
356.0187024
51
359.97374
0
ARC
8
DEFAULT_255_2_778
10
65.1031267
20
6.7227291
40
2.7724183
50
359.8525988
51
11.1756415
0
ARC
8
DEFAULT_255_2_778
10
65.2749497
20
6.7509395
40
2.5983918
50
11.2997153
51
12.5217343
0
ARC
8
DEFAULT_255_2_778
10
68.4017535
20
7.4011823
40
0.5965786
50
180.3467736
51
188.3743383
0
ARC
8
DEFAULT_255_2_778
10
68.1676746
20
7.400386
40
0.3624998
50
169.2506756
51
180.4448217
0
ARC
8
DEFAULT_255_2_778
10
67.974854
20
7.3813785
40
0.1848663
50
117.9398992
51
152.0601008
0
ARC
8
DEFAULT_255_2_778
10
67.9976856
20
7.3329532
40
0.2383581
50
94.401398
51
117.3343535
0
ARC
8
DEFAULT_255_2_778
10
68.0101696
20
7.2336389
40
0.3383721
50
89.9190038
51
95.2185236
0
ARC
8
DEFAULT_255_2_778
10
68.0002526
20
7.020811
40
0.5512975
50
73.6399117
51
88.9195554
0
ARC
8
DEFAULT_255_2_778
10
67.8409253
20
6.4458306
40
1.1479113
50
65.7113301
51
74.0931454
0
ARC
8
DEFAULT_255_2_778
10
67.4518067
20
5.5689558
40
2.1072356
50
60.4866777
51
65.8748201
0
ARC
8
DEFAULT_255_2_778
10
67.0181171
20
4.7799436
40
3.0075344
50
59.2857445
51
60.701443
0
ARC
8
DEFAULT_255_2_778
10
67.2942001
20
5.3708035
40
2.3594257
50
50.9124086
51
57.7209424
0
ARC
8
DEFAULT_255_2_778
10
67.9791154
20
6.206879
40
1.2786415
50
40.4456771
51
51.1125958
0
ARC
8
DEFAULT_255_2_778
10
68.4728137
20
6.6200481
40
0.6349197
50
21.1217234
51
40.9731275
0
ARC
8
DEFAULT_255_2_778
10
68.664476
20
6.7030908
40
0.4262923
50
13.4156841
51
19.9929063
0
ARC
8
DEFAULT_255_2_778
10
64.6826037
20
5.7850885
40
4.5126042
50
4.4611987
51
13.023367
0
ARC
8
DEFAULT_255_2_778
10
73.8182871
20
6.5487977
40
4.6550816
50
185.0862938
51
193.0775157
0
ARC
8
DEFAULT_255_2_778
10
76.2367924
20
7.2188582
40
7.1632527
50
193.9209905
51
194.81281
0
ARC
8
DEFAULT_255_2_778
10
87.3204154
20
10.1323758
40
18.6234086
50
194.7606017
51
195.1527228
0
ARC
8
DEFAULT_255_2_778
10
104.2044858
20
14.6991212
40
36.1141772
50
195.1441501
51
195.3961886
0
ARC
8
DEFAULT_255_2_778
10
104.7901126
20
15.701967
40
36.9539437
50
196.6543018
51
196.9245788
0
ARC
8
DEFAULT_255_2_778
10
82.8584782
20
9.025759
40
14.0286668
50
196.914459
51
197.3443829
0
ARC
8
DEFAULT_255_2_778
10
73.1878924
20
6.0005097
40
3.8959335
50
197.2745101
51
198.2879072
0
ARC
8
DEFAULT_255_2_778
10
-44.3742095
20
10.6332953
40
114.0133976
50
357.0562096
51
357.6103044
0
ARC
8
DEFAULT_255_2_778
10
-7636.0241169
20
542.9891226
40
7724.2608558
50
356.0126963
51
356.0208866
0
ARC
8
DEFAULT_255_2_778
10
-1316.6871483
20
132.9275355
40
1392.0132954
50
354.8088909
51
354.8792883
0
ARC
8
DEFAULT_255_2_778
10
92.1750023
20
6.6813224
40
22.4939215
50
170.5159952
51
174.8913232
0
ARC
8
DEFAULT_255_2_778
10
70.2018814
20
10.3569324
40
0.2155523
50
123.2294223
51
171.7945531
0
ARC
8
DEFAULT_255_2_778
10
70.1982352
20
10.3314288
40
0.2355037
50
88.0531645
51
119.0836065
0
ARC
8
DEFAULT_255_2_778
10
70.1935636
20
9.55429
40
1.012586
50
70.6772195
51
89.2829465
0
ARC
8
DEFAULT_255_2_778
10
70.0769433
20
9.1690966
40
1.4147765
50
67.5972397
51
71.3821253
0
ARC
8
DEFAULT_255_2_778
10
69.9451047
20
8.8347602
40
1.774134
50
48.1691008
51
67.7759014
0
ARC
8
DEFAULT_255_2_778
10
70.3753771
20
9.3352528
40
1.1143235
50
38.0284099
51
47.4907497
0
ARC
8
DEFAULT_255_2_778
10
70.9257065
20
9.7572012
40
0.4209366
50
18.8330788
51
38.9350405
0
ARC
8
DEFAULT_255_2_778
10
71.137363
20
9.8342843
40
0.195783
50
0.5889321
51
17.4777037
0
ARC
8
DEFAULT_255_2_778
10
71.2863804
20
9.8304599
40
0.0471183
50
316.2830976
51
7.1157883
0
ARC
8
DEFAULT_255_2_778
10
77.0603652
20
8.7494178
40
1.3383102
50
102.6783655
51
146.3244453
0
ARC
8
DEFAULT_255_2_778
10
76.7063315
20
8.9680509
40
0.9225688
50
145.4323682
51
164.3147114
0
ARC
8
DEFAULT_255_2_778
10
76.6094971
20
9.0008874
40
0.8204808
50
164.6941978
51
180.062912
0
ARC
8
DEFAULT_255_2_778
10
76.7376667
20
9.0055803
40
0.9486664
50
180.3378473
51
196.6685564
0
ARC
8
DEFAULT_255_2_778
10
77.0580576
20
9.0979802
40
1.2821025
50
196.517415
51
206.2561768
0
ARC
8
DEFAULT_255_2_778
10
75.2219973
20
8.1630907
40
0.7785441
50
21.6576505
51
28.1836623
0
ARC
8
DEFAULT_255_2_778
10
75.6574044
20
8.3330004
40
0.3111798
50
9.5116018
51
22.1688384
0
ARC
8
DEFAULT_255_2_778
10
75.821649
20
8.362923
40
0.144268
50
0.3239609
51
8.5702264
0
ARC
8
DEFAULT_255_2_778
10
75.9078299
20
8.3579139
40
0.058376
50
263.5561831
51
5.7265849
0
ARC
8
DEFAULT_255_2_778
10
75.8948356
20
8.4474392
40
0.1476731
50
269.9724001
51
272.5005598
0
ARC
8
DEFAULT_255_2_778
10
75.8951387
20
8.4832876
40
0.1835219
50
265.2481873
51
269.88317
0
ARC
8
DEFAULT_255_2_778
10
75.8934742
20
8.8847344
40
0.5844945
50
250.7865635
51
268.6727573
0
ARC
8
DEFAULT_255_2_778
10
76.090226
20
9.4951962
40
1.2257948
50
243.0214538
51
251.4925311
0
ARC
8
DEFAULT_255_2_778
10
77.1950118
20
11.7227626
40
3.7122342
50
236.3322085
51
243.4226204
0
ARC
8
DEFAULT_255_2_778
10
75.6891171
20
9.3876408
40
0.9348688
50
205.0575939
51
233.8043673
0
ARC
8
DEFAULT_255_2_778
10
76.6144322
20
9.7917884
40
1.9444348
50
196.2585462
51
204.2977
0
ARC
8
DEFAULT_255_2_778
10
75.880211
20
9.5743466
40
1.1787032
50
188.4275857
51
196.1037558
0
ARC
8
DEFAULT_255_2_778
10
75.9511116
20
9.5893011
40
1.2510375
50
180.2452244
51
188.6291857
0
ARC
8
DEFAULT_255_2_778
10
75.6038611
20
9.5880425
40
0.9037846
50
169.8445946
51
180.2596603
0
LINE
8
DEFAULT_255_2_778
10
74.7142358
20
9.7473967
11
74.6375358
21
9.7473967
0
ARC
8
DEFAULT_255_2_778
10
74.5599482
20
9.9780233
40
0.2433279
50
270.1854423
51
288.5939964
0
ARC
8
DEFAULT_255_2_778
10
77.011621
20
9.143377
40
2.5212095
50
166.4356043
51
172.4673755
0
ARC
8
DEFAULT_255_2_778
10
78.8182328
20
8.8975512
40
4.3444618
50
172.3767136
51
176.5282544
0
ARC
8
DEFAULT_255_2_778
10
80.9654605
20
8.7551317
40
6.4963847
50
176.4212728
51
178.5925527
0
ARC
8
DEFAULT_255_2_778
10
103.7726926
20
7.3279643
40
29.3445875
50
176.9003678
51
177.3853548
0
ARC
8
DEFAULT_255_2_778
10
93.4502082
20
7.7925374
40
19.0116575
50
177.3648462
51
178.2153408
0
ARC
8
DEFAULT_255_2_778
10
85.1953563
20
8.0465441
40
10.7528997
50
178.1982977
51
179.3976853
0
ARC
8
DEFAULT_255_2_778
10
81.3801252
20
8.0935003
40
6.9373894
50
179.4542364
51
179.9892937
0
ARC
8
DEFAULT_255_2_778
10
106.9050031
20
6.1597299
40
32.5198905
50
176.5886512
51
178.8700989
0
LINE
8
DEFAULT_255_2_778
10
74.3914358
20
6.8009967
11
74.3914358
21
5.5071967
0
ARC
8
DEFAULT_255_2_778
10
196.3494323
20
5.5182818
40
121.957997
50
180.0052078
51
180.6201754
0
ARC
8
DEFAULT_255_2_778
10
204.6517047
20
5.5977572
40
130.2606438
50
180.6156044
51
180.8118059
0
ARC
8
DEFAULT_255_2_778
10
186.4744844
20
5.3512105
40
112.0817553
50
180.8174377
51
181.708167
0
ARC
8
DEFAULT_255_2_778
10
74.2755292
20
2.0000167
40
0.1673165
50
272.9699464
51
3.488193
0
ARC
8
DEFAULT_255_2_778
10
74.2183008
20
2.1972917
40
0.3702779
50
278.5163322
51
280.2513909
0
LINE
8
DEFAULT_255_2_778
10
74.2731358
20
1.8310967
11
74.2091358
21
1.8310967
0
ARC
8
DEFAULT_255_2_778
10
74.2223084
20
2.7817755
40
0.9507701
50
251.8402174
51
269.2061568
0
ARC
8
DEFAULT_255_2_778
10
74.3252917
20
3.1531047
40
1.33582
50
250.3474968
51
252.6070478
0
ARC
8
DEFAULT_255_2_778
10
74.5447877
20
3.6156614
40
1.8459611
50
233.53288
51
248.7598102
0
ARC
8
DEFAULT_255_2_778
10
74.8065659
20
3.9967488
40
2.308077
50
230.9069787
51
233.9296227
0
ARC
8
DEFAULT_255_2_778
10
73.8620902
20
2.8732876
40
0.8409238
50
216.3270546
51
232.5830442
0
ARC
8
DEFAULT_255_2_778
10
73.5521748
20
2.649564
40
0.4587207
50
184.2840917
51
216.7453934
0
ARC
8
DEFAULT_255_2_778
10
-1132.001398
20
-14.4653245
40
1205.2171752
50
0.8120364
51
0.8558859
0
ARC
8
DEFAULT_255_2_778
10
-1343.8592621
20
-17.6280058
40
1417.0986446
50
0.8557932
51
0.8951551
0
ARC
8
DEFAULT_255_2_778
10
230.4147238
20
6.5479506
40
157.3614721
50
180.3907325
51
180.7416817
0
ARC
8
DEFAULT_255_2_778
10
209.3006977
20
6.405032
40
136.2469624
50
180.0048509
51
180.3911833
0
ARC
8
DEFAULT_255_2_778
10
139.6137361
20
6.387103
40
66.5600006
50
178.8807039
51
179.9944962
0
ARC
8
DEFAULT_255_2_778
10
136.6898099
20
6.4259262
40
63.6358766
50
177.7104088
51
178.8642266
0
ARC
8
DEFAULT_255_2_778
10
68.0506278
20
9.3267153
40
5.066808
50
355.942458
51
359.9997889
0
ARC
8
DEFAULT_255_2_778
10
91.287463
20
8.1293745
40
18.2094335
50
175.0575913
51
176.2299191
0
ARC
8
DEFAULT_255_2_778
10
73.1528824
20
12.1739371
40
2.4757508
50
264.1917099
51
269.8346079
0
LINE
8
DEFAULT_255_2_778
10
72.9023358
20
9.7108967
11
72.6462358
21
9.7108967
0
ARC
8
DEFAULT_255_2_778
10
81.9417358
20
10.8332231
40
9.3630089
50
186.8844926
51
190.9319343
0
ARC
8
DEFAULT_255_2_778
10
191.7121329
20
27.3724836
40
120.3650644
50
188.7521893
51
189.0669213
0
ARC
8
DEFAULT_255_2_778
10
72.802295
20
8.3989147
40
0.0490481
50
0.124956
51
6.4172114
0
ARC
8
DEFAULT_255_2_778
10
72.8184125
20
8.3992043
40
0.0329311
50
270.1246472
51
359.6822267
0
ARC
8
DEFAULT_255_2_778
10
72.7981558
20
8.4859618
40
0.1214027
50
269.4377897
51
279.6393327
0
ARC
8
DEFAULT_255_2_778
10
72.8071282
20
8.7218281
40
0.3574076
50
256.2923012
51
268.3704567
0
ARC
8
DEFAULT_255_2_778
10
72.971691
20
9.45452
40
1.108312
50
251.6213927
51
257.0031155
0
ARC
8
DEFAULT_255_2_778
10
73.3981196
20
10.7638269
40
2.4852999
50
248.8136106
51
251.8090378
0
ARC
8
DEFAULT_255_2_778
10
74.180145
20
12.7948937
40
4.6617152
50
246.9047388
51
248.8734149
0
ARC
8
DEFAULT_255_2_778
10
73.5106213
20
11.440602
40
3.1544719
50
244.0689471
51
248.4420537
0
ARC
8
DEFAULT_255_2_778
10
72.7994533
20
9.9875216
40
1.5367059
50
237.3127709
51
244.2237456
0
ARC
8
DEFAULT_255_2_778
10
72.294584
20
9.2130289
40
0.6122487
50
223.8644965
51
237.9348105
0
ARC
8
DEFAULT_255_2_778
10
71.9973641
20
8.9325113
40
0.2036066
50
195.4717152
51
224.9092225
0
ARC
8
DEFAULT_255_2_778
10
84.9508135
20
12.8006929
40
13.7222447
50
193.9885849
51
196.6096313
0
ARC
8
DEFAULT_255_2_778
10
87.2843593
20
13.3957251
40
16.1304284
50
193.2515616
51
194.0358311
0
ARC
8
DEFAULT_255_2_778
10
66.2708517
20
8.4623485
40
5.4544359
50
13.0956126
51
19.8623822
0
ARC
8
DEFAULT_255_2_778
10
67.0209319
20
8.7226957
40
4.6605314
50
19.985189
51
22.4892593
0
ARC
8
DEFAULT_255_2_778
10
71.4313596
20
10.5067919
40
0.1043331
50
151.4242039
51
180.766254
0
ARC
8
DEFAULT_255_2_778
10
71.4803211
20
10.40677
40
0.2055292
50
119.8137177
51
133.1583065
0
ARC
8
DEFAULT_255_2_778
10
71.9497813
20
32.4792943
40
21.9016591
50
268.5043784
51
269.9987181
0
ARC
8
DEFAULT_255_2_778
10
71.9519741
20
32.1364326
40
21.5587973
50
269.9928699
51
274.23127
0
ARC
8
DEFAULT_255_2_778
10
72.3618802
20
24.730525
40
14.1435016
50
274.7888527
51
283.5759224
0
LINE
8
DEFAULT_255_2_778
10
75.6818358
20
10.9821967
11
75.7458358
21
10.9821967
0
ARC
8
DEFAULT_255_2_778
10
75.7328091
20
10.5043739
40
0.4780003
50
63.5607931
51
88.4383561
0
ARC
8
DEFAULT_255_2_778
10
75.4971684
20
9.9987452
40
1.0357588
50
52.1679854
51
64.3427748
0
ARC
8
DEFAULT_255_2_778
10
74.9123531
20
9.2283829
40
2.0029242
50
45.3210686
51
52.4713887
0
ARC
8
DEFAULT_255_2_778
10
74.1974922
20
8.4842712
40
3.0347099
50
43.1410731
51
45.6024226
0
ARC
8
DEFAULT_255_2_778
10
72.5653771
20
6.6967046
40
5.4512049
50
42.7247738
51
45.1206499
0
ARC
8
DEFAULT_255_2_778
10
74.7381773
20
8.6970681
40
2.4978225
50
38.8878074
51
42.832265
0
ARC
8
DEFAULT_255_2_778
10
76.0004047
20
9.706945
40
0.8813586
50
31.1376072
51
39.3011599
0
ARC
8
DEFAULT_255_2_778
10
76.6052952
20
10.063124
40
0.1796123
50
7.9715427
51
33.6656599
0
ARC
8
DEFAULT_255_2_778
10
76.7233153
20
10.0852683
40
0.0599204
50
0.027101
51
2.6443992
0
ARC
8
DEFAULT_255_2_778
10
76.7584357
20
10.0817092
40
0.0250582
50
261.9711194
51
8.2309819
0
LINE
8
DEFAULT_255_2_778
10
61.3215358
20
5.6298967
11
61.3191358
21
5.6174967
0
LINE
8
DEFAULT_255_2_778
10
59.0776358
20
8.3580967
11
59.0778358
21
8.3582967
0
LINE
8
DEFAULT_255_2_778
10
64.9053358
20
2.9404967
11
64.9058358
21
2.9406967
0
LINE
8
DEFAULT_255_2_778
10
71.3204358
20
9.7978967
11
71.3230358
21
9.7986967
0
LINE
8
DEFAULT_255_2_778
10
76.7549358
20
10.0568967
11
76.7666358
21
10.0550967
0
LINE
8
DEFAULT_255_2_778
10
79.6608742
20
9.757696
11
79.2636742
21
9.642596
0
ARC
8
DEFAULT_255_2_778
10
93.7884313
20
-40.4367577
40
52.1431705
50
106.1740001
51
106.6471425
0
ARC
8
DEFAULT_255_2_778
10
97.6577395
20
-53.3829131
40
65.6551831
50
106.645713
51
107.0514271
0
ARC
8
DEFAULT_255_2_778
10
22.7172357
20
2.8753662
40
56.0677544
50
6.0998295
51
6.6684783
0
ARC
8
DEFAULT_255_2_778
10
34.8613488
20
4.1747391
40
43.8543254
50
5.5396046
51
6.0977793
0
ARC
8
DEFAULT_255_2_778
10
44.2515778
20
5.0841353
40
34.420164
50
4.8857927
51
5.5418104
0
ARC
8
DEFAULT_255_2_778
10
-39.4201823
20
0.632905
40
118.1976515
50
3.313566
51
3.5811058
0
ARC
8
DEFAULT_255_2_778
10
-9.8655849
20
2.3418961
40
88.5936844
50
2.9934105
51
3.3149459
0
ARC
8
DEFAULT_255_2_778
10
4.3474301
20
3.0956976
40
74.3606989
50
2.9336935
51
2.9852788
0
ARC
8
DEFAULT_255_2_778
10
78.1803907
20
16.7154267
40
9.8233589
50
272.5104768
51
275.6562149
0
ARC
8
DEFAULT_255_2_778
10
78.2759328
20
24.7128668
40
17.794381
50
272.8109284
51
273.5857174
0
ARC
8
DEFAULT_255_2_778
10
78.6673555
20
18.5003269
40
11.569523
50
273.5752507
51
274.6077274
0
ARC
8
DEFAULT_255_2_778
10
79.6995309
20
5.7232134
40
1.2492159
50
89.9959791
51
94.7183106
0
ARC
8
DEFAULT_255_2_778
10
79.6984711
20
5.6778772
40
1.2945526
50
80.722497
51
89.9492144
0
ARC
8
DEFAULT_255_2_778
10
79.8704823
20
6.3037987
40
0.6527294
50
71.0005165
51
86.7775333
0
ARC
8
DEFAULT_255_2_778
10
79.9738552
20
6.6143376
40
0.3254713
50
54.3448339
51
70.4094267
0
ARC
8
DEFAULT_255_2_778
10
16.0177587
20
-67.8529548
40
98.4861422
50
49.0735804
51
49.3589387
0
ARC
8
DEFAULT_255_2_778
10
80.3011293
20
6.3041815
40
0.3454106
50
35.950621
51
47.3899031
0
ARC
8
DEFAULT_255_2_778
10
80.4808511
20
6.4311938
40
0.1253831
50
11.2224301
51
37.1813226
0
ARC
8
DEFAULT_255_2_778
10
80.5347546
20
6.4447801
40
0.0699238
50
0.1139375
51
8.898103
0
ARC
8
DEFAULT_255_2_778
10
80.5287706
20
6.4497114
40
0.0760587
50
293.6597908
51
356.3875689
0
ARC
8
DEFAULT_255_2_778
10
80.4145597
20
6.6463942
40
0.3031326
50
282.6574972
51
298.5196534
0
ARC
8
DEFAULT_255_2_778
10
80.321788
20
6.995857
40
0.6645772
50
279.6048512
51
283.8595737
0
ARC
8
DEFAULT_255_2_778
10
101.2517057
20
-90.9985747
40
99.5406762
50
102.0726031
51
102.1864925
0
ARC
8
DEFAULT_255_2_778
10
122.5553668
20
-189.6908408
40
200.5060629
50
102.1836968
51
102.254478
0
ARC
8
DEFAULT_255_2_778
10
144.269704
20
-289.7363773
40
302.8809705
50
102.2515451
51
102.2590306
0
ARC
8
DEFAULT_255_2_778
10
92.8653317
20
-53.2237303
40
60.846591
50
102.2466945
51
102.8024979
0
ARC
8
DEFAULT_255_2_778
10
-304.1953008
20
1922.999671
40
1954.890538
50
281.3041937
51
281.3156712
0
ARC
8
DEFAULT_255_2_778
10
77.0423968
20
13.3179089
40
7.5425185
50
282.1266134
51
285.0293351
0
ARC
8
DEFAULT_255_2_778
10
77.3634691
20
5.7641075
40
1.2761051
50
0.0219316
51
8.0901897
0
LINE
8
DEFAULT_255_2_778
10
78.6395742
20
5.764596
11
78.6395742
21
5.585496
0
ARC
8
DEFAULT_255_2_778
10
410.6438693
20
12.0461106
40
332.0671492
50
181.1148026
51
181.3425252
0
LINE
8
DEFAULT_255_2_778
10
78.6678742
20
4.265996
11
78.6678742
21
2.946496
0
ARC
8
DEFAULT_255_2_778
10
81.4158352
20
2.9605137
40
2.7479968
50
180.2922713
51
183.6099491
0
ARC
8
DEFAULT_255_2_778
10
84.7995774
20
3.161834
40
6.1377129
50
183.4966922
51
185.3672318
0
ARC
8
DEFAULT_255_2_778
10
88.1119522
20
3.4578497
40
9.4632662
50
185.2756984
51
185.7423783
0
ARC
8
DEFAULT_255_2_778
10
77.261288
20
2.3635147
40
1.4424455
50
1.3455421
51
5.8684002
0
ARC
8
DEFAULT_255_2_778
10
77.5468349
20
2.372814
40
1.1567618
50
0.008065
51
1.2171785
0
ARC
8
DEFAULT_255_2_778
10
77.9142068
20
2.3637802
40
0.7894434
50
348.3066784
51
0.6674864
0
ARC
8
DEFAULT_255_2_778
10
78.2778171
20
2.2883846
40
0.4180987
50
331.3924582
51
348.3254184
0
ARC
8
DEFAULT_255_2_778
10
78.3581432
20
2.2266035
40
0.3183886
50
265.7366901
51
334.2329803
0
ARC
8
DEFAULT_255_2_778
10
78.345
20
2.4926196
40
0.5836186
50
252.053895
51
268.9665848
0
ARC
8
DEFAULT_255_2_778
10
79.4055026
20
6.9455061
40
5.1594168
50
253.0495875
51
256.089797
0
ARC
8
DEFAULT_255_2_778
10
78.690053
20
4.6137684
40
2.7203945
50
248.4630066
51
253.1457265
0
ARC
8
DEFAULT_255_2_778
10
78.2710147
20
3.536419
40
1.5644455
50
245.1785911
51
248.2536782
0
ARC
8
DEFAULT_255_2_778
10
78.22807
20
3.460662
40
1.4776764
50
239.7228043
51
245.4568113
0
ARC
8
DEFAULT_255_2_778
10
79.1188762
20
5.0056038
40
3.2610271
50
236.5122101
51
239.8921423
0
ARC
8
DEFAULT_255_2_778
10
77.467648
20
2.5811446
40
0.3302993
50
223.7302678
51
243.3652119
0
ARC
8
DEFAULT_255_2_778
10
77.3304026
20
2.4517898
40
0.1417141
50
180.9598157
51
224.296609
0
ARC
8
DEFAULT_255_2_778
10
77.3609888
20
2.4455962
40
0.1723226
50
152.4328392
51
178.7298686
0
ARC
8
DEFAULT_255_2_778
10
77.4480184
20
2.4072673
40
0.2672843
50
149.7306898
51
153.7832045
0
ARC
8
DEFAULT_255_2_778
10
77.2132188
20
2.5886911
40
0.0468624
50
274.8418059
51
313.4957749
0
ARC
8
DEFAULT_255_2_778
10
77.2151928
20
2.6359867
40
0.0867476
50
290.4306942
51
322.3481881
0
ARC
8
DEFAULT_255_2_778
10
76.7159858
20
2.7854855
40
0.602909
50
340.375503
51
350.6165223
0
ARC
8
DEFAULT_255_2_778
10
75.9354056
20
2.9232258
40
1.3955283
50
350.2621883
51
355.8880568
0
ARC
8
DEFAULT_255_2_778
10
74.6395631
20
3.0227033
40
2.6951755
50
355.7540741
51
359.2501106
0
ARC
8
DEFAULT_255_2_778
10
73.4295974
20
3.0485244
40
3.9053881
50
359.1036459
51
0.0131434
0
ARC
8
DEFAULT_255_2_778
10
72.3339549
20
3.0458599
40
5.0010316
50
0.0407908
51
1.5385193
0
ARC
8
DEFAULT_255_2_778
10
70.7460268
20
3.0051086
40
6.5894817
50
1.5220187
51
2.5604081
0
ARC
8
DEFAULT_255_2_778
10
69.0320887
20
2.9289261
40
8.305112
50
2.557236
51
3.4471601
0
ARC
8
DEFAULT_255_2_778
10
162.0991637
20
8.6134421
40
84.935409
50
183.3309955
51
183.4999753
0
ARC
8
DEFAULT_255_2_778
10
123.0893243
20
6.3448352
40
45.8596601
50
183.1058043
51
183.3333159
0
ARC
8
DEFAULT_255_2_778
10
98.2347119
20
5.0024268
40
20.9688238
50
182.6909658
51
183.1227058
0
ARC
8
DEFAULT_255_2_778
10
84.836756
20
4.3752123
40
7.5561953
50
181.9988069
51
182.7099003
0
ARC
8
DEFAULT_255_2_778
10
79.1744946
20
4.1822287
40
1.8906537
50
180.3404086
51
182.1389986
0
LINE
8
DEFAULT_255_2_778
10
77.2838742
20
4.170996
11
77.2838742
21
5.118796
0
ARC
8
DEFAULT_255_2_778
10
-82.4008499
20
0.8077532
40
159.7429065
50
1.5464508
51
1.8865202
0
ARC
8
DEFAULT_255_2_778
10
200.2900091
20
170.4331283
40
205.3141169
50
233.1480773
51
233.1837807
0
ARC
8
DEFAULT_255_2_778
10
75.8399942
20
4.402424
40
2.1804738
50
52.97242
51
55.8675836
0
ARC
8
DEFAULT_255_2_778
10
76.5830202
20
5.8352147
40
0.6076845
50
37.7555227
51
41.574618
0
ARC
8
DEFAULT_255_2_778
10
73.9262026
20
3.5201295
40
4.1316249
50
41.1425892
51
42.3286067
0
ARC
8
DEFAULT_255_2_778
10
67.4785587
20
-2.325958
40
12.8349992
50
42.2404763
51
42.7030578
0
ARC
8
DEFAULT_255_2_778
10
56.8857669
20
-12.093566
40
27.2437947
50
42.6904067
51
42.9702121
0
ARC
8
DEFAULT_255_2_778
10
77.5324378
20
7.1227
40
0.9617772
50
216.0833367
51
222.2288376
0
ARC
8
DEFAULT_255_2_778
10
77.0548486
20
6.7787633
40
0.3732574
50
204.5306048
51
216.593789
0
ARC
8
DEFAULT_255_2_778
10
76.8249253
20
6.6754787
40
0.1212148
50
182.2944302
51
205.2383778
0
ARC
8
DEFAULT_255_2_778
10
76.7608366
20
6.670047
40
0.0570319
50
96.9664744
51
179.4183789
0
ARC
8
DEFAULT_255_2_778
10
76.8032476
20
6.5387033
40
0.19432
50
93.3258607
51
104.7055128
0
ARC
8
DEFAULT_255_2_778
10
74.3419373
20
26.4312867
40
19.8503693
50
277.0898253
51
277.7234813
0
ARC
8
DEFAULT_255_2_778
10
77.2216722
20
4.9993957
40
1.7743108
50
89.8029562
51
96.8622032
0
ARC
8
DEFAULT_255_2_778
10
58.9132287
20
6.3138884
40
18.3203166
50
1.4381738
51
4.5276451
0
ARC
8
DEFAULT_255_2_778
10
62.6884731
20
6.9164112
40
14.5124458
50
3.3327839
51
7.194003
0
ARC
8
DEFAULT_255_2_778
10
159.872579
20
19.975659
40
83.5457092
50
187.5328949
51
187.7331447
0
ARC
8
DEFAULT_255_2_778
10
211.0998061
20
26.7558241
40
135.2196813
50
187.3914262
51
187.5354363
0
ARC
8
DEFAULT_255_2_778
10
244.6219828
20
31.1197078
40
169.024705
50
187.3786959
51
187.3965405
0
ARC
8
DEFAULT_255_2_778
10
75.5999839
20
9.2944248
40
1.4019626
50
4.8269843
51
16.8718516
0
ARC
8
DEFAULT_255_2_778
10
76.1582998
20
9.469915
40
0.8167669
50
16.4583018
51
38.8145532
0
ARC
8
DEFAULT_255_2_778
10
76.294092
20
9.5668962
40
0.6502426
50
39.6559942
51
45.0384784
0
ARC
8
DEFAULT_255_2_778
10
76.9115057
20
10.1686292
40
0.2121375
50
190.7277904
51
221.8858169
0
ARC
8
DEFAULT_255_2_778
10
76.8093367
20
10.1422185
40
0.1070626
50
180.0655663
51
187.0159345
0
ARC
8
DEFAULT_255_2_778
10
76.7527294
20
10.1444458
40
0.0505099
50
103.8080702
51
182.6664577
0
ARC
8
DEFAULT_255_2_778
10
76.9566253
20
9.7646557
40
0.4801446
50
89.7555084
51
116.7284613
0
ARC
8
DEFAULT_255_2_778
10
77.1663221
20
13.4257781
40
3.1877524
50
266.2651489
51
269.9948416
0
ARC
8
DEFAULT_255_2_778
10
77.161912
20
13.4449219
40
3.2068988
50
270.0736649
51
287.4612086
0
ARC
8
DEFAULT_255_2_778
10
83.067161
20
-4.414887
40
15.604273
50
104.105496
51
108.4677826
0
ARC
8
DEFAULT_255_2_778
10
79.6018467
20
9.2545645
40
1.5027381
50
90.1705274
51
102.98161
0
ARC
8
DEFAULT_255_2_778
10
79.5858204
20
9.2107521
40
1.546587
50
70.0346944
51
89.5719683
0
ARC
8
DEFAULT_255_2_778
10
79.4819934
20
8.8740117
40
1.8986205
50
68.6382968
51
70.5595918
0
ARC
8
DEFAULT_255_2_778
10
79.2914211
20
8.3323409
40
2.4725745
50
55.0886228
51
69.0977232
0
ARC
8
DEFAULT_255_2_778
10
79.4857821
20
8.6260493
40
2.1205059
50
46.1551195
51
54.8533211
0
ARC
8
DEFAULT_255_2_778
10
80.8535957
20
10.051509
40
0.144946
50
15.9319213
51
45.7850425
0
ARC
8
DEFAULT_255_2_778
10
80.7650793
20
10.0138459
40
0.240696
50
0.1785435
51
18.7703275
0
ARC
8
DEFAULT_255_2_778
10
88.3775191
20
6.3088191
40
8.2507821
50
153.3113193
51
158.6286933
0
ARC
8
DEFAULT_255_2_778
10
87.5189677
20
6.6562581
40
7.3246634
50
158.7122626
51
160.0403229
0
ARC
8
DEFAULT_255_2_778
10
81.9330969
20
8.6375807
40
1.3986842
50
158.2181327
51
180.2491463
0
ARC
8
DEFAULT_255_2_778
10
82.2084954
20
8.6366196
40
1.6740772
50
180.1752668
51
190.7864239
0
ARC
8
DEFAULT_255_2_778
10
82.4703609
20
8.6805565
40
1.9395475
50
190.6136959
51
193.3051065
0
ARC
8
DEFAULT_255_2_778
10
79.976253
20
8.0668943
40
0.6292687
50
7.4619739
51
15.4184651
0
ARC
8
DEFAULT_255_2_778
10
80.2457577
20
8.103676
40
0.3572726
50
0.2684705
51
7.2262048
0
ARC
8
DEFAULT_255_2_778
10
80.4428853
20
8.0976998
40
0.1603238
50
331.0250666
51
2.7350635
0
ARC
8
DEFAULT_255_2_778
10
80.5043836
20
8.0684095
40
0.092428
50
302.8896297
51
328.4408538
0
ARC
8
DEFAULT_255_2_778
10
80.5249847
20
8.0438884
40
0.0607812
50
268.0096808
51
299.1318027
0
ARC
8
DEFAULT_255_2_778
10
80.5350892
20
8.1894469
40
0.2066643
50
244.1874238
51
266.6113984
0
ARC
8
DEFAULT_255_2_778
10
80.7547583
20
8.6928466
40
0.755791
50
237.2329801
51
245.8132504
0
ARC
8
DEFAULT_255_2_778
10
81.2109052
20
9.4295226
40
1.6221942
50
234.6812286
51
237.7678312
0
ARC
8
DEFAULT_255_2_778
10
81.1207033
20
9.3465813
40
1.5025895
50
222.5555731
51
235.659335
0
ARC
8
DEFAULT_255_2_778
10
80.8224678
20
9.0643357
40
1.0920363
50
212.5117607
51
222.229746
0
ARC
8
DEFAULT_255_2_778
10
81.055096
20
9.3418306
40
1.4414784
50
202.0092315
51
216.8474245
0
ARC
8
DEFAULT_255_2_778
10
80.7885311
20
9.2231768
40
1.149918
50
198.3165471
51
201.505486
0
ARC
8
DEFAULT_255_2_778
10
81.2483384
20
9.4259545
40
1.6508531
50
190.1936014
51
199.9827704
0
ARC
8
DEFAULT_255_2_778
10
80.7795048
20
9.3394291
40
1.1741091
50
180.2252128
51
190.0868334
0
ARC
8
DEFAULT_255_2_778
10
80.5405543
20
9.3373881
40
0.935153
50
169.836943
51
180.1577124
0
LINE
8
DEFAULT_255_2_778
10
79.6200742
20
9.502396
11
79.6584742
21
9.771496
0
LINE
8
DEFAULT_255_2_778
10
79.6584742
20
9.771496
11
79.6608742
21
9.757696
0
ARC
8
DEFAULT_255_2_778
10
10.4704774
20
7.8874391
40
0.7944303
50
205.4496412
51
214.0050789
0
ARC
8
DEFAULT_255_2_778
10
11.3976251
20
8.3369381
40
1.8247836
50
200.5530425
51
205.6841728
0
ARC
8
DEFAULT_255_2_778
10
13.1421411
20
8.9930078
40
3.6885867
50
196.5413701
51
200.5818465
0
ARC
8
DEFAULT_255_2_778
10
14.9721299
20
9.5525826
40
5.6021767
50
195.011462
51
196.6989222
0
ARC
8
DEFAULT_255_2_778
10
16.0901135
20
9.8524204
40
6.7596696
50
192.6217166
51
195.0117506
0
ARC
8
DEFAULT_255_2_778
10
15.5288332
20
9.729894
40
6.1851804
50
191.1794802
51
192.650263
0
ARC
8
DEFAULT_255_2_778
10
14.1218007
20
9.451004
40
4.7507748
50
190.1518872
51
191.169854
0
ARC
8
DEFAULT_255_2_778
10
7.3209587
20
10.3007532
40
1.3259178
50
306.4033497
51
310.2748169
0
ARC
8
DEFAULT_255_2_778
10
7.3535901
20
10.2571901
40
1.2714901
50
305.08286
51
306.384852
0
ARC
8
DEFAULT_255_2_778
10
7.4066869
20
10.1769678
40
1.1753275
50
293.200381
51
305.2124543
0
ARC
8
DEFAULT_255_2_778
10
7.4387964
20
10.1053811
40
1.096881
50
280.3686739
51
293.1318746
0
ARC
8
DEFAULT_255_2_778
10
7.4370792
20
10.1186833
40
1.1102755
50
269.97185
51
280.3322965
0
ARC
8
DEFAULT_255_2_778
10
7.4366712
20
10.1460045
40
1.1375966
50
263.849269
51
269.9930746
0
ARC
8
DEFAULT_255_2_778
10
7.4352562
20
10.1355303
40
1.1270311
50
258.7817379
51
263.8637365
0
ARC
8
DEFAULT_255_2_778
10
7.4281099
20
10.0979216
40
1.0887506
50
258.443942
51
258.7655866
0
ARC
8
DEFAULT_255_2_778
10
6.0696007
20
15.5854414
40
2.8077877
50
253.1049816
51
268.07338
0
ARC
8
DEFAULT_255_2_778
10
3.51005
20
9.0216993
40
0.65437
50
304.8776336
51
311.2264888
0
ARC
8
DEFAULT_255_2_778
10
3.2108371
20
9.4477826
40
1.1750172
50
300.541411
51
304.9664526
0
ARC
8
DEFAULT_255_2_778
10
2.8772681
20
10.0062304
40
1.8254972
50
298.1871138
51
300.651544
0
ARC
8
DEFAULT_255_2_778
10
2.4001046
20
10.9059356
40
2.8438989
50
294.8048048
51
298.0984378
0
ARC
8
DEFAULT_255_2_778
10
1.5379271
20
12.7814473
40
4.90809
50
291.3049587
51
294.7558323
0
ARC
8
DEFAULT_255_2_778
10
0.8242115
20
14.5794799
40
6.84257
50
289.1531244
51
291.4025725
0
ARC
8
DEFAULT_255_2_778
10
0.9012984
20
14.3471815
40
6.5978397
50
287.8699064
51
289.1826149
0
ARC
8
DEFAULT_255_2_778
10
1.2914124
20
13.1390484
40
5.328283
50
286.9983426
51
287.8637836
0
ARC
8
DEFAULT_255_2_778
10
0.8637147
20
10.4984855
40
2.7710375
50
288.9159283
51
294.2289607
0
ARC
8
DEFAULT_255_2_778
10
0.9005545
20
10.3868712
40
2.6535085
50
284.8022632
51
288.9447084
0
ARC
8
DEFAULT_255_2_778
10
1.0097761
20
9.9711585
40
2.2236877
50
281.8757526
51
284.8180064
0
ARC
8
DEFAULT_255_2_778
10
1.1746624
20
9.1772197
40
1.4128116
50
279.2258422
51
281.957981
0
ARC
8
DEFAULT_255_2_778
10
1.3590842
20
8.0297064
40
0.2505824
50
276.5122522
51
279.6695528
0
ARC
8
DEFAULT_255_2_778
10
7.7331677
20
0.3302409
40
0.8026554
50
107.1127676
51
118.4082097
0
ARC
8
DEFAULT_255_2_778
10
8.004557
20
-0.5554522
40
1.7289943
50
97.6729918
51
107.0715455
0
ARC
8
DEFAULT_255_2_778
10
8.1120519
20
-1.2051382
40
2.3872978
50
97.680289
51
98.1478893
0
ARC
8
DEFAULT_255_2_778
10
8.1445096
20
-1.4677494
40
2.6518928
50
92.8072042
51
97.6169802
0
ARC
8
DEFAULT_255_2_778
10
8.1373905
20
-1.2723282
40
2.4563587
50
90.05623
51
92.8645913
0
ARC
8
DEFAULT_255_2_778
10
8.1359541
20
-0.7656589
40
1.9496884
50
88.3715321
51
90.0286314
0
ARC
8
DEFAULT_255_2_778
10
8.1459144
20
-0.3996261
40
1.5835203
50
87.2277034
51
88.3554014
0
ARC
8
DEFAULT_255_2_778
10
9.6749607
20
3.4846501
40
0.7475901
50
149.7002176
51
158.8128305
0
ARC
8
DEFAULT_255_2_778
10
10.0564043
20
3.2633324
40
1.1885884
50
142.9159144
51
149.7658939
0
ARC
8
DEFAULT_255_2_778
10
10.4888929
20
2.9415927
40
1.7276165
50
139.0633366
51
143.0524375
0
ARC
8
DEFAULT_255_2_778
10
11.1235768
20
2.3819283
40
2.5737935
50
133.1554585
51
138.9090786
0
ARC
8
DEFAULT_255_2_778
10
12.1111848
20
1.3281114
40
4.0180578
50
127.5212174
51
133.1507632
0
ARC
8
DEFAULT_255_2_778
10
12.5882976
20
0.7259681
40
4.7862368
50
125.0916413
51
127.6609535
0
ARC
8
DEFAULT_255_2_778
10
12.4369211
20
0.9440202
40
4.5207954
50
123.0089681
51
125.1105724
0
ARC
8
DEFAULT_255_2_778
10
11.9812765
20
1.6478119
40
3.6823845
50
120.8606189
51
123.0293199
0
ARC
8
DEFAULT_255_2_778
10
11.7077427
20
2.0992318
40
3.1545699
50
120.6449928
51
120.801593
0
ARC
8
DEFAULT_255_2_778
10
10.9938478
20
5.2824102
40
0.7488459
50
184.3628341
51
190.1424852
0
ARC
8
DEFAULT_255_2_778
10
11.4432376
20
5.3176387
40
1.1996137
50
179.9661096
51
184.4077475
0
ARC
8
DEFAULT_255_2_778
10
11.7960665
20
5.3215005
40
1.5524455
50
179.9999187
51
180.1163362
0
ARC
8
DEFAULT_255_2_778
10
12.2362411
20
5.3136642
40
1.9926357
50
175.1123622
51
179.774614
0
ARC
8
DEFAULT_255_2_778
10
13.3375729
20
5.2233297
40
3.0976617
50
171.7578164
51
175.183197
0
ARC
8
DEFAULT_255_2_778
10
14.327012
20
5.081659
40
4.0971907
50
167.8646847
51
171.7806982
0
ARC
8
DEFAULT_255_2_778
10
14.0176591
20
5.1521727
40
3.7799293
50
165.6263514
51
167.9238828
0
ARC
8
DEFAULT_255_2_778
10
13.2385927
20
5.3497671
40
2.9761987
50
164.5515872
51
165.5880471
0
ARC
8
DEFAULT_255_2_778
10
12.6710669
20
5.5068972
40
2.3873223
50
163.3696068
51
164.5583283
0
ARC
8
DEFAULT_255_2_778
10
10.1414416
20
3.2066503
40
1.9268578
50
138.6936147
51
148.6494836
0
ARC
8
DEFAULT_255_2_778
10
9.5264989
20
3.549617
40
1.2235592
50
147.3829926
51
164.6825411
0
ARC
8
DEFAULT_255_2_778
10
8.1822829
20
-1.8528052
40
3.6877034
50
92.215795
51
94.63389
0
ARC
8
DEFAULT_255_2_778
10
8.1362266
20
-1.3118801
40
3.1448263
50
94.5937129
51
98.7486585
0
ARC
8
DEFAULT_255_2_778
10
8.0365291
20
-0.6696676
40
2.494922
50
98.7289808
51
103.7504226
0
ARC
8
DEFAULT_255_2_778
10
7.7577699
20
0.3356326
40
1.4525227
50
102.4952709
51
124.6231817
0
ARC
8
DEFAULT_255_2_778
10
7.5036593
20
0.7547459
40
0.963689
50
126.3488856
51
126.8655639
0
ARC
8
DEFAULT_255_2_778
10
1.1395924
20
9.5895195
40
2.4880105
50
282.1937219
51
286.6273857
0
ARC
8
DEFAULT_255_2_778
10
0.8391269
20
10.6088991
40
3.5507448
50
286.5662294
51
290.6849129
0
ARC
8
DEFAULT_255_2_778
10
0.6645391
20
11.0871085
40
4.0598006
50
290.6061078
51
291.5400982
0
ARC
8
DEFAULT_255_2_778
10
1.1193126
20
13.7945105
40
6.6692074
50
287.8274878
51
288.9326621
0
ARC
8
DEFAULT_255_2_778
10
0.9694153
20
14.2368615
40
7.1362628
50
288.9187259
51
290.411746
0
ARC
8
DEFAULT_255_2_778
10
1.2678529
20
13.4457453
40
6.2907373
50
290.3772643
51
292.8315928
0
ARC
8
DEFAULT_255_2_778
10
1.6798486
20
12.4567554
40
5.2193728
50
292.8758997
51
293.9157128
0
ARC
8
DEFAULT_255_2_778
10
2.34041
20
11.0102875
40
3.6293499
50
293.6400653
51
299.5768271
0
ARC
8
DEFAULT_255_2_778
10
2.8451648
20
10.0861711
40
2.5765657
50
299.9582495
51
300.0862236
0
ARC
8
DEFAULT_255_2_778
10
5.6466913
20
13.6779822
40
1.513476
50
255.6937478
51
259.1097967
0
ARC
8
DEFAULT_255_2_778
10
-1.6527465
20
-23.9971095
40
36.8622251
50
78.8574477
51
79.031894
0
ARC
8
DEFAULT_255_2_778
10
5.7867795
20
12.0861167
40
0.0527596
50
26.7223257
51
47.3808666
0
ARC
8
DEFAULT_255_2_778
10
6.8554867
20
8.6478188
40
0.1888011
50
241.1560565
51
247.1394129
0
ARC
8
DEFAULT_255_2_778
10
7.1275435
20
9.263355
40
0.8617576
50
246.37095
51
249.5608271
0
ARC
8
DEFAULT_255_2_778
10
7.3177478
20
9.7675697
40
1.400652
50
249.4728177
51
252.5728409
0
ARC
8
DEFAULT_255_2_778
10
7.399335
20
10.0222212
40
1.6680501
50
252.5187121
51
254.4674265
0
ARC
8
DEFAULT_255_2_778
10
7.4410929
20
10.1740145
40
1.825482
50
254.4804628
51
258.2231395
0
ARC
8
DEFAULT_255_2_778
10
7.458287
20
10.2544385
40
1.9077223
50
258.2105979
51
263.1739836
0
ARC
8
DEFAULT_255_2_778
10
7.4568873
20
10.2396431
40
1.8928654
50
263.162823
51
268.1719352
0
ARC
8
DEFAULT_255_2_778
10
7.4630232
20
10.0725603
40
1.7261016
50
267.7914388
51
269.9997224
0
ARC
8
DEFAULT_255_2_778
10
7.4629673
20
10.0719787
40
1.72552
50
270.0015796
51
303.4306861
0
ARC
8
DEFAULT_255_2_778
10
15.7161407
20
9.7468941
40
7.0117511
50
193.6697495
51
195.3082888
0
ARC
8
DEFAULT_255_2_778
10
14.3686851
20
9.3761655
40
5.6142276
50
195.2896163
51
197.5204115
0
ARC
8
DEFAULT_255_2_778
10
12.2176297
20
8.6737294
40
3.3515691
50
197.1394544
51
204.5441329
0
ARC
8
DEFAULT_255_2_778
10
10.5557808
20
7.9189029
40
1.5263362
50
204.6830437
51
213.2105152
0
ARC
8
DEFAULT_255_2_778
10
10.1398097
20
7.6587636
40
1.0358758
50
213.7738813
51
213.9578695
0
ARC
8
DEFAULT_255_2_778
10
15.0478011
20
4.9259953
40
5.464867
50
167.7776477
51
168.5059843
0
ARC
8
DEFAULT_255_2_778
10
14.7912551
20
4.9783137
40
5.2030404
50
168.507619
51
168.5606237
0
ARC
8
DEFAULT_255_2_778
10
14.5243578
20
5.0289298
40
4.9314075
50
168.5220109
51
171.2672027
0
ARC
8
DEFAULT_255_2_778
10
13.2713983
20
5.2139621
40
3.6648879
50
171.1523671
51
176.3948182
0
ARC
8
DEFAULT_255_2_778
10
12.1907102
20
5.2882917
40
2.5816719
50
176.5330365
51
179.9236336
0
ARC
8
DEFAULT_255_2_778
10
11.7618056
20
5.2912909
40
2.1527651
50
179.9882427
51
181.4227155
0
ARC
8
DEFAULT_255_2_778
10
11.5385942
20
2.0772533
40
3.7026923
50
121.3954969
51
123.5492489
0
ARC
8
DEFAULT_255_2_778
10
11.9000782
20
1.5295004
40
4.3589714
50
123.5301534
51
125.961965
0
ARC
8
DEFAULT_255_2_778
10
11.9169315
20
1.5024134
40
4.3907935
50
125.9324002
51
129.6591367
0
ARC
8
DEFAULT_255_2_778
10
11.7258098
20
1.7360086
40
4.0889822
50
129.6864453
51
130.6666436
0
ARC
8
DEFAULT_255_2_778
10
11.1984764
20
2.3249121
40
3.2986901
50
130.3847972
51
139.3032473
0
LINE
8
DEFAULT_255_2_778
10
10.4252042
20
6.3107409
11
9.8233042
21
7.4283409
0
LINE
8
DEFAULT_255_2_778
10
9.8233042
20
7.4283409
11
9.8119042
21
7.4431409
0
LINE
8
DEFAULT_255_2_778
10
9.4454042
20
8.6136409
11
9.4192042
21
8.7547409
0
LINE
8
DEFAULT_255_2_778
10
9.4192042
20
8.7547409
11
8.3649042
21
9.4460409
0
LINE
8
DEFAULT_255_2_778
10
8.3649042
20
9.4460409
11
8.1781042
21
9.2891409
0
LINE
8
DEFAULT_255_2_778
10
7.2100042
20
9.0312409
11
7.2100042
21
10.6538409
0
LINE
8
DEFAULT_255_2_778
10
7.2100042
20
10.6538409
11
6.8023042
21
11.9852409
0
LINE
8
DEFAULT_255_2_778
10
6.8023042
20
11.9852409
11
6.5596042
21
12.2617409
0
LINE
8
DEFAULT_255_2_778
10
6.5596042
20
12.2617409
11
6.5559042
21
12.2694409
0
LINE
8
DEFAULT_255_2_778
10
6.5559042
20
12.2694409
11
6.2292042
21
12.6559409
0
LINE
8
DEFAULT_255_2_778
10
6.2292042
20
12.6559409
11
6.1321042
21
12.7792409
0
LINE
8
DEFAULT_255_2_778
10
6.1321042
20
12.7792409
11
5.9752042
21
12.7792409
0
LINE
8
DEFAULT_255_2_778
10
5.2536042
20
12.8988409
11
5.0555042
21
12.9589409
0
LINE
8
DEFAULT_255_2_778
10
5.0555042
20
12.9589409
11
3.8664042
21
11.6503409
0
LINE
8
DEFAULT_255_2_778
10
3.8664042
20
11.6503409
11
4.1919042
21
9.1949409
0
LINE
8
DEFAULT_255_2_778
10
4.1919042
20
9.1949409
11
4.1321042
21
8.6978409
0
LINE
8
DEFAULT_255_2_778
10
4.1321042
20
8.6978409
11
3.9413042
21
8.5295409
0
LINE
8
DEFAULT_255_2_778
10
2.8491042
20
8.0435409
11
2.7372042
21
8.0096409
0
LINE
8
DEFAULT_255_2_778
10
2.7372042
20
8.0096409
11
2.6139042
21
7.8302409
0
LINE
8
DEFAULT_255_2_778
10
2.6139042
20
7.8302409
11
2.1279042
21
8.0279409
0
LINE
8
DEFAULT_255_2_778
10
2.1279042
20
8.0279409
11
2.0009042
21
7.9715409
0
LINE
8
DEFAULT_255_2_778
10
1.3875042
20
7.7807409
11
1.2082042
21
7.7582409
0
LINE
8
DEFAULT_255_2_778
10
1.2082042
20
7.7582409
11
0.8978042
21
7.0928409
0
LINE
8
DEFAULT_255_2_778
10
0.8978042
20
7.0928409
11
0.4194042
21
6.5211409
0
LINE
8
DEFAULT_255_2_778
10
0.4194042
20
6.5211409
11
0.5464042
21
4.6962409
0
LINE
8
DEFAULT_255_2_778
10
0.5464042
20
4.6962409
11
0.4901042
21
3.8212409
0
LINE
8
DEFAULT_255_2_778
10
0.4901042
20
3.8212409
11
0.2390042
21
2.8529409
0
LINE
8
DEFAULT_255_2_778
10
0.2390042
20
2.8529409
11
1.3010042
21
1.5265409
0
LINE
8
DEFAULT_255_2_778
10
1.3010042
20
1.5265409
11
1.7421042
21
1.4702409
0
LINE
8
DEFAULT_255_2_778
10
1.7421042
20
1.4702409
11
2.1871042
21
0.6251409
0
LINE
8
DEFAULT_255_2_778
10
2.1871042
20
0.6251409
11
2.6668042
21
0.3372409
0
LINE
8
DEFAULT_255_2_778
10
2.6668042
20
0.3372409
11
4.2932042
21
0.6214409
0
LINE
8
DEFAULT_255_2_778
10
4.2932042
20
0.6214409
11
5.4822042
21
-0.2723591
0
LINE
8
DEFAULT_255_2_778
10
5.4822042
20
-0.2723591
11
6.5848042
21
-0.2723591
0
LINE
8
DEFAULT_255_2_778
10
6.5848042
20
-0.2723591
11
7.3513042
21
1.0362409
0
LINE
8
DEFAULT_255_2_778
10
8.2225042
20
1.1820409
11
8.2789042
21
1.1783409
0
LINE
8
DEFAULT_255_2_778
10
8.2789042
20
1.1783409
11
8.6864042
21
1.6421409
0
LINE
8
DEFAULT_255_2_778
10
8.6864042
20
1.6421409
11
8.8432042
21
1.8482409
0
LINE
8
DEFAULT_255_2_778
10
8.8432042
20
1.8482409
11
9.0041042
21
2.0459409
0
LINE
8
DEFAULT_255_2_778
10
9.0041042
20
2.0459409
11
9.0901042
21
2.1470409
0
LINE
8
DEFAULT_255_2_778
10
9.0901042
20
2.1470409
11
8.9779042
21
3.7548409
0
LINE
8
DEFAULT_255_2_778
10
10.0998042
20
4.8132409
11
10.2979042
21
4.9261409
0
LINE
8
DEFAULT_255_2_778
10
10.2979042
20
4.9261409
11
10.2567042
21
5.1505409
0
LINE
8
DEFAULT_255_2_778
10
10.3836042
20
6.1901409
11
10.4252042
21
6.3107409
0
LINE
8
DEFAULT_255_2_778
10
8.3464042
20
3.8728409
11
8.3315042
21
3.8207409
0
LINE
8
DEFAULT_255_2_778
10
8.3315042
20
3.8207409
11
8.3429042
21
3.6339409
0
LINE
8
DEFAULT_255_2_778
10
8.3429042
20
3.6339409
11
8.4323042
21
2.3592409
0
LINE
8
DEFAULT_255_2_778
10
8.4323042
20
2.3592409
11
8.3911042
21
2.3107409
0
LINE
8
DEFAULT_255_2_778
10
8.3911042
20
2.3107409
11
8.0397042
21
1.8321409
0
LINE
8
DEFAULT_255_2_778
10
6.9255042
20
1.5257409
11
6.8734042
21
1.4884409
0
LINE
8
DEFAULT_255_2_778
10
6.8734042
20
1.4884409
11
6.2453042
21
0.4116409
0
LINE
8
DEFAULT_255_2_778
10
6.2453042
20
0.4116409
11
6.2268042
21
0.3743409
0
LINE
8
DEFAULT_255_2_778
10
6.2268042
20
0.3743409
11
5.7145042
21
0.3743409
0
LINE
8
DEFAULT_255_2_778
10
5.7145042
20
0.3743409
11
4.4771042
21
1.3056409
0
LINE
8
DEFAULT_255_2_778
10
4.4771042
20
1.3056409
11
2.8131042
21
1.0140409
0
LINE
8
DEFAULT_255_2_778
10
2.8131042
20
1.0140409
11
2.6935042
21
1.0852409
0
LINE
8
DEFAULT_255_2_778
10
2.6935042
20
1.0852409
11
2.1776042
21
2.0684409
0
LINE
8
DEFAULT_255_2_778
10
2.1776042
20
2.0684409
11
1.6577042
21
2.1319409
0
LINE
8
DEFAULT_255_2_778
10
1.6577042
20
2.1319409
11
0.9663042
21
2.9955409
0
LINE
8
DEFAULT_255_2_778
10
0.9663042
20
2.9955409
11
1.1531042
21
3.7096409
0
LINE
8
DEFAULT_255_2_778
10
1.1531042
20
3.7096409
11
1.2166042
21
4.6854409
0
LINE
8
DEFAULT_255_2_778
10
1.2166042
20
4.6854409
11
1.2053042
21
4.8722409
0
LINE
8
DEFAULT_255_2_778
10
1.2053042
20
4.8722409
11
1.1042042
21
6.2970409
0
LINE
8
DEFAULT_255_2_778
10
1.1042042
20
6.2970409
11
1.4669042
21
6.7343409
0
LINE
8
DEFAULT_255_2_778
10
1.4669042
20
6.7343409
11
1.6651042
21
7.1576409
0
LINE
8
DEFAULT_255_2_778
10
2.1551042
20
7.3108409
11
2.8732042
21
7.0230409
0
LINE
8
DEFAULT_255_2_778
10
2.8732042
20
7.0230409
11
3.1611042
21
7.4455409
0
LINE
8
DEFAULT_255_2_778
10
4.1368042
20
7.8567409
11
4.6454042
21
7.3770409
0
LINE
8
DEFAULT_255_2_778
10
4.6454042
20
7.3770409
11
4.6753042
21
7.6424409
0
LINE
8
DEFAULT_255_2_778
10
4.6753042
20
7.6424409
11
4.8546042
21
9.1904409
0
LINE
8
DEFAULT_255_2_778
10
4.8546042
20
9.1904409
11
4.5554042
21
11.4264409
0
LINE
8
DEFAULT_255_2_778
10
4.5554042
20
11.4264409
11
4.7530042
21
11.6394409
0
LINE
8
DEFAULT_255_2_778
10
4.7530042
20
11.6394409
11
4.8128042
21
11.7066409
0
LINE
8
DEFAULT_255_2_778
10
4.8128042
20
11.7066409
11
5.2163042
21
12.1517409
0
LINE
8
DEFAULT_255_2_778
10
5.2163042
20
12.1517409
11
5.2727042
21
12.2114409
0
LINE
8
DEFAULT_255_2_778
10
5.4709042
20
12.1702409
11
5.8111042
21
12.1249409
0
LINE
8
DEFAULT_255_2_778
10
5.8111042
20
12.1249409
11
5.8225042
21
12.1249409
0
LINE
8
DEFAULT_255_2_778
10
5.8339042
20
12.1098409
11
5.9648042
21
11.9530409
0
LINE
8
DEFAULT_255_2_778
10
5.9648042
20
11.9530409
11
6.1180042
21
11.7836409
0
LINE
8
DEFAULT_255_2_778
10
6.1180042
20
11.7836409
11
6.2225042
21
11.6825409
0
LINE
8
DEFAULT_255_2_778
10
6.2225042
20
11.6825409
11
6.5739042
21
10.5425409
0
LINE
8
DEFAULT_255_2_778
10
6.5739042
20
10.5425409
11
6.5739042
21
8.5684409
0
LINE
8
DEFAULT_255_2_778
10
6.5739042
20
8.5684409
11
6.5776042
21
8.5684409
0
LINE
8
DEFAULT_255_2_778
10
6.5776042
20
8.5684409
11
6.7644042
21
8.4824409
0
LINE
8
DEFAULT_255_2_778
10
8.4136042
20
8.6319409
11
8.7911042
21
8.3853409
0
LINE
8
DEFAULT_255_2_778
10
8.7911042
20
8.3853409
11
8.8432042
21
8.3514409
0
LINE
8
DEFAULT_255_2_778
10
8.8432042
20
8.3514409
11
8.9030042
21
8.0898409
0
LINE
8
DEFAULT_255_2_778
10
9.2806042
20
7.0801409
11
9.7407042
21
6.2239409
0
LINE
8
DEFAULT_255_2_778
10
9.7407042
20
6.2239409
11
9.7068042
21
6.0829409
0
LINE
8
DEFAULT_255_2_778
10
8.6975042
20
4.4758409
11
8.6940042
21
4.4785409
0
LINE
8
DEFAULT_255_2_778
10
4.39413
20
11.354258
11
5.01903
21
12.266258
0
LINE
8
DEFAULT_255_2_778
10
5.01903
20
12.266258
11
4.71613
21
11.459058
0
LINE
8
DEFAULT_255_2_778
10
4.71613
20
11.459058
11
5.25873
21
12.158058
0
LINE
8
DEFAULT_255_2_778
10
5.25873
20
12.158058
11
5.95403
21
11.832558
0
LINE
8
DEFAULT_255_2_778
10
5.95403
20
11.832558
11
6.63143
21
10.669758
0
LINE
8
DEFAULT_255_2_778
10
6.63143
20
10.669758
11
6.78093
21
8.710558
0
LINE
8
DEFAULT_255_2_778
10
6.78093
20
8.710558
11
7.69343
21
8.673258
0
LINE
8
DEFAULT_255_2_778
10
7.69343
20
8.673258
11
8.35513
21
8.870858
0
LINE
8
DEFAULT_255_2_778
10
8.35513
20
8.870858
11
8.99073
21
8.530658
0
LINE
8
DEFAULT_255_2_778
10
8.99073
20
8.530658
11
9.17013
21
7.857458
0
LINE
8
DEFAULT_255_2_778
10
9.17013
20
7.857458
11
9.98153
21
6.291158
0
LINE
8
DEFAULT_255_2_778
10
9.98153
20
6.291158
11
9.77543
21
5.752758
0
LINE
8
DEFAULT_255_2_778
10
9.77543
20
5.752758
11
9.77543
21
5.300258
0
LINE
8
DEFAULT_255_2_778
10
9.77543
20
5.300258
11
8.48563
21
4.327958
0
LINE
8
DEFAULT_255_2_778
10
8.48563
20
4.327958
11
8.55683
21
2.409758
0
LINE
8
DEFAULT_255_2_778
10
8.55683
20
2.409758
11
8.17153
21
1.777658
0
LINE
8
DEFAULT_255_2_778
10
8.17153
20
1.777658
11
7.12853
21
1.564658
0
LINE
8
DEFAULT_255_2_778
10
7.12853
20
1.564658
11
6.24613
21
0.409258
0
LINE
8
DEFAULT_255_2_778
10
6.24613
20
0.409258
11
5.65903
21
0.300758
0
LINE
8
DEFAULT_255_2_778
10
5.65903
20
0.300758
11
4.32053
21
1.205658
0
LINE
8
DEFAULT_255_2_778
10
4.32053
20
1.205658
11
2.92223
21
0.921458
0
LINE
8
DEFAULT_255_2_778
10
2.92223
20
0.921458
11
2.58563
21
1.152958
0
LINE
8
DEFAULT_255_2_778
10
2.58563
20
1.152958
11
1.90123
21
2.002058
0
LINE
8
DEFAULT_255_2_778
10
1.90123
20
2.002058
11
1.54213
21
2.086658
0
LINE
8
DEFAULT_255_2_778
10
1.54213
20
2.086658
11
0.88043
21
2.976458
0
LINE
8
DEFAULT_255_2_778
10
0.88043
20
2.976458
11
0.96643
21
4.655758
0
LINE
8
DEFAULT_255_2_778
10
0.96643
20
4.655758
11
1.06353
21
6.237458
0
LINE
8
DEFAULT_255_2_778
10
1.06353
20
6.237458
11
1.44453
21
7.362958
0
LINE
8
DEFAULT_255_2_778
10
1.44453
20
7.362958
11
2.26343
21
7.482558
0
LINE
8
DEFAULT_255_2_778
10
2.26343
20
7.482558
11
2.80523
21
7.116158
0
LINE
8
DEFAULT_255_2_778
10
2.80523
20
7.116158
11
3.18623
21
7.549758
0
LINE
8
DEFAULT_255_2_778
10
3.18623
20
7.549758
11
4.03133
21
8.024758
0
LINE
8
DEFAULT_255_2_778
10
4.03133
20
8.024758
11
4.57323
21
7.766758
0
LINE
8
DEFAULT_255_2_778
10
4.57323
20
7.766758
11
4.62533
21
9.718558
0
LINE
8
DEFAULT_255_2_778
10
4.62533
20
9.718558
11
4.39413
21
11.354258
0
LINE
8
DEFAULT_255_2_778
10
8.7581425
20
7.7913398
11
8.6271425
21
8.3112398
0
LINE
8
DEFAULT_255_2_778
10
8.6271425
20
8.3112398
11
8.4850425
21
8.1355398
0
LINE
8
DEFAULT_255_2_778
10
8.4850425
20
8.1355398
11
8.4398425
21
7.4401398
0
LINE
8
DEFAULT_255_2_778
10
8.4398425
20
7.4401398
11
8.9896425
21
6.6287398
0
LINE
8
DEFAULT_255_2_778
10
8.9896425
20
6.6287398
11
9.2626425
21
6.5914398
0
LINE
8
DEFAULT_255_2_778
10
9.2626425
20
6.5914398
11
8.7581425
21
7.7913398
0
LINE
8
DEFAULT_255_2_778
10
4.9248425
20
11.3772398
11
5.1155425
21
11.6875398
0
LINE
8
DEFAULT_255_2_778
10
5.1155425
20
11.6875398
11
5.2616425
21
11.6875398
0
LINE
8
DEFAULT_255_2_778
10
5.2616425
20
11.6875398
11
5.1155425
21
11.4145398
0
LINE
8
DEFAULT_255_2_778
10
5.1155425
20
11.4145398
11
5.1867425
21
11.0292398
0
LINE
8
DEFAULT_255_2_778
10
5.1867425
20
11.0292398
11
5.4293425
21
10.6628398
0
LINE
8
DEFAULT_255_2_778
10
5.4293425
20
10.6628398
11
5.1528425
21
10.6329398
0
LINE
8
DEFAULT_255_2_778
10
5.1528425
20
10.6329398
11
4.9248425
21
11.3772398
0
LINE
8
DEFAULT_255_2_778
10
5.8299425
20
11.1038398
11
5.8299425
21
10.8951398
0
LINE
8
DEFAULT_255_2_778
10
5.8299425
20
10.8951398
11
5.6206425
21
10.7083398
0
LINE
8
DEFAULT_255_2_778
10
5.6206425
20
10.7083398
11
5.5571425
21
11.4486398
0
LINE
8
DEFAULT_255_2_778
10
5.5571425
20
11.4486398
11
5.6320425
21
11.5796398
0
LINE
8
DEFAULT_255_2_778
10
5.6320425
20
11.5796398
11
5.8299425
21
11.1038398
0
LINE
8
DEFAULT_255_2_778
10
4.1506425
20
6.5601398
11
4.2030425
21
6.0974398
0
LINE
8
DEFAULT_255_2_778
10
4.2030425
20
6.0974398
11
4.0900425
21
4.9832398
0
LINE
8
DEFAULT_255_2_778
10
4.0900425
20
4.9832398
11
4.0117425
21
4.6692398
0
LINE
8
DEFAULT_255_2_778
10
4.0117425
20
4.6692398
11
4.1014425
21
3.7868398
0
LINE
8
DEFAULT_255_2_778
10
4.1014425
20
3.7868398
11
3.8172425
21
3.8728398
0
LINE
8
DEFAULT_255_2_778
10
3.8172425
20
3.8728398
11
3.4283425
21
4.3964398
0
LINE
8
DEFAULT_255_2_778
10
3.4283425
20
4.3964398
11
3.3870425
21
5.3200398
0
LINE
8
DEFAULT_255_2_778
10
3.3870425
20
5.3200398
11
3.8143425
21
6.6620398
0
LINE
8
DEFAULT_255_2_778
10
3.8143425
20
6.6620398
11
4.1506425
21
6.5601398
0
LINE
8
DEFAULT_255_2_778
10
2.5097425
20
6.7141398
11
2.5097425
21
6.1609398
0
LINE
8
DEFAULT_255_2_778
10
2.5097425
20
6.1609398
11
2.3528425
21
4.9158398
0
LINE
8
DEFAULT_255_2_778
10
2.3528425
20
4.9158398
11
2.0988425
21
4.0969398
0
LINE
8
DEFAULT_255_2_778
10
2.0988425
20
4.0969398
11
2.6631425
21
4.7700398
0
LINE
8
DEFAULT_255_2_778
10
2.6631425
20
4.7700398
11
3.0857425
21
7.1592398
0
LINE
8
DEFAULT_255_2_778
10
3.0857425
20
7.1592398
11
2.1284425
21
7.3573398
0
LINE
8
DEFAULT_255_2_778
10
2.1284425
20
7.3573398
11
2.6631425
21
6.9872398
0
LINE
8
DEFAULT_255_2_778
10
2.6631425
20
6.9872398
11
1.9858425
21
6.8226398
0
LINE
8
DEFAULT_255_2_778
10
1.9858425
20
6.8226398
11
2.5097425
21
6.7141398
0
LINE
8
DEFAULT_255_2_778
10
1.7985425
20
4.9158398
11
1.6302425
21
5.1401398
0
LINE
8
DEFAULT_255_2_778
10
1.6302425
20
5.1401398
11
1.9067425
21
6.2879398
0
LINE
8
DEFAULT_255_2_778
10
1.9067425
20
6.2879398
11
2.0861425
21
6.2805398
0
LINE
8
DEFAULT_255_2_778
10
2.0861425
20
6.2805398
11
2.2056425
21
5.9926398
0
LINE
8
DEFAULT_255_2_778
10
2.2056425
20
5.9926398
11
1.9064425
21
5.3944398
0
LINE
8
DEFAULT_255_2_778
10
1.9064425
20
5.3944398
11
1.7985425
21
4.9158398
0
LINE
8
DEFAULT_255_2_778
10
2.8123425
20
1.4868398
11
3.1679425
21
1.3447398
0
LINE
8
DEFAULT_255_2_778
10
3.1679425
20
1.3447398
11
3.4484425
21
1.5140398
0
LINE
8
DEFAULT_255_2_778
10
3.4484425
20
1.5140398
11
3.3137425
21
1.7720398
0
LINE
8
DEFAULT_255_2_778
10
3.3137425
20
1.7720398
11
3.1941425
21
1.7720398
0
LINE
8
DEFAULT_255_2_778
10
3.1941425
20
1.7720398
11
3.0857425
21
1.6299398
0
LINE
8
DEFAULT_255_2_778
10
3.0857425
20
1.6299398
11
2.9288425
21
1.7720398
0
LINE
8
DEFAULT_255_2_778
10
2.9288425
20
1.7720398
11
2.5324425
21
2.2056398
0
LINE
8
DEFAULT_255_2_778
10
2.5324425
20
2.2056398
11
2.5324425
21
2.0038398
0
LINE
8
DEFAULT_255_2_778
10
2.5324425
20
2.0038398
11
2.8123425
21
1.4868398
0
LINE
8
DEFAULT_255_2_778
10
5.7624425
20
8.7443398
11
5.5791425
21
9.1393398
0
LINE
8
DEFAULT_255_2_778
10
5.5791425
20
9.1393398
11
5.3883425
21
9.1393398
0
LINE
8
DEFAULT_255_2_778
10
5.3883425
20
9.1393398
11
5.2613425
21
8.9036398
0
LINE
8
DEFAULT_255_2_778
10
5.2613425
20
8.9036398
11
5.3248425
21
8.6755398
0
LINE
8
DEFAULT_255_2_778
10
5.3248425
20
8.6755398
11
5.2613425
21
8.2193398
0
LINE
8
DEFAULT_255_2_778
10
5.2613425
20
8.2193398
11
5.3584425
21
7.8566398
0
LINE
8
DEFAULT_255_2_778
10
5.3584425
20
7.8566398
11
5.6312425
21
7.8418398
0
LINE
8
DEFAULT_255_2_778
10
5.6312425
20
7.8418398
11
5.9490425
21
8.1521398
0
LINE
8
DEFAULT_255_2_778
10
5.9490425
20
8.1521398
11
5.7844425
21
8.4101398
0
LINE
8
DEFAULT_255_2_778
10
5.7844425
20
8.4101398
11
5.7624425
21
8.7443398
0
LINE
8
DEFAULT_255_2_778
10
7.7775425
20
8.1500398
11
7.6878425
21
8.2630398
0
LINE
8
DEFAULT_255_2_778
10
7.6878425
20
8.2630398
11
7.5309425
21
8.2630398
0
LINE
8
DEFAULT_255_2_778
10
7.5309425
20
8.2630398
11
7.2468425
21
8.2146398
0
LINE
8
DEFAULT_255_2_778
10
7.2468425
20
8.2146398
11
7.1833425
21
8.1135398
0
LINE
8
DEFAULT_255_2_778
10
7.1833425
20
8.1135398
11
7.2730425
21
7.9640398
0
LINE
8
DEFAULT_255_2_778
10
7.2730425
20
7.9640398
11
7.5309425
21
8.0161398
0
LINE
8
DEFAULT_255_2_778
10
7.5309425
20
8.0161398
11
7.7775425
21
8.1500398
0
LINE
8
DEFAULT_255_2_778
10
5.5079425
20
6.6284398
11
5.7733425
21
6.7295398
0
LINE
8
DEFAULT_255_2_778
10
5.7733425
20
6.7295398
11
5.9527425
21
6.4829398
0
LINE
8
DEFAULT_255_2_778
10
5.9527425
20
6.4829398
11
5.9789425
21
5.8733398
0
LINE
8
DEFAULT_255_2_778
10
5.9789425
20
5.8733398
11
5.9117425
21
5.1105398
0
LINE
8
DEFAULT_255_2_778
10
5.9117425
20
5.1105398
11
5.7135425
21
4.7591398
0
LINE
8
DEFAULT_255_2_778
10
5.7135425
20
4.7591398
11
5.7283425
21
4.2990398
0
LINE
8
DEFAULT_255_2_778
10
5.7283425
20
4.2990398
11
5.5526425
21
4.0336398
0
LINE
8
DEFAULT_255_2_778
10
5.5526425
20
4.0336398
11
5.2910425
21
3.9924398
0
LINE
8
DEFAULT_255_2_778
10
5.2910425
20
3.9924398
11
5.2126425
21
4.1456398
0
LINE
8
DEFAULT_255_2_778
10
5.2126425
20
4.1456398
11
5.3436425
21
4.4858398
0
LINE
8
DEFAULT_255_2_778
10
5.3436425
20
4.4858398
11
5.4108425
21
4.8036398
0
LINE
8
DEFAULT_255_2_778
10
5.4108425
20
4.8036398
11
5.6169425
21
5.1327398
0
LINE
8
DEFAULT_255_2_778
10
5.6169425
20
5.1327398
11
5.3441425
21
5.4804398
0
LINE
8
DEFAULT_255_2_778
10
5.3441425
20
5.4804398
11
5.3441425
21
6.3554398
0
LINE
8
DEFAULT_255_2_778
10
5.3441425
20
6.3554398
11
5.5079425
21
6.6284398
0
LINE
8
DEFAULT_255_2_778
10
3.3735425
20
3.2293398
11
3.1941425
21
3.3264398
0
LINE
8
DEFAULT_255_2_778
10
3.1941425
20
3.3264398
11
3.0857425
21
2.9708398
0
LINE
8
DEFAULT_255_2_778
10
3.0857425
20
2.9708398
11
3.1378425
21
2.6306398
0
LINE
8
DEFAULT_255_2_778
10
3.1378425
20
2.6306398
11
3.4481425
21
2.4062398
0
LINE
8
DEFAULT_255_2_778
10
3.4481425
20
2.4062398
11
3.7812425
21
2.3276398
0
LINE
8
DEFAULT_255_2_778
10
3.7812425
20
2.3276398
11
3.9381425
21
2.5258398
0
LINE
8
DEFAULT_255_2_778
10
3.9381425
20
2.5258398
11
3.9381425
21
2.7239398
0
LINE
8
DEFAULT_255_2_778
10
3.9381425
20
2.7239398
11
3.7214425
21
2.8285398
0
LINE
8
DEFAULT_255_2_778
10
3.7214425
20
2.8285398
11
3.5122425
21
2.8285398
0
LINE
8
DEFAULT_255_2_778
10
3.5122425
20
2.8285398
11
3.5122425
21
3.0494398
0
LINE
8
DEFAULT_255_2_778
10
3.5122425
20
3.0494398
11
3.3735425
21
3.2293398
0
LINE
8
DEFAULT_255_2_778
10
1.7310425
20
4.5120398
11
1.7310425
21
4.6615398
0
LINE
8
DEFAULT_255_2_778
10
1.7310425
20
4.6615398
11
1.5741425
21
4.7213398
0
LINE
8
DEFAULT_255_2_778
10
1.5741425
20
4.7213398
11
1.4545425
21
4.5236398
0
LINE
8
DEFAULT_255_2_778
10
1.4545425
20
4.5236398
11
1.5741425
21
4.2956398
0
LINE
8
DEFAULT_255_2_778
10
1.5741425
20
4.2956398
11
1.7802425
21
4.2956398
0
LINE
8
DEFAULT_255_2_778
10
1.7802425
20
4.2956398
11
1.7310425
21
4.5120398
0
LINE
8
DEFAULT_255_2_778
10
7.3669425
20
6.3366398
11
7.1835425
21
6.7316398
0
LINE
8
DEFAULT_255_2_778
10
7.1835425
20
6.7316398
11
7.2319425
21
6.9335398
0
LINE
8
DEFAULT_255_2_778
10
7.2319425
20
6.9335398
11
7.3404425
21
7.0795398
0
LINE
8
DEFAULT_255_2_778
10
7.3404425
20
7.0795398
11
7.9117425
21
5.6741398
0
LINE
8
DEFAULT_255_2_778
10
7.9117425
20
5.6741398
11
7.9963425
21
4.5149398
0
LINE
8
DEFAULT_255_2_778
10
7.9963425
20
4.5149398
11
7.6672425
21
4.0249398
0
LINE
8
DEFAULT_255_2_778
10
7.6672425
20
4.0249398
11
7.4277425
21
3.9318398
0
LINE
8
DEFAULT_255_2_778
10
7.4277425
20
3.9318398
11
7.1399425
21
4.1598398
0
LINE
8
DEFAULT_255_2_778
10
7.1399425
20
4.1598398
11
6.9941425
21
4.5787398
0
LINE
8
DEFAULT_255_2_778
10
6.9941425
20
4.5787398
11
7.1399425
21
4.8213398
0
LINE
8
DEFAULT_255_2_778
10
7.1399425
20
4.8213398
11
7.3714425
21
4.9896398
0
LINE
8
DEFAULT_255_2_778
10
7.3714425
20
4.9896398
11
7.5023425
21
5.2626398
0
LINE
8
DEFAULT_255_2_778
10
7.5023425
20
5.2626398
11
7.3454425
21
5.7299398
0
LINE
8
DEFAULT_255_2_778
10
7.3454425
20
5.7299398
11
7.3716425
21
6.1188398
0
LINE
8
DEFAULT_255_2_778
10
7.3716425
20
6.1188398
11
7.3669425
21
6.3366398
0
LINE
8
DEFAULT_255_2_778
10
7.8077425
20
3.1960398
11
7.9048425
21
2.7623398
0
LINE
8
DEFAULT_255_2_778
10
7.9048425
20
2.7623398
11
7.7214425
21
2.3287398
0
LINE
8
DEFAULT_255_2_778
10
7.7214425
20
2.3287398
11
7.8077425
21
3.1960398
0
LINE
8
DEFAULT_255_2_778
10
5.9569425
20
1.0420398
11
5.6429425
21
0.8774398
0
LINE
8
DEFAULT_255_2_778
10
5.6429425
20
0.8774398
11
5.3325425
21
1.0044398
0
LINE
8
DEFAULT_255_2_778
10
5.3325425
20
1.0044398
11
4.9697425
21
1.4270398
0
LINE
8
DEFAULT_255_2_778
10
4.9697425
20
1.4270398
11
5.5341425
21
1.1166398
0
LINE
8
DEFAULT_255_2_778
10
5.5341425
20
1.1166398
11
5.7323425
21
1.0047398
0
LINE
8
DEFAULT_255_2_778
10
5.7323425
20
1.0047398
11
5.9569425
21
1.0420398
0
LINE
8
DEFAULT_255_2_778
10
5.3325425
20
2.4065398
11
5.1756425
21
2.7621398
0
LINE
8
DEFAULT_255_2_778
10
5.1756425
20
2.7621398
11
5.3325425
21
2.9189398
0
LINE
8
DEFAULT_255_2_778
10
5.3325425
20
2.9189398
11
5.5979425
21
2.7621398
0
LINE
8
DEFAULT_255_2_778
10
5.5979425
20
2.7621398
11
5.6950425
21
2.3284398
0
LINE
8
DEFAULT_255_2_778
10
5.6950425
20
2.3284398
11
5.5820425
21
1.9993398
0
LINE
8
DEFAULT_255_2_778
10
5.5820425
20
1.9993398
11
5.3426425
21
2.2085398
0
LINE
8
DEFAULT_255_2_778
10
5.3426425
20
2.2085398
11
5.3325425
21
2.4065398
0
LINE
8
DEFAULT_255_2_778
10
6.7869236
20
7.6603665
11
7.9498236
21
7.9408665
0
LINE
8
DEFAULT_255_2_778
10
7.9498236
20
7.9408665
11
7.9498236
21
7.4508665
0
LINE
8
DEFAULT_255_2_778
10
7.9498236
20
7.4508665
11
8.4922236
21
6.6618665
0
LINE
8
DEFAULT_255_2_778
10
8.4922236
20
6.6618665
11
9.0340236
21
6.0001665
0
LINE
8
DEFAULT_255_2_778
10
9.0340236
20
6.0001665
11
9.4489236
21
5.9104665
0
LINE
8
DEFAULT_255_2_778
10
9.4489236
20
5.9104665
11
9.5910236
21
6.3628665
0
LINE
8
DEFAULT_255_2_778
10
9.5910236
20
6.3628665
11
9.2134236
21
7.2452665
0
LINE
8
DEFAULT_255_2_778
10
9.2134236
20
7.2452665
11
9.7823236
21
6.6618665
0
LINE
8
DEFAULT_255_2_778
10
9.7823236
20
6.6618665
11
9.8953236
21
6.0898665
0
LINE
8
DEFAULT_255_2_778
10
9.8953236
20
6.0898665
11
9.5889236
21
5.1174665
0
LINE
8
DEFAULT_255_2_778
10
9.5889236
20
5.1174665
11
8.4895236
21
4.3771665
0
LINE
8
DEFAULT_255_2_778
10
8.4895236
20
4.3771665
11
8.4895236
21
5.6746665
0
LINE
8
DEFAULT_255_2_778
10
8.4895236
20
5.6746665
11
7.5357236
21
7.3571665
0
LINE
8
DEFAULT_255_2_778
10
7.5357236
20
7.3571665
11
6.6345236
21
7.3571665
0
LINE
8
DEFAULT_255_2_778
10
6.6345236
20
7.3571665
11
6.7840236
21
7.6601665
0
LINE
8
DEFAULT_255_2_778
10
6.6351236
20
7.2566665
11
6.3993236
21
5.3376665
0
LINE
8
DEFAULT_255_2_778
10
6.3993236
20
5.3376665
11
6.1189236
21
3.7374665
0
LINE
8
DEFAULT_255_2_778
10
6.1189236
20
3.7374665
11
6.0736236
21
2.5782665
0
LINE
8
DEFAULT_255_2_778
10
6.0736236
20
2.5782665
11
6.3276236
21
3.4982665
0
LINE
8
DEFAULT_255_2_778
10
6.3276236
20
3.4982665
11
6.7838236
21
3.1579665
0
LINE
8
DEFAULT_255_2_778
10
6.7838236
20
3.1579665
11
6.7838236
21
4.8671665
0
LINE
8
DEFAULT_255_2_778
10
6.7838236
20
4.8671665
11
6.8922236
21
6.1046665
0
LINE
8
DEFAULT_255_2_778
10
6.8922236
20
6.1046665
11
6.9557236
21
6.9907665
0
LINE
8
DEFAULT_255_2_778
10
6.9557236
20
6.9907665
11
7.3632236
21
7.2333665
0
LINE
8
DEFAULT_255_2_778
10
7.3632236
20
7.2333665
11
6.6351236
21
7.2566665
0
LINE
8
DEFAULT_255_2_778
10
2.1758236
20
2.2083665
11
1.9104236
21
2.9187665
0
LINE
8
DEFAULT_255_2_778
10
1.9104236
20
2.9187665
11
1.8506236
21
2.6309665
0
LINE
8
DEFAULT_255_2_778
10
1.8506236
20
2.6309665
11
1.5252236
21
3.0981665
0
LINE
8
DEFAULT_255_2_778
10
1.5252236
20
3.0981665
11
1.3569236
21
4.4443665
0
LINE
8
DEFAULT_255_2_778
10
1.3569236
20
4.4443665
11
1.6223236
21
6.3364665
0
LINE
8
DEFAULT_255_2_778
10
1.6223236
20
6.3364665
11
1.8503236
21
6.8224665
0
LINE
8
DEFAULT_255_2_778
10
1.8503236
20
6.8224665
11
2.5348236
21
6.9870665
0
LINE
8
DEFAULT_255_2_778
10
2.5348236
20
6.9870665
11
2.9312236
21
6.7290665
0
LINE
8
DEFAULT_255_2_778
10
2.9312236
20
6.7290665
11
2.0900236
21
7.5442665
0
LINE
8
DEFAULT_255_2_778
10
2.0900236
20
7.5442665
11
1.4545236
21
7.2563665
0
LINE
8
DEFAULT_255_2_778
10
1.4545236
20
7.2563665
11
1.0209236
21
6.4660665
0
LINE
8
DEFAULT_255_2_778
10
1.0209236
20
6.4660665
11
1.0209236
21
5.4302665
0
LINE
8
DEFAULT_255_2_778
10
1.0209236
20
5.4302665
11
0.8899236
21
3.1719665
0
LINE
8
DEFAULT_255_2_778
10
0.8899236
20
3.1719665
11
1.4543236
21
2.1290665
0
LINE
8
DEFAULT_255_2_778
10
1.4543236
20
2.1290665
11
2.2731236
21
1.7776665
0
LINE
8
DEFAULT_255_2_778
10
2.2731236
20
1.7776665
11
2.1760236
21
2.2112665
0
LINE
8
DEFAULT_255_2_778
10
2.8153236
20
1.2505665
11
3.0510236
21
1.1534665
0
LINE
8
DEFAULT_255_2_778
10
3.0510236
20
1.1534665
11
3.7241236
21
1.5199665
0
LINE
8
DEFAULT_255_2_778
10
3.7241236
20
1.5199665
11
3.3389236
21
2.2112665
0
LINE
8
DEFAULT_255_2_778
10
3.3389236
20
2.2112665
11
4.0382236
21
1.6839665
0
LINE
8
DEFAULT_255_2_778
10
4.0382236
20
1.6839665
11
4.5462236
21
1.2503665
0
LINE
8
DEFAULT_255_2_778
10
4.5462236
20
1.2503665
11
2.9375236
21
0.9211665
0
LINE
8
DEFAULT_255_2_778
10
2.9375236
20
0.9211665
11
2.3618236
21
1.3215665
0
LINE
8
DEFAULT_255_2_778
10
2.3618236
20
1.3215665
11
2.5711236
21
1.5196665
0
LINE
8
DEFAULT_255_2_778
10
2.5711236
20
1.5196665
11
2.8153236
21
1.2505665
0
LINE
8
DEFAULT_255_2_778
10
5.4897236
20
0.3391665
11
4.3940236
21
1.2151665
0
LINE
8
DEFAULT_255_2_778
10
4.3940236
20
1.2151665
11
4.7158236
21
1.1630665
0
LINE
8
DEFAULT_255_2_778
10
4.7158236
20
1.1630665
11
5.5347236
21
0.7740665
0
LINE
8
DEFAULT_255_2_778
10
5.5347236
20
0.7740665
11
5.9572236
21
0.7777665
0
LINE
8
DEFAULT_255_2_778
10
5.9572236
20
0.7777665
11
7.5942236
21
2.7251665
0
LINE
8
DEFAULT_255_2_778
10
7.5942236
20
2.7251665
11
7.3849236
21
1.9398665
0
LINE
8
DEFAULT_255_2_778
10
7.3849236
20
1.9398665
11
7.8082236
21
2.0893665
0
LINE
8
DEFAULT_255_2_778
10
7.8082236
20
2.0893665
11
8.0961236
21
2.3173665
0
LINE
8
DEFAULT_255_2_778
10
8.0961236
20
2.3173665
11
8.2829236
21
3.9699665
0
LINE
8
DEFAULT_255_2_778
10
8.2829236
20
3.9699665
11
8.4922236
21
2.7923665
0
LINE
8
DEFAULT_255_2_778
10
8.4922236
20
2.7923665
11
8.3128236
21
1.9099665
0
LINE
8
DEFAULT_255_2_778
10
8.3128236
20
1.9099665
11
7.9500236
21
1.7122665
0
LINE
8
DEFAULT_255_2_778
10
7.9500236
20
1.7122665
11
7.1050236
21
1.4358665
0
LINE
8
DEFAULT_255_2_778
10
7.1050236
20
1.4358665
11
6.0768236
21
0.1941665
0
LINE
8
DEFAULT_255_2_778
10
6.0768236
20
0.1941665
11
5.4897236
21
0.3391665
0
LINE
8
DEFAULT_255_2_778
10
8.1778514
20
2.5750682
11
8.0508514
21
2.0811682
0
LINE
8
DEFAULT_255_2_778
10
8.0508514
20
2.0811682
11
7.8082514
21
2.0885682
0
LINE
8
DEFAULT_255_2_778
10
7.8082514
20
2.0885682
11
7.9614514
21
2.3689682
0
LINE
8
DEFAULT_255_2_778
10
7.9614514
20
2.3689682
11
8.0960514
21
2.9709682
0
LINE
8
DEFAULT_255_2_778
10
8.0960514
20
2.9709682
11
8.1778514
21
2.5750682
0
LINE
8
DEFAULT_255_2_778
10
1.9847514
20
3.8310682
11
2.4149514
21
4.0371682
0
LINE
8
DEFAULT_255_2_778
10
2.4149514
20
4.0371682
11
2.7777514
21
3.1473682
0
LINE
8
DEFAULT_255_2_778
10
2.7777514
20
3.1473682
11
2.9906514
21
4.1681682
0
LINE
8
DEFAULT_255_2_778
10
2.9906514
20
4.1681682
11
2.9906514
21
5.0317682
0
LINE
8
DEFAULT_255_2_778
10
2.9906514
20
5.0317682
11
3.5211514
21
7.1484682
0
LINE
8
DEFAULT_255_2_778
10
3.5211514
20
7.1484682
11
3.7230514
21
7.3277682
0
LINE
8
DEFAULT_255_2_778
10
3.7230514
20
7.3277682
11
4.0707514
21
7.4510682
0
LINE
8
DEFAULT_255_2_778
10
4.0707514
20
7.4510682
11
4.5419514
21
7.3579682
0
LINE
8
DEFAULT_255_2_778
10
4.5419514
20
7.3579682
11
4.3958514
21
7.8376682
0
LINE
8
DEFAULT_255_2_778
10
4.3958514
20
7.8376682
11
3.4497514
21
7.7812682
0
LINE
8
DEFAULT_255_2_778
10
3.4497514
20
7.7812682
11
2.9981514
21
7.2428682
0
LINE
8
DEFAULT_255_2_778
10
2.9981514
20
7.2428682
11
2.6615514
21
4.7190682
0
LINE
8
DEFAULT_255_2_778
10
2.6615514
20
4.7190682
11
1.9847514
21
3.8310682
0
LINE
8
DEFAULT_255_2_778
10
4.7155253
20
6.822328
11
4.6483253
21
6.713928
0
LINE
8
DEFAULT_255_2_778
10
4.6483253
20
6.713928
11
4.2372253
21
6.930628
0
LINE
8
DEFAULT_255_2_778
10
4.2372253
20
6.930628
11
3.7810253
21
6.986928
0
LINE
8
DEFAULT_255_2_778
10
3.7810253
20
6.986928
11
3.9379253
21
7.065528
0
LINE
8
DEFAULT_255_2_778
10
3.9379253
20
7.065528
11
4.3269253
21
7.110828
0
LINE
8
DEFAULT_255_2_778
10
4.3269253
20
7.110828
11
4.5399253
21
7.076928
0
LINE
8
DEFAULT_255_2_778
10
4.5399253
20
7.076928
11
4.2144253
21
7.256328
0
LINE
8
DEFAULT_255_2_778
10
4.2144253
20
7.256328
11
3.5191253
21
7.147828
0
LINE
8
DEFAULT_255_2_778
10
3.5191253
20
7.147828
11
3.9379253
21
7.938128
0
LINE
8
DEFAULT_255_2_778
10
3.9379253
20
7.938128
11
4.5997253
21
7.732028
0
LINE
8
DEFAULT_255_2_778
10
4.5997253
20
7.732028
11
4.7155253
21
6.822328
0
LINE
8
DEFAULT_255_2_778
10
2.1277253
20
6.463828
11
2.3520253
21
6.662028
0
LINE
8
DEFAULT_255_2_778
10
2.3520253
20
6.662028
11
1.9070253
21
6.521028
0
LINE
8
DEFAULT_255_2_778
10
1.9070253
20
6.521028
11
2.1277253
21
6.463828
0
LINE
8
DEFAULT_255_2_778
10
4.8650244
20
4.2649754
11
5.0182244
21
5.0092754
0
LINE
8
DEFAULT_255_2_778
10
5.0182244
20
5.0092754
11
5.0669244
21
6.6615754
0
LINE
8
DEFAULT_255_2_778
10
5.0669244
20
6.6615754
11
4.9473244
21
8.0974754
0
LINE
8
DEFAULT_255_2_778
10
4.9473244
20
8.0974754
11
5.1156244
21
9.1182754
0
LINE
8
DEFAULT_255_2_778
10
5.1156244
20
9.1182754
11
5.1156244
21
10.6408754
0
LINE
8
DEFAULT_255_2_778
10
5.1156244
20
10.6408754
11
5.0185244
21
11.4706754
0
LINE
8
DEFAULT_255_2_778
10
5.0185244
20
11.4706754
11
5.1156244
21
11.7098754
0
LINE
8
DEFAULT_255_2_778
10
5.1156244
20
11.7098754
11
5.4410244
21
11.8294754
0
LINE
8
DEFAULT_255_2_778
10
5.4410244
20
11.8294754
11
5.8860244
21
11.6984754
0
LINE
8
DEFAULT_255_2_778
10
5.8860244
20
11.6984754
11
6.4020244
21
10.8194754
0
LINE
8
DEFAULT_255_2_778
10
6.4020244
20
10.8194754
11
6.5290244
21
10.0376754
0
LINE
8
DEFAULT_255_2_778
10
6.5290244
20
10.0376754
11
6.7197244
21
10.5385754
0
LINE
8
DEFAULT_255_2_778
10
6.7197244
20
10.5385754
11
6.2824244
21
11.9519754
0
LINE
8
DEFAULT_255_2_778
10
6.2824244
20
11.9519754
11
5.5767244
21
12.4080754
0
LINE
8
DEFAULT_255_2_778
10
5.5767244
20
12.4080754
11
5.0158244
21
12.2622754
0
LINE
8
DEFAULT_255_2_778
10
5.0158244
20
12.2622754
11
4.3914244
21
11.5071754
0
LINE
8
DEFAULT_255_2_778
10
4.3914244
20
11.5071754
11
4.6308244
21
8.8859754
0
LINE
8
DEFAULT_255_2_778
10
4.6308244
20
8.8859754
11
4.7155244
21
6.0741754
0
LINE
8
DEFAULT_255_2_778
10
4.7155244
20
6.0741754
11
4.6224244
21
4.7877754
0
LINE
8
DEFAULT_255_2_778
10
4.6224244
20
4.7877754
11
4.5377244
21
3.9651754
0
LINE
8
DEFAULT_255_2_778
10
4.5377244
20
3.9651754
11
4.7137244
21
3.1052754
0
LINE
8
DEFAULT_255_2_778
10
4.7137244
20
3.1052754
11
4.8650244
21
4.2649754
0
LINE
8
DEFAULT_255_2_778
10
8.0260244
20
8.7104754
11
8.0075244
21
8.5535754
0
LINE
8
DEFAULT_255_2_778
10
8.0075244
20
8.5535754
11
7.9064244
21
8.3255754
0
LINE
8
DEFAULT_255_2_778
10
7.9064244
20
8.3255754
11
8.1308244
21
8.5535754
0
LINE
8
DEFAULT_255_2_778
10
8.1308244
20
8.5535754
11
8.2802244
21
8.5535754
0
LINE
8
DEFAULT_255_2_778
10
8.2802244
20
8.5535754
11
8.0934244
21
8.1501754
0
LINE
8
DEFAULT_255_2_778
10
8.0934244
20
8.1501754
11
8.4562244
21
8.5803754
0
LINE
8
DEFAULT_255_2_778
10
8.4562244
20
8.5803754
11
8.4300244
21
8.4109754
0
LINE
8
DEFAULT_255_2_778
10
8.4300244
20
8.4109754
11
8.5496244
21
8.5456754
0
LINE
8
DEFAULT_255_2_778
10
8.5496244
20
8.5456754
11
8.7404244
21
8.5043754
0
LINE
8
DEFAULT_255_2_778
10
8.7404244
20
8.5043754
11
8.4300244
21
8.9044754
0
LINE
8
DEFAULT_255_2_778
10
8.4300244
20
8.9044754
11
8.0260244
21
8.7104754
0
LINE
8
DEFAULT_255_2_778
10
6.9240244
20
6.5938754
11
7.0809244
21
6.6649754
0
LINE
8
DEFAULT_255_2_778
10
7.0809244
20
6.6649754
11
6.7816244
21
6.7322754
0
LINE
8
DEFAULT_255_2_778
10
6.7816244
20
6.7322754
11
6.7816244
21
6.4668754
0
LINE
8
DEFAULT_255_2_778
10
6.7816244
20
6.4668754
11
6.9240244
21
6.5938754
0
LINE
8
DEFAULT_255_2_778
10
7.1296244
20
6.4289754
11
6.8642244
21
6.2879754
0
LINE
8
DEFAULT_255_2_778
10
6.8642244
20
6.2879754
11
6.6734244
21
6.3628754
0
LINE
8
DEFAULT_255_2_778
10
6.6734244
20
6.3628754
11
6.9161244
21
6.4639754
0
LINE
8
DEFAULT_255_2_778
10
6.9161244
20
6.4639754
11
7.1296244
21
6.4289754
0
ARC
8
DEFAULT_255_2_778
10
5.5709439
20
10.4502912
40
0.0952773
50
286.2444444
51
296.9930846
0
ARC
8
DEFAULT_255_2_778
10
4.6960775
20
12.3692022
40
2.2041276
50
294.6164468
51
296.1408943
0
ARC
8
DEFAULT_255_2_778
10
3.2544978
20
15.3488074
40
5.5141215
50
295.9473229
51
296.0481313
0
ARC
8
DEFAULT_255_2_778
10
3.6558495
20
14.5291564
40
4.6014823
50
296.0399813
51
296.0821435
0
ARC
8
DEFAULT_255_2_778
10
1.7662738
20
18.383824
40
8.8943783
50
296.097667
51
296.4722019
0
ARC
8
DEFAULT_255_2_778
10
1.6140728
20
18.6951153
40
9.2408771
50
296.4565798
51
296.6073464
0
ARC
8
DEFAULT_255_2_778
10
3.0377975
20
15.8488746
40
6.0584137
50
296.6244522
51
296.6421992
0
ARC
8
DEFAULT_255_2_778
10
5.8872632
20
7.5924745
40
0.0011334
50
34.5739546
51
103.7088327
0
ARC
8
DEFAULT_255_2_778
10
5.8861349
20
7.5812497
40
0.0123559
50
86.0102338
51
90.2758712
0
ARC
8
DEFAULT_255_2_778
10
5.8988239
20
7.4004317
40
0.193594
50
93.7757555
51
100.656785
0
ARC
8
DEFAULT_255_2_778
10
6.1993063
20
5.5928204
40
2.0259704
50
99.5545242
51
101.058789
0
ARC
8
DEFAULT_255_2_778
10
7.5182812
20
-1.2046971
40
8.9502697
50
100.9986741
51
101.760548
0
ARC
8
DEFAULT_255_2_778
10
8.1292306
20
-4.2105471
40
12.0175546
50
101.6912544
51
101.7108418
0
ARC
8
DEFAULT_255_2_778
10
9.3340689
20
-10.0247312
40
17.9552623
50
101.7096896
51
101.751182
0
ARC
8
DEFAULT_255_2_778
10
10.3303849
20
-14.7898877
40
22.8234594
50
101.7636172
51
102.0209083
0
ARC
8
DEFAULT_255_2_778
10
11.2598522
20
-19.1713752
40
27.3024473
50
102.0136877
51
102.1323422
0
ARC
8
DEFAULT_255_2_778
10
10.1929397
20
-14.2097005
40
22.2273592
50
102.1316069
51
102.1894702
0
ARC
8
DEFAULT_255_2_778
10
8.0518106
20
-4.2979133
40
12.086947
50
102.189324
51
102.2278519
0
LINE
8
DEFAULT_255_2_778
10
6.6374964
20
6.1607177
11
6.8990964
21
6.1607177
0
LINE
8
DEFAULT_255_2_778
10
6.8990964
20
6.1607177
11
7.3401964
21
6.1755177
0
LINE
8
DEFAULT_255_2_778
10
7.3401964
20
6.1755177
11
6.9366964
21
6.0636177
0
LINE
8
DEFAULT_255_2_778
10
6.9366964
20
6.0636177
11
6.8247964
21
5.2971177
0
LINE
8
DEFAULT_255_2_778
10
6.8247964
20
5.2971177
11
6.6374964
21
6.1607177
0
LINE
8
DEFAULT_255_2_778
10
5.3883964
20
9.5473177
11
4.9244964
21
9.4127177
0
LINE
8
DEFAULT_255_2_778
10
4.9244964
20
9.4127177
11
5.1152964
21
9.2716177
0
LINE
8
DEFAULT_255_2_778
10
5.1152964
20
9.2716177
11
5.3883964
21
9.4325177
0
LINE
8
DEFAULT_255_2_778
10
5.3883964
20
9.4325177
11
5.7325964
21
9.4325177
0
LINE
8
DEFAULT_255_2_778
10
5.7325964
20
9.4325177
11
5.9569964
21
9.5444177
0
LINE
8
DEFAULT_255_2_778
10
5.9569964
20
9.5444177
11
5.6804964
21
9.5444177
0
LINE
8
DEFAULT_255_2_778
10
5.6804964
20
9.5444177
11
5.3883964
21
9.5473177
0
LINE
8
DEFAULT_255_2_778
10
5.5568964
20
9.8238177
11
5.5981964
21
9.7717177
0
LINE
8
DEFAULT_255_2_778
10
5.5981964
20
9.7717177
11
5.2618964
21
9.7153177
0
LINE
8
DEFAULT_255_2_778
10
5.2618964
20
9.7153177
11
5.3330964
21
9.8799177
0
LINE
8
DEFAULT_255_2_778
10
5.3330964
20
9.8799177
11
5.5568964
21
9.8238177
0
LINE
8
DEFAULT_255_2_778
10
5.4891964
20
10.3850177
11
5.5975964
21
10.3588177
0
LINE
8
DEFAULT_255_2_778
10
5.7544964
20
10.4337177
11
5.5975964
21
10.4522177
0
LINE
8
DEFAULT_255_2_778
10
5.5975964
20
10.4522177
11
5.4891964
21
10.3850177
0
LINE
8
DEFAULT_255_2_778
10
4.8464964
20
10.6975177
11
5.0372964
21
10.4435177
0
LINE
8
DEFAULT_255_2_778
10
5.0372964
20
10.4435177
11
5.1157964
21
10.4734177
0
LINE
8
DEFAULT_255_2_778
10
5.1157964
20
10.4734177
11
5.5568964
21
10.5072177
0
LINE
8
DEFAULT_255_2_778
10
5.5568964
20
10.5072177
11
5.7137964
21
10.5932177
0
LINE
8
DEFAULT_255_2_778
10
5.7137964
20
10.5932177
11
5.8267964
21
10.7615177
0
LINE
8
DEFAULT_255_2_778
10
5.8267964
20
10.7615177
11
5.2583964
21
10.6194177
0
LINE
8
DEFAULT_255_2_778
10
5.2583964
20
10.6194177
11
4.8464964
21
10.6975177
0
LINE
8
DEFAULT_255_2_778
10
6.7194964
20
8.1501177
11
6.6347964
21
7.4508177
0
LINE
8
DEFAULT_255_2_778
10
6.6347964
20
7.4508177
11
6.9861964
21
7.5439177
0
LINE
8
DEFAULT_255_2_778
10
6.9861964
20
7.5439177
11
6.9861964
21
8.2138177
0
LINE
8
DEFAULT_255_2_778
10
6.9861964
20
8.2138177
11
7.4946964
21
8.3747177
0
LINE
8
DEFAULT_255_2_778
10
7.4946964
20
8.3747177
11
6.7842964
21
8.7078177
0
LINE
8
DEFAULT_255_2_778
10
6.7842964
20
8.7078177
11
6.7194964
21
8.1501177
0
LINE
8
DEFAULT_255_2_778
10
5.7698964
20
7.6900177
11
5.5790964
21
7.7910177
0
LINE
8
DEFAULT_255_2_778
10
5.5790964
20
7.7910177
11
5.1152964
21
7.7347177
0
LINE
8
DEFAULT_255_2_778
10
5.1152964
20
7.7347177
11
5.6311964
21
8.0188177
0
LINE
8
DEFAULT_255_2_778
10
5.6311964
20
8.0188177
11
5.6796964
21
7.8992177
0
LINE
8
DEFAULT_255_2_778
10
5.6796964
20
7.8992177
11
6.1735964
21
7.8768177
0
LINE
8
DEFAULT_255_2_778
10
6.1735964
20
7.8768177
11
5.7698964
21
7.6900177
0
LINE
8
DEFAULT_255_2_778
10
5.6801964
20
7.3568177
11
5.9267964
21
7.4090177
0
LINE
8
DEFAULT_255_2_778
10
5.9267964
20
7.4090177
11
5.8034964
21
7.4801177
0
LINE
8
DEFAULT_255_2_778
10
5.8034964
20
7.4801177
11
5.8881964
21
7.5931177
0
LINE
8
DEFAULT_255_2_778
10
5.4917964
20
7.5148177
11
5.3385964
21
7.3952177
0
LINE
8
DEFAULT_255_2_778
10
5.3385964
20
7.3952177
11
5.6801964
21
7.3568177
0
LINE
8
DEFAULT_255_2_778
10
5.7806964
20
7.1103177
11
5.8852964
21
7.1103177
0
LINE
8
DEFAULT_255_2_778
10
5.8852964
20
7.1103177
11
5.7320964
21
7.2074177
0
LINE
8
DEFAULT_255_2_778
10
5.7320964
20
7.2074177
11
5.4441964
21
7.1103177
0
LINE
8
DEFAULT_255_2_778
10
5.4441964
20
7.1103177
11
5.7806964
21
7.1103177
0
ARC
8
DEFAULT_255_2_778
10
5.5425438
20
3.1280903
40
0.5549795
50
344.3977627
51
347.2636003
0
ARC
8
DEFAULT_255_2_778
10
5.2074171
20
3.2074045
40
0.8993531
50
347.041985
51
349.5598726
0
ARC
8
DEFAULT_255_2_778
10
5.1573374
20
3.21714
40
0.950368
50
349.5297572
51
349.6272141
0
ARC
8
DEFAULT_255_2_778
10
25.1284109
20
1.7308686
40
19.1154064
50
173.9841715
51
174.5654933
0
ARC
8
DEFAULT_255_2_778
10
15.5341509
20
2.6347791
40
9.4786682
50
174.5122728
51
175.8681684
0
ARC
8
DEFAULT_255_2_778
10
10.1006421
20
3.0228785
40
4.0313207
50
175.8056017
51
178.2182151
0
ARC
8
DEFAULT_255_2_778
10
8.0838899
20
3.0910155
40
2.0134324
50
178.3718
51
179.9395246
0
ARC
8
DEFAULT_255_2_778
10
7.2151976
20
3.0897168
40
1.1447441
50
179.8286325
51
182.9918509
0
ARC
8
DEFAULT_255_2_778
10
6.5930481
20
3.055882
40
0.5216783
50
182.8472883
51
188.1579244
0
ARC
8
DEFAULT_255_2_778
10
6.3865372
20
3.0286468
40
0.3134012
50
188.5865876
51
189.0917528
0
ARC
8
DEFAULT_255_2_778
10
10.3639255
20
7.8787559
40
1.003935
50
207.2843579
51
214.832825
0
ARC
8
DEFAULT_255_2_778
10
11.1335607
20
8.2785835
40
1.8712279
50
201.9351987
51
207.3620571
0
ARC
8
DEFAULT_255_2_778
10
12.7340501
20
8.9167191
40
3.5942384
50
196.677001
51
201.8405698
0
ARC
8
DEFAULT_255_2_778
10
14.9809114
20
9.6083453
40
5.9450983
50
194.2129467
51
196.8479661
0
ARC
8
DEFAULT_255_2_778
10
16.4218178
20
9.980037
40
7.4331613
50
192.8572151
51
194.2633081
0
ARC
8
DEFAULT_255_2_778
10
16.7696051
20
10.0609986
40
7.7902448
50
192.0246125
51
192.8685516
0
ARC
8
DEFAULT_255_2_778
10
16.3389179
20
9.9694757
40
7.3499403
50
191.4830835
51
192.0262583
0
ARC
8
DEFAULT_255_2_778
10
15.094436
20
9.7177433
40
6.080254
50
190.8753738
51
191.4930359
0
ARC
8
DEFAULT_255_2_778
10
13.0144577
20
9.317776
40
3.9621692
50
190.5201809
51
190.8703512
0
ARC
8
DEFAULT_255_2_778
10
10.7482883
20
8.8974488
40
1.6573487
50
190.2468346
51
190.5374525
0
ARC
8
DEFAULT_255_2_778
10
7.2965478
20
10.3619818
40
1.6796908
50
307.2167344
51
310.3679639
0
ARC
8
DEFAULT_255_2_778
10
7.3446653
20
10.2987025
40
1.6001952
50
304.0601859
51
307.215115
0
ARC
8
DEFAULT_255_2_778
10
7.3650677
20
10.269128
40
1.5642676
50
303.5965148
51
304.0477784
0
ARC
8
DEFAULT_255_2_778
10
7.404759
20
10.206564
40
1.4901928
50
295.1871586
51
303.6564239
0
ARC
8
DEFAULT_255_2_778
10
7.437579
20
10.1381755
40
1.4143392
50
286.0459176
51
295.1630533
0
ARC
8
DEFAULT_255_2_778
10
7.4384581
20
10.1375431
40
1.4134885
50
277.2341459
51
286.0187584
0
ARC
8
DEFAULT_255_2_778
10
7.4323731
20
10.1865783
40
1.4628996
50
269.9751695
51
277.2287335
0
ARC
8
DEFAULT_255_2_778
10
7.4321098
20
10.2417765
40
1.5180976
50
264.6772816
51
269.9860092
0
ARC
8
DEFAULT_255_2_778
10
7.4346399
20
10.2712976
40
1.5477262
50
260.3567692
51
264.6854026
0
ARC
8
DEFAULT_255_2_778
10
7.4322161
20
10.2582162
40
1.5344235
50
256.8632069
51
260.364174
0
ARC
8
DEFAULT_255_2_778
10
7.4204548
20
10.2074575
40
1.4823202
50
254.9469918
51
256.8600076
0
ARC
8
DEFAULT_255_2_778
10
7.3949117
20
10.1139529
40
1.3853904
50
252.3116268
51
254.9628029
0
ARC
8
DEFAULT_255_2_778
10
7.3426442
20
9.9499761
40
1.2132848
50
250.3427492
51
252.310388
0
ARC
8
DEFAULT_255_2_778
10
7.2598568
20
9.719324
40
0.9682257
50
248.3463001
51
250.3648233
0
ARC
8
DEFAULT_255_2_778
10
7.1375619
20
9.4114758
40
0.6369758
50
246.813834
51
248.3525902
0
ARC
8
DEFAULT_255_2_778
10
6.9899812
20
9.0677461
40
0.2629036
50
245.5997553
51
246.8851998
0
ARC
8
DEFAULT_255_2_778
10
6.4930924
20
12.0043706
40
0.0653776
50
232.8867234
51
262.6895706
0
ARC
8
DEFAULT_255_2_778
10
6.6722467
20
12.2776224
40
0.3919998
50
227.4172365
51
236.1058455
0
ARC
8
DEFAULT_255_2_778
10
7.2226988
20
12.8923096
40
1.2171067
50
224.0148873
51
227.9177773
0
ARC
8
DEFAULT_255_2_778
10
8.5948994
20
14.2172132
40
3.1245404
50
221.031252
51
224.002961
0
ARC
8
DEFAULT_255_2_778
10
9.5907526
20
15.104412
40
4.458211
50
221.1595839
51
221.2306036
0
ARC
8
DEFAULT_255_2_778
10
10.3504103
20
15.7673287
40
5.4664459
50
220.5142208
51
221.1503709
0
ARC
8
DEFAULT_255_2_778
10
11.7600865
20
16.9682018
40
7.3182767
50
219.4545276
51
220.4921425
0
ARC
8
DEFAULT_255_2_778
10
13.1254438
20
18.0958886
40
9.0891156
50
218.9178047
51
219.4739576
0
ARC
8
DEFAULT_255_2_778
10
13.3482008
20
18.2769468
40
9.376173
50
218.4429296
51
218.9235179
0
ARC
8
DEFAULT_255_2_778
10
11.9721174
20
17.1853824
40
7.6197227
50
218.1294803
51
218.4475564
0
ARC
8
DEFAULT_255_2_778
10
8.9501377
20
14.8142446
40
3.7785438
50
217.908967
51
218.1403211
0
ARC
8
DEFAULT_255_2_778
10
5.9715146
20
14.4311393
40
1.9384167
50
266.4491136
51
269.9219317
0
ARC
8
DEFAULT_255_2_778
10
6.0339171
20
15.2940163
40
2.8035161
50
260.4095955
51
266.2684412
0
ARC
8
DEFAULT_255_2_778
10
6.1717341
20
16.1715027
40
3.6917138
50
258.1681723
51
260.5694767
0
ARC
8
DEFAULT_255_2_778
10
6.2243327
20
16.429163
40
3.9546848
50
256.5916268
51
258.1877244
0
ARC
8
DEFAULT_255_2_778
10
6.1891681
20
16.2831386
40
3.8044862
50
255.5825034
51
256.5968144
0
ARC
8
DEFAULT_255_2_778
10
6.0562835
20
15.7686923
40
3.2731551
50
254.6035769
51
255.5931819
0
ARC
8
DEFAULT_255_2_778
10
5.7964892
20
14.8260705
40
2.2953879
50
253.8858844
51
254.6087808
0
ARC
8
DEFAULT_255_2_778
10
5.4331396
20
13.5705568
40
0.9883544
50
253.3331614
51
253.9209234
0
ARC
8
DEFAULT_255_2_778
10
3.486695
20
9.090552
40
1.0180582
50
303.4362431
51
311.035219
0
ARC
8
DEFAULT_255_2_778
10
3.0004173
20
9.821458
40
1.8959445
50
298.1869719
51
303.5288051
0
ARC
8
DEFAULT_255_2_778
10
2.1973373
20
11.332302
40
3.6069585
50
292.9908266
51
298.0947727
0
ARC
8
DEFAULT_255_2_778
10
1.2920017
20
13.4214549
40
5.8837998
50
290.5931158
51
293.1605899
0
ARC
8
DEFAULT_255_2_778
10
0.7986609
20
14.7174553
40
7.2705131
50
289.2593877
51
290.6402105
0
ARC
8
DEFAULT_255_2_778
10
0.6986865
20
14.9994047
40
7.5696593
50
288.4374445
51
289.2698305
0
ARC
8
DEFAULT_255_2_778
10
0.843877
20
14.5633514
40
7.1100697
50
287.9014574
51
288.4388335
0
ARC
8
DEFAULT_255_2_778
10
1.2272709
20
13.3729995
40
5.8594989
50
287.2991279
51
287.9118115
0
ARC
8
DEFAULT_255_2_778
10
1.8419423
20
11.4003857
40
3.7933367
50
286.9454641
51
287.2947502
0
ARC
8
DEFAULT_255_2_778
10
2.4840508
20
9.2912298
40
1.5886051
50
286.6744067
51
286.9637688
0
ARC
8
DEFAULT_255_2_778
10
0.8935717
20
10.4463821
40
3.0041432
50
288.7989833
51
294.3429845
0
ARC
8
DEFAULT_255_2_778
10
0.9253957
20
10.3494091
40
2.9020883
50
284.7345356
51
288.8211552
0
ARC
8
DEFAULT_255_2_778
10
1.0224094
20
9.9768945
40
2.5171497
50
281.5482959
51
284.7555313
0
ARC
8
DEFAULT_255_2_778
10
1.1617
20
9.2911886
40
1.8174401
50
279.0927874
51
281.5736203
0
ARC
8
DEFAULT_255_2_778
10
1.3196371
20
8.2948971
40
0.8087102
50
277.2346404
51
279.1987208
0
ARC
8
DEFAULT_255_2_778
10
7.6379197
20
0.5852348
40
0.8980138
50
111.1848439
51
125.7407235
0
ARC
8
DEFAULT_255_2_778
10
7.8910738
20
-0.0561421
40
1.5875363
50
101.4665373
51
111.3388181
0
ARC
8
DEFAULT_255_2_778
10
8.0762686
20
-0.9221862
40
2.4731284
50
95.8282995
51
101.6827526
0
ARC
8
DEFAULT_255_2_778
10
8.1431187
20
-1.5138754
40
3.0685542
50
93.3014701
51
95.9481707
0
ARC
8
DEFAULT_255_2_778
10
8.1545691
20
-1.6950087
40
3.2500464
50
91.5198085
51
93.3190994
0
ARC
8
DEFAULT_255_2_778
10
8.1517807
20
-1.5685572
40
3.1235656
50
90.0142336
51
91.5301983
0
ARC
8
DEFAULT_255_2_778
10
8.1512536
20
-1.2359973
40
2.7910056
50
89.3953558
51
90.0051098
0
ARC
8
DEFAULT_255_2_778
10
8.1543218
20
-0.9407036
40
2.495696
50
88.9188791
51
89.3942503
0
ARC
8
DEFAULT_255_2_778
10
8.1614546
20
-0.5671968
40
2.1221212
50
88.4685731
51
88.9211509
0
ARC
8
DEFAULT_255_2_778
10
8.1721389
20
-0.1687507
40
1.7235319
50
88.1238198
51
88.4696338
0
ARC
8
DEFAULT_255_2_778
10
8.1879829
20
0.3063372
40
1.24818
50
87.7068547
51
88.1367309
0
ARC
8
DEFAULT_255_2_778
10
8.2134853
20
0.9382957
40
0.6157072
50
87.337118
51
87.725088
0
ARC
8
DEFAULT_255_2_778
10
8.2723841
20
2.1807585
40
0.6281514
50
267.2357654
51
267.2615902
0
ARC
8
DEFAULT_255_2_778
10
8.2844811
20
1.5572467
40
0.04229
50
179.8836069
51
185.3216655
0
ARC
8
DEFAULT_255_2_778
10
8.3638177
20
1.549671
40
0.1218675
50
156.3340579
51
176.3955367
0
ARC
8
DEFAULT_255_2_778
10
8.7308916
20
1.4033203
40
0.5169878
50
150.0631849
51
157.8084223
0
ARC
8
DEFAULT_255_2_778
10
9.5451337
20
0.9436918
40
1.4519882
50
146.3349149
51
150.3804461
0
ARC
8
DEFAULT_255_2_778
10
11.2307143
20
-0.1771553
40
3.4762112
50
143.4281319
51
146.3597726
0
ARC
8
DEFAULT_255_2_778
10
12.7386766
20
-1.2755922
40
5.3417783
50
143.3160101
51
143.6032269
0
ARC
8
DEFAULT_255_2_778
10
13.4607227
20
-1.8149685
40
6.2430419
50
142.6132477
51
143.3050173
0
ARC
8
DEFAULT_255_2_778
10
15.0383994
20
-3.024174
40
8.2308134
50
141.5206633
51
142.5935654
0
ARC
8
DEFAULT_255_2_778
10
16.4417018
20
-4.1354056
40
10.0208091
50
140.9566106
51
141.5393709
0
ARC
8
DEFAULT_255_2_778
10
16.681546
20
-4.3289936
40
10.3290316
50
140.6069537
51
140.9606384
0
ARC
8
DEFAULT_255_2_778
10
15.933596
20
-3.7140381
40
9.3607347
50
140.2772644
51
140.610428
0
ARC
8
DEFAULT_255_2_778
10
13.9884254
20
-2.0974758
40
6.831513
50
140.0423262
51
140.2794979
0
ARC
8
DEFAULT_255_2_778
10
11.1017406
20
0.3218111
40
3.0650958
50
139.8654693
51
140.0523907
0
ARC
8
DEFAULT_255_2_778
10
9.600643
20
3.5597573
40
0.9895933
50
149.2414555
51
163.8976867
0
ARC
8
DEFAULT_255_2_778
10
10.2423714
20
3.1811344
40
1.734688
50
138.9623335
51
149.3349762
0
ARC
8
DEFAULT_255_2_778
10
11.3109318
20
2.2464239
40
3.1543706
50
130.0588431
51
138.8994328
0
ARC
8
DEFAULT_255_2_778
10
12.2968318
20
1.1147051
40
4.6551436
50
127.0432963
51
130.381897
0
ARC
8
DEFAULT_255_2_778
10
12.7082558
20
0.5753531
40
5.3334945
50
125.0596141
51
127.0806274
0
ARC
8
DEFAULT_255_2_778
10
12.7797691
20
0.4753681
40
5.4564172
50
123.5815453
51
125.0712004
0
ARC
8
DEFAULT_255_2_778
10
12.5839571
20
0.7707447
40
5.102031
50
122.619699
51
123.5843389
0
ARC
8
DEFAULT_255_2_778
10
12.1476165
20
1.453957
40
4.2913699
50
121.6745516
51
122.6300777
0
ARC
8
DEFAULT_255_2_778
10
11.4451657
20
2.5928428
40
2.9532749
50
120.9718244
51
121.6785281
0
ARC
8
DEFAULT_255_2_778
10
10.5743799
20
4.0451105
40
1.2599505
50
120.4278943
51
121.0050801
0
ARC
8
DEFAULT_255_2_778
10
10.9783329
20
5.325834
40
1.0600208
50
184.3820569
51
190.5624591
0
ARC
8
DEFAULT_255_2_778
10
11.4482035
20
5.3632975
40
1.5313812
50
179.8769823
51
184.4364099
0
ARC
8
DEFAULT_255_2_778
10
12.1645378
20
5.3593941
40
2.2477234
50
174.9521925
51
179.8166865
0
ARC
8
DEFAULT_255_2_778
10
12.6267702
20
5.3260467
40
2.7111075
50
174.9778889
51
175.1096891
0
ARC
8
DEFAULT_255_2_778
10
13.391266
20
5.247735
40
3.4795414
50
170.1525234
51
174.7953259
0
ARC
8
DEFAULT_255_2_778
10
14.4133206
20
5.0798938
40
4.5152528
50
168.4222789
51
170.2721785
0
ARC
8
DEFAULT_255_2_778
10
14.7016523
20
5.0223294
40
4.8092709
50
168.2066448
51
168.4398418
0
ARC
8
DEFAULT_255_2_778
10
14.8497893
20
4.9910058
40
4.960683
50
166.7405108
51
168.2021884
0
ARC
8
DEFAULT_255_2_778
10
14.7555407
20
5.0137863
40
4.863722
50
165.7868145
51
166.7470637
0
ARC
8
DEFAULT_255_2_778
10
14.3094691
20
5.1267758
40
4.4035627
50
165.1517123
51
165.7868997
0
ARC
8
DEFAULT_255_2_778
10
13.5346041
20
5.3326745
40
3.6018084
50
164.5176031
51
165.1589668
0
ARC
8
DEFAULT_255_2_778
10
12.4000556
20
5.6470425
40
2.4245117
50
164.0388209
51
164.5199976
0
ARC
8
DEFAULT_255_2_778
10
11.0587614
20
6.0310373
40
1.0293337
50
163.6659301
51
164.0585285
0
ARC
8
DEFAULT_255_2_778
10
8.7746449
20
6.0753846
40
0.241155
50
232.9879854
51
247.9145865
0
ARC
8
DEFAULT_255_2_778
10
8.992333
20
6.3731555
40
0.6099964
50
225.505521
51
233.4977358
0
ARC
8
DEFAULT_255_2_778
10
9.4805258
20
6.8756653
40
1.3105971
50
220.6489846
51
225.6778765
0
ARC
8
DEFAULT_255_2_778
10
10.434999
20
7.6976193
40
2.5702105
50
216.9685447
51
220.690507
0
ARC
8
DEFAULT_255_2_778
10
11.5719967
20
8.5687439
40
4.0025251
50
217.1038884
51
217.1436892
0
ARC
8
DEFAULT_255_2_778
10
12.0347492
20
8.9068971
40
4.575595
50
214.4606959
51
216.9853132
0
ARC
8
DEFAULT_255_2_778
10
13.9378134
20
10.2188582
40
6.8870621
50
212.7663922
51
214.5014585
0
ARC
8
DEFAULT_255_2_778
10
15.2594218
20
11.074966
40
8.4617213
50
211.8609105
51
212.7976285
0
ARC
8
DEFAULT_255_2_778
10
15.5249435
20
11.2411979
40
8.7749845
50
211.3014768
51
211.8676226
0
ARC
8
DEFAULT_255_2_778
10
14.83991
20
10.8255862
40
7.9737335
50
210.7744779
51
211.3071217
0
ARC
8
DEFAULT_255_2_778
10
13.0300153
20
9.7481399
40
5.8674074
50
210.4010875
51
210.7776247
0
ARC
8
DEFAULT_255_2_778
10
10.2626144
20
8.1252685
40
2.6592587
50
210.1223492
51
210.4163937
0
ARC
8
DEFAULT_255_2_778
10
7.5867586
20
7.7722678
40
0.2230269
50
283.6932638
51
296.4141185
0
ARC
8
DEFAULT_255_2_778
10
7.4350067
20
8.3460833
40
0.8165386
50
279.0895881
51
284.5074539
0
ARC
8
DEFAULT_255_2_778
10
7.2287285
20
9.5922743
40
2.0796793
50
276.2636153
51
279.2773797
0
ARC
8
DEFAULT_255_2_778
10
6.9278646
20
12.3562519
40
4.859983
50
273.7389629
51
276.2342522
0
ARC
8
DEFAULT_255_2_778
10
6.6540718
20
16.2842426
40
8.7974839
50
272.748162
51
273.8500846
0
ARC
8
DEFAULT_255_2_778
10
6.530661
20
18.7608851
40
11.2771959
50
272.1928649
51
272.7711448
0
ARC
8
DEFAULT_255_2_778
10
6.5035128
20
19.4431437
40
11.9599936
50
271.8533341
51
272.197765
0
ARC
8
DEFAULT_255_2_778
10
6.5320004
20
18.5414345
40
11.057835
50
271.5366392
51
271.8569071
0
ARC
8
DEFAULT_255_2_778
10
6.6076364
20
15.7102062
40
8.2255967
50
271.3138392
51
271.5388264
0
ARC
8
DEFAULT_255_2_778
10
6.709163
20
11.253546
40
3.7677804
50
271.1498678
51
271.32427
0
ARC
8
DEFAULT_255_2_778
10
7.1058726
20
9.8658246
40
1.5380586
50
260.218639
51
269.9911249
0
ARC
8
DEFAULT_255_2_778
10
7.1056343
20
9.8196324
40
1.4918664
50
270.0000001
51
270.1453438
0
ARC
8
DEFAULT_255_2_778
10
7.1059096
20
9.8487007
40
1.5209341
50
270.1321966
51
280.6416238
0
ARC
8
DEFAULT_255_2_778
10
7.0120637
20
10.1366261
40
1.8216566
50
281.8703191
51
284.3746352
0
ARC
8
DEFAULT_255_2_778
10
7.0154418
20
10.1231832
40
1.8077958
50
284.3766966
51
284.7100249
0
ARC
8
DEFAULT_255_2_778
10
7.0434592
20
10.0211234
40
1.7019671
50
284.6701885
51
288.3415653
0
ARC
8
DEFAULT_255_2_778
10
7.1729642
20
9.6322325
40
1.2920802
50
288.3172089
51
290.8597265
0
ARC
8
DEFAULT_255_2_778
10
7.4215455
20
8.983129
40
0.5970081
50
290.7489329
51
292.7144496
0
ARC
8
DEFAULT_255_2_778
10
5.6218627
20
3.0971681
40
0.4735203
50
344.2360276
51
347.2578652
0
ARC
8
DEFAULT_255_2_778
10
5.3234319
20
3.167945
40
0.7802191
50
347.0220758
51
349.5976637
0
ARC
8
DEFAULT_255_2_778
10
5.2760292
20
3.1770749
40
0.8284913
50
349.5685571
51
350.1766026
0
ARC
8
DEFAULT_255_2_778
10
20.4426787
20
-0.5620704
40
14.7944377
50
165.6346808
51
165.9253639
0
ARC
8
DEFAULT_255_2_778
10
17.129055
20
0.2873933
40
11.3736643
50
165.0031527
51
165.6386209
0
ARC
8
DEFAULT_255_2_778
10
14.0870413
20
1.1066178
40
8.2232752
50
163.7242174
51
165.0320838
0
ARC
8
DEFAULT_255_2_778
10
10.8450883
20
2.0566164
40
4.8450007
50
161.7333862
51
163.7636372
0
ARC
8
DEFAULT_255_2_778
10
9.1162216
20
2.6217985
40
3.0261089
50
160.6152763
51
161.6350638
0
ARC
8
DEFAULT_255_2_778
10
8.0805965
20
2.9901643
40
1.9269317
50
157.9687284
51
160.7267661
0
ARC
8
DEFAULT_255_2_778
10
7.2038122
20
3.3454732
40
0.98089
50
154.3101654
51
157.9962539
0
ARC
8
DEFAULT_255_2_778
10
6.8525545
20
3.5121952
40
0.5920825
50
152.3322991
51
154.1139369
0
ARC
8
DEFAULT_255_2_778
10
7.2033489
20
4.233986
40
0.9826583
50
207.0487003
51
207.9050306
0
ARC
8
DEFAULT_255_2_778
10
8.0226785
20
4.6662544
40
1.9090253
50
207.8616274
51
209.3117038
0
ARC
8
DEFAULT_255_2_778
10
8.0471257
20
4.6775367
40
1.935867
50
209.2486458
51
212.1642279
0
ARC
8
DEFAULT_255_2_778
10
7.7064845
20
4.465065
40
1.5343974
50
212.2193756
51
213.6158087
0
ARC
8
DEFAULT_255_2_778
10
7.1780558
20
4.1029066
40
0.8938857
50
213.0360557
51
221.6142983
0
ARC
8
DEFAULT_255_2_778
10
6.8756665
20
3.844697
40
0.4963904
50
222.5117364
51
222.97202
0
ARC
8
DEFAULT_255_2_778
10
6.7526784
20
3.7252692
40
0.325014
50
222.3461845
51
232.4198144
0
ARC
8
DEFAULT_255_2_778
10
6.6444804
20
3.5851586
40
0.1479898
50
232.5350292
51
245.100876
0
ARC
8
DEFAULT_255_2_778
10
7.8148204
20
3.6412569
40
1.2472549
50
188.5387538
51
188.777695
0
ARC
8
DEFAULT_255_2_778
10
9.8654111
20
3.9494778
40
3.3208805
50
188.1687267
51
188.5445537
0
ARC
8
DEFAULT_255_2_778
10
11.7116706
20
4.2149572
40
5.1861293
50
187.7203351
51
188.173734
0
ARC
8
DEFAULT_255_2_778
10
12.8505487
20
4.3700215
40
6.3355152
50
187.3511057
51
187.7263431
0
ARC
8
DEFAULT_255_2_778
10
13.5917739
20
4.4654889
40
7.0828632
50
186.7237205
51
187.3498391
0
ARC
8
DEFAULT_255_2_778
10
13.9395899
20
4.5068621
40
7.433131
50
186.0094525
51
186.7265398
0
ARC
8
DEFAULT_255_2_778
10
13.7916549
20
4.4917547
40
7.2844272
50
185.0588959
51
186.0130965
0
ARC
8
DEFAULT_255_2_778
10
13.1672453
20
4.437396
40
6.6576568
50
183.7673025
51
185.0667561
0
ARC
8
DEFAULT_255_2_778
10
11.7810081
20
4.3519505
40
5.268804
50
180.8926953
51
183.8306041
0
ARC
8
DEFAULT_255_2_778
10
10.6480002
20
4.3276271
40
4.13556
50
180.0066554
51
180.8003085
0
ARC
8
DEFAULT_255_2_778
10
9.5326509
20
4.3378701
40
3.0202298
50
175.3785467
51
180.2034302
0
ARC
8
DEFAULT_255_2_778
10
8.2446553
20
4.4414566
40
1.7280756
50
169.7559622
51
175.3610781
0
ARC
8
DEFAULT_255_2_778
10
7.5082378
20
4.5757506
40
0.979515
50
162.1726369
51
169.825451
0
ARC
8
DEFAULT_255_2_778
10
7.2280579
20
4.6609109
40
0.6867327
50
160.1387037
51
161.7800065
0
ARC
8
DEFAULT_255_2_778
10
1.387625
20
3.5139959
40
6.1890214
50
345.2601994
51
345.8456457
0
ARC
8
DEFAULT_255_2_778
10
1.2755825
20
3.5429457
40
6.3047418
50
345.8395332
51
346.294343
0
ARC
8
DEFAULT_255_2_778
10
3.3971643
20
3.0356983
40
4.123398
50
346.1571806
51
348.2913546
0
ARC
8
DEFAULT_255_2_778
10
6.3802161
20
2.4210884
40
1.0776968
50
348.1029111
51
352.0116775
0
ARC
8
DEFAULT_255_2_778
10
7.2511928
20
2.2991495
40
0.1982259
50
351.9292896
51
358.7693942
0
ARC
8
DEFAULT_255_2_778
10
7.4223224
20
2.2963512
40
0.0270899
50
356.9127917
51
16.982901
0
ARC
8
DEFAULT_255_2_778
10
7.4457541
20
2.3036956
40
0.002541
50
12.9196173
51
83.716019
0
ARC
8
DEFAULT_255_2_778
10
7.4462525
20
2.302807
40
0.0034215
50
93.6907384
51
127.419326
0
ARC
8
DEFAULT_255_2_778
10
7.4735612
20
2.2692766
40
0.0466642
50
129.0332727
51
141.2681243
0
ARC
8
DEFAULT_255_2_778
10
7.9980731
20
1.8148432
40
0.7406229
50
139.2314893
51
141.8259166
0
ARC
8
DEFAULT_255_2_778
10
10.4231112
20
-0.1114999
40
3.8376475
50
141.5935026
51
142.5375058
0
ARC
8
DEFAULT_255_2_778
10
16.099387
20
-4.4745048
40
10.9969687
50
142.4823137
51
142.906258
0
ARC
8
DEFAULT_255_2_778
10
24.7857403
20
-11.0496734
40
21.8912588
50
142.8911795
51
143.1174836
0
ARC
8
DEFAULT_255_2_778
10
39.7982151
20
-22.3111603
40
40.6581309
50
143.1209059
51
143.340529
0
ARC
8
DEFAULT_255_2_778
10
63.99755
20
-40.3312709
40
70.8298421
50
143.3346262
51
143.4629234
0
ARC
8
DEFAULT_255_2_778
10
100.8919028
20
-67.6645344
40
116.7460763
50
143.4645347
51
143.593194
0
ARC
8
DEFAULT_255_2_778
10
155.1961649
20
-107.7195956
40
184.2246711
50
143.5910543
51
143.6774504
0
LINE
8
DEFAULT_255_2_778
10
6.7672271
20
1.4022623
11
6.7591164
21
1.3912304
0
ARC
8
DEFAULT_255_2_778
10
230.2119944
20
-162.8628986
40
277.3276177
50
143.6814062
51
143.7671385
0
ARC
8
DEFAULT_255_2_778
10
288.4035256
20
-205.5192866
40
349.4789976
50
143.7651085
51
143.8002897
0
ARC
8
DEFAULT_255_2_778
10
309.9423992
20
-221.2851148
40
376.1714013
50
143.8000534
51
143.8237197
0
ARC
8
DEFAULT_255_2_778
10
307.3363352
20
-219.3800125
40
372.9432464
50
143.8236463
51
143.8443526
0
ARC
8
DEFAULT_255_2_778
10
280.4573218
20
-199.7400948
40
339.6534923
50
143.8442693
51
143.8593121
0
ARC
8
DEFAULT_255_2_778
10
246.5129986
20
-174.9520584
40
297.6217922
50
143.8590739
51
143.8692135
0
ARC
8
DEFAULT_255_2_778
10
192.832088
20
-135.7634562
40
231.1583684
50
143.8691353
51
143.88113
0
ARC
8
DEFAULT_255_2_778
10
102.026297
20
-69.5021678
40
118.7472925
50
143.8806415
51
143.8912545
0
ARC
8
DEFAULT_255_2_778
10
-5.0760724
20
8.6224363
40
13.8210721
50
323.8877547
51
323.8940363
0
ARC
8
DEFAULT_255_2_778
10
6.561807
20
4.486148
40
2.1268769
50
183.9854223
51
184.3656877
0
ARC
8
DEFAULT_255_2_778
10
9.0739479
20
4.6758151
40
4.6461671
50
184.3396403
51
184.7544686
0
ARC
8
DEFAULT_255_2_778
10
10.7819763
20
4.8177891
40
6.3600859
50
184.7536932
51
185.3846026
0
ARC
8
DEFAULT_255_2_778
10
11.6078694
20
4.8948587
40
7.1895669
50
185.378443
51
186.2002991
0
ARC
8
DEFAULT_255_2_778
10
11.4263933
20
4.8740359
40
7.0069035
50
186.1912981
51
187.3477311
0
ARC
8
DEFAULT_255_2_778
10
9.9882798
20
4.6818303
40
5.5560222
50
187.2785799
51
190.0576454
0
ARC
8
DEFAULT_255_2_778
10
7.5839941
20
4.2450372
40
3.11242
50
189.8698966
51
195.184558
0
ARC
8
DEFAULT_255_2_778
10
5.9747238
20
3.8098405
40
1.445344
50
195.2444936
51
201.538728
0
ARC
8
DEFAULT_255_2_778
10
5.2503164
20
3.5219247
40
0.6658223
50
201.3787734
51
210.985267
0
ARC
8
DEFAULT_255_2_778
10
4.9103313
20
3.3140694
40
0.2673645
50
210.3072267
51
229.1840508
0
ARC
8
DEFAULT_255_2_778
10
5.4962759
20
3.2112472
40
0.7671851
50
186.3325803
51
187.4536769
0
ARC
8
DEFAULT_255_2_778
10
6.7663421
20
3.3558063
40
2.0454499
50
185.8509823
51
186.4331258
0
ARC
8
DEFAULT_255_2_778
10
7.8692203
20
3.4688759
40
3.1541088
50
185.1614247
51
185.8519159
0
ARC
8
DEFAULT_255_2_778
10
8.7350523
20
3.5476148
40
4.0235136
50
184.4964651
51
185.1689388
0
ARC
8
DEFAULT_255_2_778
10
9.145733
20
3.5805335
40
4.435511
50
184.2736454
51
184.504487
0
ARC
8
DEFAULT_255_2_778
10
9.451854
20
3.6029041
40
4.742448
50
183.3650806
51
184.2675593
0
ARC
8
DEFAULT_255_2_778
10
9.6982953
20
3.6176707
40
4.9893312
50
182.2409871
51
183.3682442
0
ARC
8
DEFAULT_255_2_778
10
9.639706
20
3.6158525
40
4.9307155
50
180.7642014
51
182.246497
0
ARC
8
DEFAULT_255_2_778
10
9.4197087
20
3.6125721
40
4.7106938
50
180.0022921
51
180.7599943
0
ARC
8
DEFAULT_255_2_778
10
9.0350212
20
3.6142146
40
4.3260069
50
177.8034664
51
180.0242498
0
ARC
8
DEFAULT_255_2_778
10
8.2424474
20
3.6475516
40
3.532739
50
174.1701751
51
177.8510728
0
ARC
8
DEFAULT_255_2_778
10
7.0701443
20
3.7776338
40
2.3533086
50
166.3029589
51
174.4217694
0
ARC
8
DEFAULT_255_2_778
10
6.239868
20
3.9722914
40
1.5005703
50
160.510842
51
166.0174424
0
LINE
8
DEFAULT_255_2_778
10
6.0921735
20
3.0460244
11
6.1182735
21
3.7342244
0
LINE
8
DEFAULT_255_2_778
10
6.0770735
20
2.9791244
11
6.0770735
21
2.9788244
0
LINE
8
DEFAULT_255_2_778
10
10.0666735
20
6.3176244
11
9.5398735
21
7.3053244
0
LINE
8
DEFAULT_255_2_778
10
9.1173735
20
8.6026244
11
8.3844735
21
9.0822244
0
LINE
8
DEFAULT_255_2_778
10
6.8813735
20
8.8283244
11
6.8813735
21
10.6412244
0
LINE
8
DEFAULT_255_2_778
10
6.8813735
20
10.6412244
11
6.4847735
21
11.9395244
0
LINE
8
DEFAULT_255_2_778
10
5.1496735
20
12.6237244
11
4.2000735
21
11.5794244
0
LINE
8
DEFAULT_255_2_778
10
4.2000735
20
11.5794244
11
4.5141735
21
9.2349244
0
LINE
8
DEFAULT_255_2_778
10
4.5141735
20
9.2349244
11
4.3831735
21
8.1059244
0
LINE
8
DEFAULT_255_2_778
10
4.3831735
20
8.1059244
11
4.1550735
21
8.3226244
0
LINE
8
DEFAULT_255_2_778
10
2.9398735
20
7.7694244
11
2.7337735
21
7.4701244
0
LINE
8
DEFAULT_255_2_778
10
2.7337735
20
7.4701244
11
2.1318735
21
7.7093244
0
LINE
8
DEFAULT_255_2_778
10
1.4214735
20
7.4926244
11
1.1674735
21
6.9508244
0
LINE
8
DEFAULT_255_2_778
10
1.1674735
20
6.9508244
11
0.7525735
21
6.4533244
0
LINE
8
DEFAULT_255_2_778
10
0.7525735
20
6.4533244
11
0.8721735
21
4.7333244
0
LINE
8
DEFAULT_255_2_778
10
0.8721735
20
4.7333244
11
0.8123735
21
3.8059244
0
LINE
8
DEFAULT_255_2_778
10
0.8123735
20
3.8059244
11
0.5956735
21
2.9648244
0
LINE
8
DEFAULT_255_2_778
10
0.5956735
20
2.9648244
11
1.4745735
21
1.8726244
0
LINE
8
DEFAULT_255_2_778
10
1.4745735
20
1.8726244
11
1.9532735
21
1.8128244
0
LINE
8
DEFAULT_255_2_778
10
1.9532735
20
1.8128244
11
2.4329735
21
0.9003244
0
LINE
8
DEFAULT_255_2_778
10
2.4329735
20
0.9003244
11
2.7321735
21
0.7209244
0
LINE
8
DEFAULT_255_2_778
10
2.7321735
20
0.7209244
11
4.3834735
21
1.0114244
0
LINE
8
DEFAULT_255_2_778
10
4.3834735
20
1.0114244
11
5.5986735
21
0.0989244
0
LINE
8
DEFAULT_255_2_778
10
5.5986735
20
0.0989244
11
6.4029735
21
0.0989244
0
LINE
8
DEFAULT_255_2_778
10
6.4029735
20
0.0989244
11
7.1133735
21
1.3141244
0
LINE
8
DEFAULT_255_2_778
10
8.7583735
20
2.2975244
11
8.6498735
21
3.8342244
0
LINE
8
DEFAULT_255_2_778
10
10.0709735
20
6.3205244
11
10.0666735
21
6.3176244
0
LINE
8
DEFAULT_255_2_778
10
9.4763735
20
5.3918244
11
8.8408735
21
4.9730244
0
LINE
8
DEFAULT_255_2_778
10
8.8408735
20
4.9730244
11
8.6241735
21
4.6476244
0
LINE
8
DEFAULT_255_2_778
10
8.6241735
20
4.6476244
11
8.5754735
21
5.1415244
0
LINE
8
DEFAULT_255_2_778
10
8.5754735
20
5.1415244
11
8.6839735
21
5.8519244
0
LINE
8
DEFAULT_255_2_778
10
7.9624735
20
6.7907244
11
7.6859735
21
7.5725244
0
LINE
8
DEFAULT_255_2_778
10
6.7847735
20
7.4865244
11
6.8445735
21
8.3501244
0
LINE
8
DEFAULT_255_2_778
10
7.6520735
20
8.4324244
11
8.3624735
21
8.6716244
0
LINE
8
DEFAULT_255_2_778
10
8.3624735
20
8.6716244
11
8.7363735
21
8.5147244
0
LINE
8
DEFAULT_255_2_778
10
8.7363735
20
8.5147244
11
8.7850735
21
8.3914244
0
LINE
8
DEFAULT_255_2_778
10
8.7850735
20
8.3914244
11
8.8996735
21
8.1017244
0
LINE
8
DEFAULT_255_2_778
10
8.8996735
20
8.1017244
11
9.2213735
21
7.2495244
0
LINE
8
DEFAULT_255_2_778
10
9.2213735
20
7.2495244
11
9.7856735
21
6.3671244
0
LINE
8
DEFAULT_255_2_778
10
9.7856735
20
6.3671244
11
9.7010735
21
6.1017244
0
LINE
8
DEFAULT_255_2_778
10
9.7010735
20
6.1017244
11
9.4763735
21
5.3918244
0
LINE
8
DEFAULT_255_2_778
10
5.2128735
20
12.1549244
11
5.2581735
21
12.1586244
0
LINE
8
DEFAULT_255_2_778
10
5.2581735
20
12.1586244
11
5.4642735
21
12.1734244
0
LINE
8
DEFAULT_255_2_778
10
5.4642735
20
12.1734244
11
5.7036735
21
12.1919244
0
LINE
8
DEFAULT_255_2_778
10
5.7036735
20
12.1919244
11
5.8047735
21
12.1284244
0
LINE
8
DEFAULT_255_2_778
10
5.8047735
20
12.1284244
11
6.0405735
21
11.9723244
0
LINE
8
DEFAULT_255_2_778
10
6.0405735
20
11.9723244
11
6.1116735
21
11.7815244
0
LINE
8
DEFAULT_255_2_778
10
6.1116735
20
11.7815244
11
6.5080735
21
10.7084244
0
LINE
8
DEFAULT_255_2_778
10
6.5080735
20
10.7084244
11
6.5678735
21
8.5658244
0
LINE
8
DEFAULT_255_2_778
10
6.5678735
20
8.5658244
11
6.5826735
21
8.0758244
0
LINE
8
DEFAULT_255_2_778
10
6.5826735
20
8.0758244
11
6.4741735
21
6.2023244
0
LINE
8
DEFAULT_255_2_778
10
6.4741735
20
6.2023244
11
6.1227735
21
3.7305244
0
LINE
8
DEFAULT_255_2_778
10
6.1227735
20
3.7305244
11
6.0775735
21
2.9685244
0
LINE
8
DEFAULT_255_2_778
10
6.5821735
20
4.8942244
11
6.6384735
21
5.8723244
0
LINE
8
DEFAULT_255_2_778
10
6.6384735
20
5.8723244
11
6.7231735
21
7.0838244
0
LINE
8
DEFAULT_255_2_778
10
6.7231735
20
7.0838244
11
7.3586735
21
7.2299244
0
LINE
8
DEFAULT_255_2_778
10
7.3586735
20
7.2299244
11
8.1997735
21
5.4874244
0
LINE
8
DEFAULT_255_2_778
10
8.1997735
20
5.4874244
11
8.2783735
21
3.9657244
0
LINE
8
DEFAULT_255_2_778
10
8.2783735
20
3.9657244
11
8.3630735
21
2.4513244
0
LINE
8
DEFAULT_255_2_778
10
8.3630735
20
2.4513244
11
8.0976735
21
1.9208244
0
LINE
8
DEFAULT_255_2_778
10
8.0976735
20
1.9208244
11
7.3356735
21
1.7898244
0
LINE
8
DEFAULT_255_2_778
10
7.3356735
20
1.7898244
11
7.3729735
21
1.9393244
0
LINE
8
DEFAULT_255_2_778
10
6.0894735
20
0.4767244
11
5.6222735
21
0.4767244
0
LINE
8
DEFAULT_255_2_778
10
5.6222735
20
0.4767244
11
3.6973735
21
1.9314244
0
LINE
8
DEFAULT_255_2_778
10
3.6973735
20
1.9314244
11
4.0712735
21
1.3670244
0
LINE
8
DEFAULT_255_2_778
10
4.0712735
20
1.3670244
11
3.2970735
21
1.0977244
0
LINE
8
DEFAULT_255_2_778
10
3.2970735
20
1.0977244
11
3.0353735
21
1.0080244
0
LINE
8
DEFAULT_255_2_778
10
3.0353735
20
1.0080244
11
2.9755735
21
1.0418244
0
LINE
8
DEFAULT_255_2_778
10
2.9755735
20
1.0418244
11
2.7588735
21
1.1651244
0
LINE
8
DEFAULT_255_2_778
10
2.7588735
20
1.1651244
11
1.9770735
21
2.5486244
0
LINE
8
DEFAULT_255_2_778
10
1.9770735
20
2.5486244
11
2.0617735
21
2.1634244
0
LINE
8
DEFAULT_255_2_778
10
2.0617735
20
2.1634244
11
1.6280735
21
2.2605244
0
LINE
8
DEFAULT_255_2_778
10
1.6280735
20
2.2605244
11
1.0708735
21
3.0384244
0
LINE
8
DEFAULT_255_2_778
10
1.0708735
20
3.0384244
11
1.0708735
21
3.8427244
0
LINE
8
DEFAULT_255_2_778
10
1.0708735
20
3.8427244
11
1.1904735
21
4.5272244
0
LINE
8
DEFAULT_255_2_778
10
1.1904735
20
4.5272244
11
1.2279735
21
6.2210244
0
LINE
8
DEFAULT_255_2_778
10
1.2279735
20
6.2210244
11
1.6354735
21
7.0733244
0
LINE
8
DEFAULT_255_2_778
10
1.6354735
20
7.0733244
11
2.0580735
21
7.2415244
0
LINE
8
DEFAULT_255_2_778
10
2.0580735
20
7.2415244
11
2.7684735
21
6.8825244
0
LINE
8
DEFAULT_255_2_778
10
2.7684735
20
6.8825244
11
2.8168735
21
6.7256244
0
LINE
8
DEFAULT_255_2_778
10
2.8168735
20
6.7256244
11
2.6056735
21
5.1654244
0
LINE
8
DEFAULT_255_2_778
10
2.6056735
20
5.1654244
11
1.9923735
21
3.8305244
0
LINE
8
DEFAULT_255_2_778
10
1.9923735
20
3.8305244
11
2.5003735
21
4.2269244
0
LINE
8
DEFAULT_255_2_778
10
2.5003735
20
4.2269244
11
2.7882735
21
3.1461244
0
LINE
8
DEFAULT_255_2_778
10
2.7882735
20
3.1461244
11
2.9078735
21
5.0566244
0
LINE
8
DEFAULT_255_2_778
10
2.9078735
20
5.0566244
11
3.1957735
21
7.2439244
0
LINE
8
DEFAULT_255_2_778
10
3.1957735
20
7.2439244
11
4.0746735
21
7.6890244
0
LINE
8
DEFAULT_255_2_778
10
4.0746735
20
7.6890244
11
4.3625735
21
7.6178244
0
LINE
8
DEFAULT_255_2_778
10
4.3625735
20
7.6178244
11
4.5601735
21
7.2587244
0
LINE
8
DEFAULT_255_2_778
10
4.5601735
20
7.2587244
11
4.6461735
21
6.3650244
0
LINE
8
DEFAULT_255_2_778
10
4.6461735
20
6.3650244
11
4.6461735
21
5.6022244
0
LINE
8
DEFAULT_255_2_778
10
4.6461735
20
5.6022244
11
4.4400735
21
4.3383244
0
LINE
8
DEFAULT_255_2_778
10
4.8252735
20
4.4729244
11
4.9223735
21
6.1782244
0
LINE
8
DEFAULT_255_2_778
10
4.9223735
20
6.1782244
11
4.8252735
21
7.6699244
0
LINE
8
DEFAULT_255_2_778
10
4.8252735
20
7.6699244
11
4.8252735
21
9.3638244
0
LINE
8
DEFAULT_255_2_778
10
4.8252735
20
9.3638244
11
4.7019735
21
10.4814244
0
LINE
8
DEFAULT_255_2_778
10
4.7019735
20
10.4814244
11
4.5974735
21
11.4087244
0
LINE
8
DEFAULT_255_2_778
10
4.5974735
20
11.4087244
11
4.7668735
21
11.6514244
0
LINE
8
DEFAULT_255_2_778
10
4.7668735
20
11.6514244
11
4.8416735
21
11.7598244
0
LINE
8
DEFAULT_255_2_778
10
4.8416735
20
11.7598244
11
5.1221735
21
12.1562244
0
LINE
8
DEFAULT_255_2_778
10
5.1221735
20
12.1562244
11
5.2128735
21
12.1549244
0
ARC
8
DEFAULT_255_2_778
10
1.8725648
20
6.1919428
40
0.6045042
50
103.4487737
51
104.1090545
0
ARC
8
DEFAULT_255_2_778
10
2.070057
20
5.3693281
40
1.4504935
50
102.5994138
51
103.4786466
0
ARC
8
DEFAULT_255_2_778
10
2.2179603
20
4.7091975
40
2.1269902
50
101.4948984
51
102.6087115
0
ARC
8
DEFAULT_255_2_778
10
2.3035104
20
4.2904177
40
2.5544188
50
100.1791314
51
101.5034095
0
ARC
8
DEFAULT_255_2_778
10
2.3326895
20
4.1304782
40
2.7169975
50
99.2989809
51
100.1887129
0
ARC
8
DEFAULT_255_2_778
10
2.3368517
20
4.105913
40
2.7419125
50
97.5438782
51
99.3018657
0
ARC
8
DEFAULT_255_2_778
10
2.3170272
20
4.2618295
40
2.584743
50
94.7672632
51
97.5619818
0
ARC
8
DEFAULT_255_2_778
10
2.2849532
20
4.6739513
40
2.1713824
50
90.1073691
51
94.8276286
0
ARC
8
DEFAULT_255_2_778
10
2.2823909
20
5.1060915
40
1.7392391
50
86.6419778
51
90.0496369
0
ARC
8
DEFAULT_255_2_778
10
2.3334701
20
5.7172176
40
1.1262728
50
71.7118358
51
87.4149944
0
ARC
8
DEFAULT_255_2_778
10
2.4709682
20
6.1596574
40
0.663086
50
59.299626
51
70.9961134
0
ARC
8
DEFAULT_255_2_778
10
4.414376
20
7.0827946
40
0.2147533
50
54.2630235
51
56.9239799
0
ARC
8
DEFAULT_255_2_778
10
4.2614131
20
6.8501303
40
0.4931949
50
56.7848154
51
60.2174953
0
ARC
8
DEFAULT_255_2_778
10
4.1620591
20
6.6774846
40
0.6923873
50
60.1780684
51
64.3867171
0
ARC
8
DEFAULT_255_2_778
10
4.113015
20
6.5766535
40
0.8045119
50
64.3414317
51
68.0193978
0
ARC
8
DEFAULT_255_2_778
10
4.0874237
20
6.5128369
40
0.8732683
50
68.0295669
51
74.0350766
0
ARC
8
DEFAULT_255_2_778
10
4.0749433
20
6.4696011
40
0.9182691
50
74.0283969
51
81.4507323
0
ARC
8
DEFAULT_255_2_778
10
4.0696819
20
6.4340804
40
0.9541772
50
81.4553917
51
89.7525545
0
ARC
8
DEFAULT_255_2_778
10
4.0689888
20
6.4063867
40
0.9818738
50
89.7190888
51
89.997908
0
ARC
8
DEFAULT_255_2_778
10
4.0696299
20
6.3813667
40
1.0068939
50
90.0344394
51
97.2678426
0
ARC
8
DEFAULT_255_2_778
10
4.0797962
20
6.303288
40
1.0856314
50
97.2787718
51
104.3543708
0
ARC
8
DEFAULT_255_2_778
10
4.1030138
20
6.2102616
40
1.1815099
50
104.3267183
51
108.8639378
0
ARC
8
DEFAULT_255_2_778
10
4.4856535
20
6.7892787
40
0.1010218
50
19.6268699
51
31.3782643
0
ARC
8
DEFAULT_255_2_778
10
4.3749272
20
6.7239816
40
0.2295613
50
30.9024765
51
46.3324747
0
ARC
8
DEFAULT_255_2_778
10
4.2818193
20
6.6292155
40
0.3624047
50
46.0294017
51
58.2152886
0
ARC
8
DEFAULT_255_2_778
10
4.2060882
20
6.5112749
40
0.502553
50
57.9586256
51
64.8866237
0
ARC
8
DEFAULT_255_2_778
10
4.1488219
20
6.3906909
40
0.6360429
50
64.8257475
51
69.8518697
0
LINE
8
DEFAULT_255_2_778
10
2.4308059
20
7.0547113
11
1.7252059
21
6.7782113
0
LINE
8
DEFAULT_255_2_778
10
2.8095059
20
6.7298113
11
2.8095059
21
7.2458113
0
LINE
8
DEFAULT_255_2_778
10
2.8095059
20
7.2458113
11
2.4840059
21
7.0550113
0
LINE
8
DEFAULT_255_2_778
10
1.9072059
20
6.5211113
11
2.1467059
21
6.6621113
0
LINE
8
DEFAULT_255_2_778
10
2.1467059
20
6.6621113
11
2.3528059
21
6.6621113
0
LINE
8
DEFAULT_255_2_778
10
2.3528059
20
6.6621113
11
2.1284059
21
6.5211113
0
LINE
8
DEFAULT_255_2_778
10
2.1284059
20
6.5211113
11
1.9072059
21
6.5211113
0
LINE
8
DEFAULT_255_2_778
10
3.7210059
20
7.3283113
11
4.0202059
21
7.4593113
0
LINE
8
DEFAULT_255_2_778
10
4.0202059
20
7.4593113
11
4.5401059
21
7.4593113
0
LINE
8
DEFAULT_255_2_778
10
4.5401059
20
7.4593113
11
4.5398059
21
7.2571113
0
LINE
8
DEFAULT_255_2_778
10
4.3679059
20
6.9878113
11
3.9342059
21
7.0661113
0
LINE
8
DEFAULT_255_2_778
10
3.9342059
20
7.0661113
11
4.3530059
21
7.1508113
0
LINE
8
DEFAULT_255_2_778
10
4.3530059
20
7.1508113
11
4.7086059
21
7.0910113
0
LINE
8
DEFAULT_255_2_778
10
4.7086059
20
7.0910113
11
4.5808059
21
6.8232113
0
LINE
8
DEFAULT_255_2_778
10
8.1332059
20
8.2178113
11
8.4922059
21
8.7449113
0
LINE
8
DEFAULT_255_2_778
10
8.4922059
20
8.7449113
11
8.2829059
21
8.6737113
0
LINE
8
DEFAULT_255_2_778
10
8.2829059
20
8.6737113
11
8.1332059
21
8.2178113
0
ARC
8
DEFAULT_255_2_778
10
7.0250943
20
6.1770912
40
0.279117
50
66.1685806
51
67.6273422
0
ARC
8
DEFAULT_255_2_778
10
6.8878434
20
5.8456386
40
0.6378624
50
67.5591463
51
69.6560799
0
ARC
8
DEFAULT_255_2_778
10
6.8098561
20
5.6363061
40
0.86125
50
69.6329782
51
72.6735752
0
ARC
8
DEFAULT_255_2_778
10
6.791486
20
5.5792165
40
0.9212202
50
72.6403411
51
74.0235524
0
ARC
8
DEFAULT_255_2_778
10
6.7975521
20
5.6022241
40
0.8974318
50
73.9915741
51
79.4477884
0
ARC
8
DEFAULT_255_2_778
10
6.8253992
20
5.7647739
40
0.7325353
50
79.2607079
51
89.6977731
0
ARC
8
DEFAULT_255_2_778
10
6.8279974
20
5.9366561
40
0.5606444
50
89.8706432
51
97.7128187
0
ARC
8
DEFAULT_255_2_778
10
6.8039305
20
6.0820017
40
0.4134065
50
97.1109466
51
122.0470653
0
ARC
8
DEFAULT_255_2_778
10
5.9795586
20
7.3729801
40
1.1183521
50
301.3434319
51
302.7507378
0
ARC
8
DEFAULT_255_2_778
10
6.3100323
20
6.8289048
40
0.4817756
50
299.0157334
51
301.4342763
0
ARC
8
DEFAULT_255_2_778
10
6.4797311
20
6.5208006
40
0.1300344
50
293.619279
51
299.4768853
0
ARC
8
DEFAULT_255_2_778
10
6.5252631
20
6.4151784
40
0.0150297
50
276.6227588
51
295.9093185
0
ARC
8
DEFAULT_255_2_778
10
6.5267713
20
6.401016
40
0.0007995
50
183.5544701
51
286.3657682
0
ARC
8
DEFAULT_255_2_778
10
6.5497132
20
6.3890553
40
0.0265604
50
125.7062032
51
153.3553792
0
ARC
8
DEFAULT_255_2_778
10
6.8035358
20
6.1088394
40
0.404486
50
127.0210936
51
131.7470339
0
ARC
8
DEFAULT_255_2_778
10
7.27005
20
5.5007487
40
1.1709036
50
124.5191958
51
127.3310637
0
ARC
8
DEFAULT_255_2_778
10
7.6073715
20
5.0141906
40
1.762952
50
121.5520158
51
124.59094
0
ARC
8
DEFAULT_255_2_778
10
7.6380352
20
4.9662314
40
1.8198668
50
120.4873915
51
121.5845976
0
ARC
8
DEFAULT_255_2_778
10
7.463676
20
5.2743166
40
1.4659288
50
113.8255116
51
120.7240208
0
ARC
8
DEFAULT_255_2_778
10
7.190075
20
5.8967311
40
0.7860355
50
105.145332
51
113.9086988
0
ARC
8
DEFAULT_255_2_778
10
7.0866139
20
6.2810843
40
0.3880016
50
93.1599478
51
105.2268233
0
ARC
8
DEFAULT_255_2_778
10
7.0759637
20
6.4124097
40
0.2563113
50
90.0223845
51
92.4010332
0
ARC
8
DEFAULT_255_2_778
10
7.0761014
20
6.4464263
40
0.2222947
50
85.7512127
51
90.0612902
0
ARC
8
DEFAULT_255_2_778
10
7.0485509
20
6.6424655
40
0.0509449
50
30.2238697
51
39.1906244
0
ARC
8
DEFAULT_255_2_778
10
7.0103348
20
6.6121552
40
0.0997197
50
38.8131566
51
53.1941715
0
ARC
8
DEFAULT_255_2_778
10
6.9989316
20
6.5982642
40
0.1176764
50
52.8007462
51
55.1275521
0
ARC
8
DEFAULT_255_2_778
10
6.9881488
20
6.5811032
40
0.1379242
50
55.528577
51
73.1922356
0
ARC
8
DEFAULT_255_2_778
10
6.9719243
20
6.5271714
40
0.1942437
50
73.2109877
51
88.353067
0
ARC
8
DEFAULT_255_2_778
10
6.9682505
20
6.4743664
40
0.2471419
50
87.8535429
51
90.0139245
0
ARC
8
DEFAULT_255_2_778
10
6.9713739
20
6.3902063
40
0.3313172
50
90.5505444
51
103.15931
0
ARC
8
DEFAULT_255_2_778
10
7.0189485
20
6.1788172
40
0.5479891
50
102.9711628
51
111.5910973
0
ARC
8
DEFAULT_255_2_778
10
7.136427
20
5.8783307
40
0.8706225
50
111.5030747
51
117.957539
0
ARC
8
DEFAULT_255_2_778
10
7.3287716
20
5.5105182
40
1.2856864
50
117.8443567
51
121.994273
0
ARC
8
DEFAULT_255_2_778
10
5.8473855
20
7.5452722
40
0.0007043
50
54.8634487
51
101.0889642
0
ARC
8
DEFAULT_255_2_778
10
5.8468553
20
7.5360036
40
0.0099675
50
87.7298923
51
90.1280298
0
ARC
8
DEFAULT_255_2_778
10
5.8634112
20
7.2427767
40
0.3036472
50
93.1297402
51
97.4311085
0
ARC
8
DEFAULT_255_2_778
10
6.0511715
20
5.6094611
40
1.9476898
50
96.6938908
51
98.2794172
0
ARC
8
DEFAULT_255_2_778
10
6.2002876
20
4.5626315
40
3.0050834
50
98.2187431
51
99.8949099
0
ARC
8
DEFAULT_255_2_778
10
6.1486078
20
4.829732
40
2.7330799
50
99.7898394
51
103.6269771
0
ARC
8
DEFAULT_255_2_778
10
5.830133
20
6.1051518
40
1.418559
50
103.2626045
51
111.0828987
0
ARC
8
DEFAULT_255_2_778
10
5.5126258
20
6.9286352
40
0.5359857
50
111.0795264
51
121.8994766
0
ARC
8
DEFAULT_255_2_778
10
5.3658025
20
7.1701596
40
0.2533687
50
122.5732472
51
130.6434929
0
ARC
8
DEFAULT_255_2_778
10
5.1442433
20
11.4615478
40
0.91159
50
264.398922
51
264.7713771
0
ARC
8
DEFAULT_255_2_778
10
5.2588402
20
12.7059723
40
2.1612797
50
264.7524064
51
265.2731393
0
ARC
8
DEFAULT_255_2_778
10
5.3222294
20
13.4651861
40
2.9231349
50
265.2611818
51
265.7605855
0
ARC
8
DEFAULT_255_2_778
10
5.3485912
20
13.818404
40
3.2773351
50
265.7574691
51
266.3261506
0
ARC
8
DEFAULT_255_2_778
10
5.3536067
20
13.8927351
40
3.3518348
50
266.3220081
51
267.4132265
0
ARC
8
DEFAULT_255_2_778
10
5.3376288
20
13.5130855
40
2.9718513
50
267.3906151
51
269.2006217
0
ARC
8
DEFAULT_255_2_778
10
5.3298065
20
13.0469186
40
2.5056209
50
269.2307565
51
269.993027
0
ARC
8
DEFAULT_255_2_778
10
5.3301432
20
12.7218092
40
2.1805117
50
269.9831415
51
271.2053488
0
ARC
8
DEFAULT_255_2_778
10
5.3620008
20
11.785913
40
1.2442118
50
270.6452226
51
278.5978605
0
ARC
8
DEFAULT_255_2_778
10
5.4873277
20
10.9644025
40
0.4131988
50
278.4447785
51
290.974462
0
ARC
8
DEFAULT_255_2_778
10
5.5893177
20
10.7019299
40
0.1316164
50
290.4174234
51
313.5325121
0
ARC
8
DEFAULT_255_2_778
10
5.2533253
20
11.1014347
40
0.6534344
50
310.7626893
51
311.8431043
0
ARC
8
DEFAULT_255_2_778
10
4.8461542
20
11.5579964
40
1.2651828
50
311.7870788
51
313.5277952
0
ARC
8
DEFAULT_255_2_778
10
4.8138402
20
11.5942359
40
1.3137137
50
313.4610921
51
316.928871
0
ARC
8
DEFAULT_255_2_778
10
4.9694536
20
11.4470551
40
1.0995273
50
316.993865
51
318.0871696
0
ARC
8
DEFAULT_255_2_778
10
5.24217
20
11.2099413
40
0.7382126
50
317.6429573
51
325.9158319
0
ARC
8
DEFAULT_255_2_778
10
5.6033642
20
10.9678362
40
0.3033938
50
325.5566787
51
339.6512657
0
ARC
8
DEFAULT_255_2_778
10
5.7710238
20
10.9051356
40
0.124395
50
339.8754887
51
358.7528446
0
ARC
8
DEFAULT_255_2_778
10
5.8261886
20
10.9034419
40
0.0692082
50
359.1606754
51
24.2891237
0
ARC
8
DEFAULT_255_2_778
10
5.6610916
20
11.1129063
40
0.1634483
50
8.7384983
51
9.9719856
0
ARC
8
DEFAULT_255_2_778
10
5.442415
20
11.0790283
40
0.3847335
50
6.7910739
51
8.7775613
0
ARC
8
DEFAULT_255_2_778
10
5.3417476
20
11.0664342
40
0.4861844
50
6.1104644
51
6.8620118
0
ARC
8
DEFAULT_255_2_778
10
5.2853449
20
11.0605968
40
0.542888
50
3.358874
51
6.089395
0
ARC
8
DEFAULT_255_2_778
10
5.2730405
20
11.0596223
40
0.5552285
50
0.0156629
51
3.3848743
0
ARC
8
DEFAULT_255_2_778
10
5.3516649
20
11.0583308
40
0.4766062
50
351.676457
51
0.1735092
0
ARC
8
DEFAULT_255_2_778
10
5.4471837
20
11.0456449
40
0.3802592
50
347.6584495
51
351.4842899
0
ARC
8
DEFAULT_255_2_778
10
5.6088817
20
10.9965961
40
0.2122349
50
297.8319534
51
351.2659847
0
ARC
8
DEFAULT_255_2_778
10
5.6215739
20
10.9908445
40
0.2014039
50
285.7581527
51
295.4021294
0
ARC
8
DEFAULT_255_2_778
10
5.4248979
20
11.261881
40
0.5284819
50
297.3159745
51
298.4017098
0
ARC
8
DEFAULT_255_2_778
10
5.1596893
20
11.7730997
40
1.1043983
50
295.7155847
51
297.3698344
0
ARC
8
DEFAULT_255_2_778
10
5.0704776
20
11.9565738
40
1.3084105
50
293.2392599
51
295.7491267
0
ARC
8
DEFAULT_255_2_778
10
5.0963012
20
11.8962089
40
1.2427541
50
291.8028996
51
293.2434028
0
ARC
8
DEFAULT_255_2_778
10
5.1926368
20
11.6458493
40
0.9745294
50
285.498457
51
292.0111903
0
ARC
8
DEFAULT_255_2_778
10
5.2707302
20
11.3766583
40
0.6942673
50
283.0499353
51
285.2242547
0
ARC
8
DEFAULT_255_2_778
10
5.3194095
20
11.146918
40
0.4594902
50
272.375755
51
283.6052514
0
ARC
8
DEFAULT_255_2_778
10
5.3296243
20
10.99391
40
0.3062147
50
270.0097569
51
271.652849
0
ARC
8
DEFAULT_255_2_778
10
5.3237722
20
10.8736605
40
0.186059
50
245.2583063
51
271.8185011
0
ARC
8
DEFAULT_255_2_778
10
5.2947775
20
10.8036907
40
0.1104164
50
212.2259557
51
243.7267008
0
ARC
8
DEFAULT_255_2_778
10
5.6590731
20
10.9816344
40
0.515342
50
206.4153241
51
207.3579367
0
ARC
8
DEFAULT_255_2_778
10
6.2515177
20
11.2769507
40
1.1773102
50
205.1629373
51
206.4600742
0
ARC
8
DEFAULT_255_2_778
10
6.6472931
20
11.4633757
40
1.6147942
50
203.4600269
51
205.1789886
0
ARC
8
DEFAULT_255_2_778
10
6.8096448
20
11.5343507
40
1.7919813
50
200.8981232
51
203.475193
0
ARC
8
DEFAULT_255_2_778
10
6.7810411
20
11.523511
40
1.7613927
50
199.8036586
51
200.9006135
0
ARC
8
DEFAULT_255_2_778
10
6.6187367
20
11.4669877
40
1.5895383
50
195.250964
51
199.8688249
0
ARC
8
DEFAULT_255_2_778
10
6.1745376
20
11.3512359
40
1.1305462
50
185.8133083
51
195.5129859
0
ARC
8
DEFAULT_255_2_778
10
5.8245984
20
11.3108786
40
0.7783331
50
180.1073433
51
185.4669282
0
ARC
8
DEFAULT_255_2_778
10
5.5501741
20
11.3182731
40
0.5039853
50
160.2128489
51
181.0064777
0
ARC
8
DEFAULT_255_2_778
10
5.414026
20
11.360308
40
0.3617049
50
152.6097086
51
159.1773417
0
ARC
8
DEFAULT_255_2_778
10
5.4584563
20
11.2422082
40
0.4632432
50
140.4953404
51
142.1096334
0
ARC
8
DEFAULT_255_2_778
10
5.810765
20
10.9534439
40
0.9187707
50
138.0184184
51
140.5773655
0
ARC
8
DEFAULT_255_2_778
10
5.8776811
20
10.8949094
40
1.0076676
50
133.6111828
51
138.0893493
0
ARC
8
DEFAULT_255_2_778
10
5.7978391
20
10.9778455
40
0.8925469
50
131.605086
51
133.5725021
0
ARC
8
DEFAULT_255_2_778
10
5.5213164
20
11.3227079
40
0.4516176
50
103.9338766
51
134.4251311
0
ARC
8
DEFAULT_255_2_778
10
5.4454119
20
11.56478
40
0.1989859
50
90.1413537
51
99.5011071
0
ARC
8
DEFAULT_255_2_778
10
5.4450875
20
11.5896344
40
0.174131
50
82.8468524
51
90.0547866
0
ARC
8
DEFAULT_255_2_778
10
5.4723527
20
11.6946164
40
0.0680231
50
92.5624036
51
94.7070674
0
ARC
8
DEFAULT_255_2_778
10
5.4762176
20
11.6150757
40
0.1476574
50
89.908154
51
92.6807293
0
ARC
8
DEFAULT_255_2_778
10
5.4756465
20
11.5520137
40
0.2107209
50
77.332966
51
89.7803635
0
ARC
8
DEFAULT_255_2_778
10
5.4809853
20
11.5728975
40
0.1891758
50
64.0871223
51
77.5235784
0
ARC
8
DEFAULT_255_2_778
10
5.4939773
20
11.5995957
40
0.1594842
50
43.9637608
51
64.0937889
0
ARC
8
DEFAULT_255_2_778
10
5.4713587
20
11.6587346
40
0.1467722
50
20.5728626
51
25.5469874
0
ARC
8
DEFAULT_255_2_778
10
5.3859601
20
11.6193359
40
0.2408158
50
25.2420968
51
36.501737
0
ARC
8
DEFAULT_255_2_778
10
5.3983956
20
11.6284331
40
0.2254081
50
36.5232325
51
40.1619304
0
ARC
8
DEFAULT_255_2_778
10
5.4351084
20
11.663815
40
0.1745642
50
39.0584382
51
74.1850503
0
ARC
8
DEFAULT_255_2_778
10
5.4400495
20
11.6704934
40
0.1668178
50
75.1928135
51
90.1988179
0
ARC
8
DEFAULT_255_2_778
10
5.5116629
20
11.4129537
40
0.4304533
50
99.6548354
51
101.4060813
0
ARC
8
DEFAULT_255_2_778
10
5.6068133
20
10.9355012
40
0.9172941
50
101.3342169
51
104.2532098
0
ARC
8
DEFAULT_255_2_778
10
5.647232
20
10.7713935
40
1.0863021
50
104.1883316
51
109.0628941
0
ARC
8
DEFAULT_255_2_778
10
5.5971303
20
10.9100609
40
0.9388781
50
108.9369024
51
116.5250365
0
ARC
8
DEFAULT_255_2_778
10
5.3826147
20
11.2954265
40
0.4986706
50
114.2453853
51
149.3813517
0
ARC
8
DEFAULT_255_2_778
10
4.9533177
20
11.5492788
40
0.0002016
50
355.3038878
51
40.6613975
0
ARC
8
DEFAULT_255_2_778
10
4.9486261
20
11.5504302
40
0.0050299
50
325.3341191
51
346.5737773
0
ARC
8
DEFAULT_255_2_778
10
4.8872619
20
11.5855595
40
0.075721
50
328.040887
51
329.8865544
0
ARC
8
DEFAULT_255_2_778
10
5.2451729
20
11.3598683
40
0.3474076
50
147.7052614
51
150.8097397
0
ARC
8
DEFAULT_255_2_778
10
5.2249233
20
11.3730606
40
0.3232995
50
151.1005681
51
157.0304211
0
ARC
8
DEFAULT_255_2_778
10
5.2842552
20
11.3472036
40
0.3880181
50
156.9339823
51
159.8916099
0
ARC
8
DEFAULT_255_2_778
10
5.3613414
20
11.3199076
40
0.4697906
50
159.9977029
51
166.4440364
0
ARC
8
DEFAULT_255_2_778
10
5.4914878
20
11.2884125
40
0.6036936
50
166.433403
51
172.5933353
0
ARC
8
DEFAULT_255_2_778
10
5.6584235
20
11.2665684
40
0.7720524
50
172.5827998
51
178.2871226
0
ARC
8
DEFAULT_255_2_778
10
5.7946873
20
11.2608526
40
0.9084276
50
178.1836727
51
180.0126194
0
ARC
8
DEFAULT_255_2_778
10
5.9806651
20
11.2633678
40
1.0944087
50
180.1421561
51
186.0397777
0
ARC
8
DEFAULT_255_2_778
10
6.3346523
20
11.3002749
40
1.4503143
50
186.0182871
51
191.1019518
0
ARC
8
DEFAULT_255_2_778
10
6.7526061
20
11.3811105
40
1.8760123
50
191.0666333
51
195.0483259
0
ARC
8
DEFAULT_255_2_778
10
7.2485839
20
11.5143936
40
2.3895864
50
195.0468854
51
198.766625
0
ARC
8
DEFAULT_255_2_778
10
7.8185183
20
11.7066595
40
2.9910764
50
198.741501
51
201.6138458
0
ARC
8
DEFAULT_255_2_778
10
8.2216007
20
11.8635685
40
3.4236152
50
201.5703548
51
202.4727852
0
LINE
8
DEFAULT_255_2_778
10
8.6491706
20
8.7443101
11
8.4922706
21
9.0137101
0
LINE
8
DEFAULT_255_2_778
10
8.4922706
20
9.0137101
11
8.0360706
21
8.7443101
0
LINE
8
DEFAULT_255_2_778
10
8.0360706
20
8.7443101
11
7.9500706
21
8.4078101
0
LINE
8
DEFAULT_255_2_778
10
7.9500706
20
8.4078101
11
8.2416706
21
8.7443101
0
LINE
8
DEFAULT_255_2_778
10
8.2416706
20
8.7443101
11
8.4922706
21
8.8078101
0
LINE
8
DEFAULT_255_2_778
10
8.4922706
20
8.8078101
11
8.4437706
21
8.4824101
0
LINE
8
DEFAULT_255_2_778
10
8.4437706
20
8.4824101
11
8.6491706
21
8.7443101
0
LINE
8
DEFAULT_255_2_778
10
6.5813706
20
5.8392101
11
6.8954706
21
6.1046101
0
LINE
8
DEFAULT_255_2_778
10
6.8954706
20
6.1046101
11
7.3404706
21
6.1757101
0
LINE
8
DEFAULT_255_2_778
10
7.3404706
20
6.1757101
11
6.7906706
21
6.2604101
0
LINE
8
DEFAULT_255_2_778
10
6.7906706
20
6.2604101
11
6.5845706
21
6.1892101
0
LINE
8
DEFAULT_255_2_778
10
6.5845706
20
6.1892101
11
6.8986706
21
6.3652101
0
LINE
8
DEFAULT_255_2_778
10
6.8986706
20
6.3652101
11
7.1378706
21
6.4324101
0
LINE
8
DEFAULT_255_2_778
10
6.6475706
20
6.6009101
11
6.4083706
21
5.7598101
0
LINE
8
DEFAULT_255_2_778
10
6.4083706
20
5.7598101
11
6.5813706
21
5.8392101
0
LINE
8
DEFAULT_255_2_778
10
5.7402706
20
9.4923101
11
5.4897706
21
9.4923101
0
LINE
8
DEFAULT_255_2_778
10
5.4897706
20
9.4923101
11
5.0185706
21
9.4325101
0
LINE
8
DEFAULT_255_2_778
10
5.0185706
20
9.4325101
11
5.5124706
21
9.6606101
0
LINE
8
DEFAULT_255_2_778
10
5.5124706
20
9.6606101
11
5.6320706
21
9.6008101
0
LINE
8
DEFAULT_255_2_778
10
5.6320706
20
9.6008101
11
5.9575706
21
9.6008101
0
LINE
8
DEFAULT_255_2_778
10
5.9575706
20
9.6008101
11
5.7402706
21
9.4923101
0
LINE
8
DEFAULT_255_2_778
10
5.3328706
20
9.8775101
11
5.2616706
21
9.7691101
0
LINE
8
DEFAULT_255_2_778
10
5.2616706
20
9.7691101
11
5.6804706
21
9.7691101
0
LINE
8
DEFAULT_255_2_778
10
5.6804706
20
9.7691101
11
5.4897706
21
9.8775101
0
LINE
8
DEFAULT_255_2_778
10
5.4897706
20
9.8775101
11
5.3328706
21
9.8775101
0
LINE
8
DEFAULT_255_2_778
10
5.4738706
20
10.3855101
11
5.6148706
21
10.4787101
0
LINE
8
DEFAULT_255_2_778
10
5.6148706
20
10.4787101
11
5.7569706
21
10.4302101
0
LINE
8
DEFAULT_255_2_778
10
5.7569706
20
10.4302101
11
5.6159706
21
10.3850101
0
LINE
8
DEFAULT_255_2_778
10
5.6159706
20
10.3850101
11
5.4738706
21
10.3855101
0
LINE
8
DEFAULT_255_2_778
10
6.0794706
20
7.8455101
11
5.6008706
21
7.7410101
0
LINE
8
DEFAULT_255_2_778
10
5.6008706
20
7.7410101
11
5.1211706
21
7.7410101
0
LINE
8
DEFAULT_255_2_778
10
5.1211706
20
7.7410101
11
5.6183706
21
7.9471101
0
LINE
8
DEFAULT_255_2_778
10
5.6183706
20
7.9471101
11
5.6183706
21
7.8461101
0
LINE
8
DEFAULT_255_2_778
10
5.6183706
20
7.8461101
11
6.0794706
21
7.8455101
0
LINE
8
DEFAULT_255_2_778
10
5.2010706
20
7.3600101
11
5.9561706
21
7.3600101
0
LINE
8
DEFAULT_255_2_778
10
5.9561706
20
7.3600101
11
5.6119706
21
7.4611101
0
LINE
8
DEFAULT_255_2_778
10
5.6119706
20
7.4611101
11
5.8477706
21
7.5458101
0
LINE
8
DEFAULT_255_2_778
10
5.2007706
20
7.3624101
11
5.2010706
21
7.3600101
0
LINE
8
DEFAULT_255_2_778
10
5.7543706
20
7.1507101
11
5.8889706
21
7.0796101
0
LINE
8
DEFAULT_255_2_778
10
5.8889706
20
7.0796101
11
5.5825706
21
7.0796101
0
LINE
8
DEFAULT_255_2_778
10
5.5825706
20
7.0796101
11
5.7543706
21
7.1507101
0
LINE
8
DEFAULT_255_2_778
10
1.2566706
20
3.1359101
11
1.4542706
21
2.9193101
0
LINE
8
DEFAULT_255_2_778
10
1.4542706
20
2.9193101
11
1.2566706
21
3.7344101
0
LINE
8
DEFAULT_255_2_778
10
1.2566706
20
3.7344101
11
1.2566706
21
3.1359101
0
LINE
8
DEFAULT_255_2_778
10
2.6626706
20
1.7149101
11
2.9166706
21
1.3185101
0
LINE
8
DEFAULT_255_2_778
10
2.9166706
20
1.3185101
11
3.1931706
21
1.3185101
0
LINE
8
DEFAULT_255_2_778
10
3.1931706
20
1.3185101
11
2.9870706
21
1.4381101
0
LINE
8
DEFAULT_255_2_778
10
2.9870706
20
1.4381101
11
2.6626706
21
1.7149101
0
LINE
8
DEFAULT_255_2_778
10
5.1179706
20
1.2476101
11
5.5815706
21
0.7317101
0
LINE
8
DEFAULT_255_2_778
10
5.5815706
20
0.7317101
11
5.9590706
21
0.7804101
0
LINE
8
DEFAULT_255_2_778
10
5.9590706
20
0.7804101
11
5.6825706
21
0.8515101
0
LINE
8
DEFAULT_255_2_778
10
5.6825706
20
0.8515101
11
5.1179706
21
1.2476101
0
LINE
8
DEFAULT_255_2_778
10
7.8103706
20
2.0887101
11
8.0982706
21
2.3168101
0
LINE
8
DEFAULT_255_2_778
10
8.0982706
20
2.3168101
11
8.0982706
21
2.7248101
0
LINE
8
DEFAULT_255_2_778
10
8.0982706
20
2.7248101
11
7.9521706
21
2.3438101
0
LINE
8
DEFAULT_255_2_778
10
7.9521706
20
2.3438101
11
7.8103706
21
2.0887101
0
LINE
8
DEFAULT_255_2_778
10
5.8892706
20
10.9319101
11
5.8220706
21
11.1412101
0
LINE
8
DEFAULT_255_2_778
10
5.0579706
20
10.5549101
11
5.0552706
21
10.5543101
0
ENDSEC
0
EOF