0
SECTION
2
HEADER
9
$MEASUREMENT
70
1
0
ENDSEC
0
SECTION
2
TABLES
0
TABLE
2
LTYPE
0
LTYPE
72
65
70
64
2
CONTINUOUS
3
______
73
0
40
0
0
ENDTAB
0
TABLE
2
LAYER
0
LAYER
2
DEFAULT_255_2_778
70
0
62
255
6
CONTINUOUS
0
ENDTAB
0
ENDSEC
0
SECTION
2
ENTITIES
0
ARC
8
DEFAULT_255_2_778
10
8.7276063
20
8.2830985
40
8.5178687
50
89.9756007
51
100.1092967
0
ARC
8
DEFAULT_255_2_778
10
8.709517
20
8.3956729
40
8.4038671
50
100.1226009
51
113.4218374
0
ARC
8
DEFAULT_255_2_778
10
8.7537811
20
8.3113603
40
8.4988305
50
113.4697216
51
154.9390717
0
ARC
8
DEFAULT_255_2_778
10
8.6699327
20
8.3560485
40
8.4039482
50
154.9729182
51
168.7374207
0
ARC
8
DEFAULT_255_2_778
10
8.7632501
20
8.339732
40
8.4986553
50
168.7524087
51
179.2286384
0
ARC
8
DEFAULT_255_2_778
10
8.8997456
20
8.3343196
40
8.635212
50
179.2049222
51
180.0003529
0
ARC
8
DEFAULT_255_2_778
10
8.7820849
20
8.3306406
40
8.5175521
50
179.9756099
51
190.109486
0
ARC
8
DEFAULT_255_2_778
10
8.6696392
20
8.312575
40
8.4036813
50
190.1227976
51
203.4221363
0
ARC
8
DEFAULT_255_2_778
10
8.7541242
20
8.3569276
40
8.4988381
50
203.470103
51
244.9392112
0
ARC
8
DEFAULT_255_2_778
10
8.7094592
20
8.2731131
40
8.4039963
50
244.9730139
51
258.7374331
0
ARC
8
DEFAULT_255_2_778
10
8.7257694
20
8.3664066
40
8.498679
50
258.7524307
51
269.228631
0
ARC
8
DEFAULT_255_2_778
10
8.7311804
20
8.5028784
40
8.635212
50
269.2049222
51
270.0003529
0
ARC
8
DEFAULT_255_2_778
10
8.7348594
20
8.3852177
40
8.517552
50
269.9756098
51
280.109486
0
ARC
8
DEFAULT_255_2_778
10
8.752924
20
8.2727973
40
8.4037065
50
280.1227739
51
293.4220696
0
ARC
8
DEFAULT_255_2_778
10
8.7085829
20
8.3572763
40
8.4988531
50
293.4699822
51
334.9388298
0
ARC
8
DEFAULT_255_2_778
10
8.7925649
20
8.3125203
40
8.4038209
50
334.9727068
51
348.7372228
0
ARC
8
DEFAULT_255_2_778
10
8.6993938
20
8.328805
40
8.4983786
50
348.752231
51
359.2286026
0
ARC
8
DEFAULT_255_2_778
10
8.5629781
20
8.3342132
40
8.6348555
50
359.2049063
51
0.0003529
0
ARC
8
DEFAULT_255_2_778
10
8.6799657
20
8.3378937
40
8.5178686
50
359.9756007
51
10.1092966
0
ARC
8
DEFAULT_255_2_778
10
8.7925147
20
8.355982
40
8.4038923
50
10.1225773
51
23.4217707
0
ARC
8
DEFAULT_255_2_778
10
8.7082083
20
8.3117294
40
8.4988454
50
23.4696009
51
64.9386904
0
ARC
8
DEFAULT_255_2_778
10
8.7529873
20
8.3957452
40
8.4037728
50
64.9726112
51
78.7372105
0
ARC
8
DEFAULT_255_2_778
10
8.7366964
20
8.3025503
40
8.4983549
50
78.752209
51
89.22861
0
ARC
8
DEFAULT_255_2_778
10
8.7312868
20
8.166111
40
8.6348555
50
89.2049063
51
90.0003529
0
LINE
8
DEFAULT_255_2_778
10
8.7312336
20
16.8009664
11
8.7312336
21
16.8009664
0
ARC
8
DEFAULT_255_2_778
10
9.5824866
20
8.4472684
40
0.6767558
50
1.768968
51
88.7356181
0
ARC
8
DEFAULT_255_2_778
10
9.5818324
20
4.3621468
40
0.6772667
50
271.3187798
51
358.6812137
0
ARC
8
DEFAULT_255_2_778
10
7.596624
20
4.3574537
40
0.6724763
50
182.1470814
51
269.1049873
0
ARC
8
DEFAULT_255_2_778
10
7.6316646
20
12.2977939
40
0.7071887
50
108.407464
51
178.8441428
0
ARC
8
DEFAULT_255_2_778
10
7.5675712
20
12.4472585
40
0.5453027
50
90.141999
51
106.9765327
0
ARC
8
DEFAULT_255_2_778
10
9.5809385
20
12.3163164
40
0.6764024
50
1.7658278
51
88.7563005
0
ARC
8
DEFAULT_255_2_778
10
13.2895947
20
8.5541762
40
0.5681435
50
42.2280677
51
87.4552824
0
ARC
8
DEFAULT_255_2_778
10
13.0654483
20
8.3043515
40
0.902675
50
14.1673101
51
44.4085216
0
ARC
8
DEFAULT_255_2_778
10
13.2654963
20
8.3579977
40
0.6955882
50
2.1584253
51
13.9159214
0
ARC
8
DEFAULT_255_2_778
10
13.3644951
20
8.3643938
40
0.5964247
50
0.00631
51
1.9026054
0
ARC
8
DEFAULT_255_2_778
10
13.2865715
20
4.3548396
40
0.6743721
50
272.4007181
51
359.5174019
0
ARC
8
DEFAULT_255_2_778
10
11.3701455
20
4.3460478
40
0.665275
50
181.2134283
51
268.3181321
0
ARC
8
DEFAULT_255_2_778
10
11.3746305
20
8.5680781
40
0.6699599
50
180.6943363
51
267.9204622
0
ARC
8
DEFAULT_255_2_778
10
11.3744438
20
12.3189988
40
0.6697952
50
92.0640744
51
179.1650265
0
ARC
8
DEFAULT_255_2_778
10
13.2928977
20
12.318493
40
0.6703007
50
0.8775897
51
87.9376534
0
LINE
8
DEFAULT_255_2_778
10
3.5856197
20
12.9909594
11
6.4822197
21
12.9909594
0
LINE
8
DEFAULT_255_2_778
10
6.4822197
20
12.9909594
11
6.4822197
21
11.7680594
0
LINE
8
DEFAULT_255_2_778
10
6.4822197
20
11.7680594
11
4.7246197
21
11.7680594
0
LINE
8
DEFAULT_255_2_778
10
4.7246197
20
11.7680594
11
4.7246197
21
9.1240594
0
LINE
8
DEFAULT_255_2_778
10
4.7246197
20
9.1240594
11
5.7792197
21
9.1240594
0
LINE
8
DEFAULT_255_2_778
10
5.7792197
20
9.1240594
11
5.7792197
21
7.9011594
0
LINE
8
DEFAULT_255_2_778
10
5.7792197
20
7.9011594
11
4.7246197
21
7.9011594
0
LINE
8
DEFAULT_255_2_778
10
4.7246197
20
7.9011594
11
4.7246197
21
3.6776594
0
LINE
8
DEFAULT_255_2_778
10
4.7246197
20
3.6776594
11
3.5017197
21
3.6776594
0
LINE
8
DEFAULT_255_2_778
10
3.5017197
20
3.6776594
11
3.5017197
21
12.9909594
0
LINE
8
DEFAULT_255_2_778
10
3.5017197
20
12.9909594
11
3.5856197
21
12.9909594
0
LINE
8
DEFAULT_255_2_778
10
8.1475197
20
11.7677594
11
8.1475197
21
9.1238594
0
LINE
8
DEFAULT_255_2_778
10
8.1475197
20
9.1238594
11
9.5974197
21
9.1238594
0
LINE
8
DEFAULT_255_2_778
10
10.2589197
20
8.4681594
11
10.2589197
21
4.3465594
0
LINE
8
DEFAULT_255_2_778
10
9.5974197
20
3.6850594
11
7.5861197
21
3.6850594
0
LINE
8
DEFAULT_255_2_778
10
6.9246197
20
4.3322594
11
6.9246197
21
12.3120594
0
LINE
8
DEFAULT_255_2_778
10
7.5662197
20
12.9925594
11
9.5956197
21
12.9925594
0
LINE
8
DEFAULT_255_2_778
10
10.2570197
20
12.3371594
11
10.2570197
21
10.7152594
0
LINE
8
DEFAULT_255_2_778
10
10.2570197
20
10.7152594
11
9.0341197
21
10.7152594
0
LINE
8
DEFAULT_255_2_778
10
9.0341197
20
10.7152594
11
9.0341197
21
11.7699594
0
LINE
8
DEFAULT_255_2_778
10
9.0341197
20
11.7699594
11
8.1475197
21
11.7677594
0
LINE
8
DEFAULT_255_2_778
10
8.1478197
20
7.9011594
11
8.1478197
21
4.9026594
0
LINE
8
DEFAULT_255_2_778
10
8.1478197
20
4.9026594
11
9.0341197
21
4.9026594
0
LINE
8
DEFAULT_255_2_778
10
9.0341197
20
4.9026594
11
9.0341197
21
7.8985594
0
LINE
8
DEFAULT_255_2_778
10
9.0341197
20
7.8985594
11
8.1478197
21
7.9011594
0
LINE
8
DEFAULT_255_2_778
10
13.9609197
20
10.7949594
11
13.9609197
21
10.7107594
0
LINE
8
DEFAULT_255_2_778
10
13.9609197
20
10.7107594
11
12.7380197
21
10.7107594
0
LINE
8
DEFAULT_255_2_778
10
12.7380197
20
10.7107594
11
12.7380197
21
11.7659594
0
LINE
8
DEFAULT_255_2_778
10
12.7380197
20
11.7659594
11
11.8517197
21
11.7659594
0
LINE
8
DEFAULT_255_2_778
10
11.8517197
20
11.7659594
11
11.8517197
21
9.1219594
0
LINE
8
DEFAULT_255_2_778
10
11.8517197
20
9.1219594
11
13.3148197
21
9.1217594
0
LINE
8
DEFAULT_255_2_778
10
13.9609197
20
8.3644594
11
13.9609197
21
4.3491594
0
LINE
8
DEFAULT_255_2_778
10
13.3148197
20
3.6810594
11
11.3506197
21
3.6810594
0
LINE
8
DEFAULT_255_2_778
10
10.7050197
20
4.3319594
11
10.7050197
21
6.6594594
0
LINE
8
DEFAULT_255_2_778
10
10.7050197
20
6.6594594
11
11.8546197
21
6.6616594
0
LINE
8
DEFAULT_255_2_778
10
11.8546197
20
6.6616594
11
11.8546197
21
4.9037594
0
LINE
8
DEFAULT_255_2_778
10
11.8546197
20
4.9037594
11
12.7410197
21
4.9037594
0
LINE
8
DEFAULT_255_2_778
10
12.7410197
20
4.9037594
11
12.7410197
21
7.8987594
0
LINE
8
DEFAULT_255_2_778
10
12.7410197
20
7.8987594
11
11.3503197
21
7.8985594
0
LINE
8
DEFAULT_255_2_778
10
10.7047197
20
8.5599594
11
10.7047197
21
12.3287594
0
LINE
8
DEFAULT_255_2_778
10
11.3503197
20
12.9883594
11
13.3170197
21
12.9883594
0
LINE
8
DEFAULT_255_2_778
10
13.9631197
20
12.3287594
11
13.9609197
21
10.7949594
0
ENDSEC
0
EOF