0
SECTION
2
HEADER
9
$MEASUREMENT
70
1
0
ENDSEC
0
SECTION
2
TABLES
0
TABLE
2
LTYPE
0
LTYPE
72
65
70
64
2
CONTINUOUS
3
______
73
0
40
0
0
ENDTAB
0
TABLE
2
LAYER
0
LAYER
2
DEFAULT_255_2_778
70
0
62
255
6
CONTINUOUS
0
ENDTAB
0
ENDSEC
0
SECTION
2
ENTITIES
0
ARC
8
DEFAULT_255_2_778
10
8.6795518
20
8.3361955
40
8.5182825
50
359.9756202
51
10.1092884
0
ARC
8
DEFAULT_255_2_778
10
8.7918364
20
8.3542331
40
8.4045752
50
10.1225908
51
23.4213846
0
ARC
8
DEFAULT_255_2_778
10
8.707547
20
8.3100276
40
8.4994939
50
23.4689706
51
64.9364585
0
ARC
8
DEFAULT_255_2_778
10
8.752841
20
8.394998
40
8.4033383
50
64.9707788
51
78.7359951
0
ARC
8
DEFAULT_255_2_778
10
8.7366843
20
8.3024466
40
8.4972631
50
78.7510488
51
89.2284631
0
ARC
8
DEFAULT_255_2_778
10
8.7312867
20
8.1656541
40
8.6341168
50
89.2048717
51
90.0003529
0
ARC
8
DEFAULT_255_2_778
10
8.7275979
20
8.2815474
40
8.5182242
50
89.9755457
51
100.10487
0
ARC
8
DEFAULT_255_2_778
10
8.7094135
20
8.3946638
40
8.4036723
50
100.1181238
51
113.4122783
0
ARC
8
DEFAULT_255_2_778
10
8.753724
20
8.3103632
40
8.4986421
50
113.46059
51
154.912793
0
ARC
8
DEFAULT_255_2_778
10
8.6708132
20
8.3545425
40
8.4048223
50
154.9459079
51
168.7023997
0
ARC
8
DEFAULT_255_2_778
10
8.7637865
20
8.3382282
40
8.4991902
50
168.7173366
51
179.1872991
0
ARC
8
DEFAULT_255_2_778
10
8.9008227
20
8.3327341
40
8.6362914
50
179.1637487
51
179.9586234
0
ARC
8
DEFAULT_255_2_778
10
2.1809935
20
1.7888422
40
1.9164611
50
180.0619247
51
205.1154428
0
ARC
8
DEFAULT_255_2_778
10
2.1904663
20
1.7939493
40
1.9272061
50
205.1333874
51
260.4471694
0
ARC
8
DEFAULT_255_2_778
10
2.1880944
20
1.8038957
40
1.9366251
50
260.5652052
51
270.0215398
0
LINE
8
DEFAULT_255_2_778
10
2.1888225
20
-0.1327294
11
2.1899336
21
-0.1327291
0
ARC
8
DEFAULT_255_2_778
10
8.7358895
20
8.3835884
40
8.5163175
50
269.9915507
51
280.123722
0
ARC
8
DEFAULT_255_2_778
10
8.7539596
20
8.2712962
40
8.4025977
50
280.1370138
51
293.4340749
0
ARC
8
DEFAULT_255_2_778
10
8.7095565
20
8.3558242
40
8.4978154
50
293.4821108
51
334.944326
0
ARC
8
DEFAULT_255_2_778
10
8.7931355
20
8.311302
40
8.4032478
50
334.9779872
51
348.7397293
0
ARC
8
DEFAULT_255_2_778
10
8.6998452
20
8.3276104
40
8.4979271
50
348.7547104
51
359.2287798
0
ARC
8
DEFAULT_255_2_778
10
8.5594875
20
8.3330465
40
8.6383461
50
359.2052571
51
0.0001616
0
LINE
8
DEFAULT_255_2_778
10
0.2645336
20
8.3389709
11
0.2645336
21
8.3389709
0
LINE
8
DEFAULT_255_2_778
10
0.2645336
20
8.3389709
11
0.2645336
21
1.7867709
0
LINE
8
DEFAULT_255_2_778
10
2.1899336
20
-0.1327291
11
8.7346336
21
-0.1327291
0
LINE
8
DEFAULT_255_2_778
10
17.1978336
20
8.3330709
11
17.1978336
21
8.3325709
0
ARC
8
DEFAULT_255_2_778
10
11.2129423
20
10.8151257
40
3.9770476
50
89.9517002
51
105.8257881
0
ARC
8
DEFAULT_255_2_778
10
11.2156911
20
10.8231082
40
3.9701201
50
105.8953708
51
134.3509485
0
ARC
8
DEFAULT_255_2_778
10
11.2130388
20
10.8176848
40
3.9721481
50
134.2689052
51
163.6718173
0
ARC
8
DEFAULT_255_2_778
10
11.215706
20
10.8220596
40
3.9734809
50
163.7431691
51
179.5327126
0
ARC
8
DEFAULT_255_2_778
10
11.3036325
20
10.8181684
40
4.0614375
50
179.4879355
51
179.9999513
0
ARC
8
DEFAULT_255_2_778
10
5.1415386
20
4.7166419
40
3.9954315
50
89.9490014
51
105.6637763
0
ARC
8
DEFAULT_255_2_778
10
5.1374916
20
4.7448811
40
3.9671501
50
105.7176115
51
132.7063334
0
ARC
8
DEFAULT_255_2_778
10
5.1273718
20
4.7486984
40
3.9574843
50
132.6361548
51
163.1895423
0
ARC
8
DEFAULT_255_2_778
10
5.1348617
20
4.7519675
40
3.9637123
50
163.2660899
51
179.2587756
0
ARC
8
DEFAULT_255_2_778
10
5.2269671
20
4.7472886
40
4.0558721
50
179.2095167
51
180.0002375
0
ARC
8
DEFAULT_255_2_778
10
5.1475355
20
4.7439304
40
3.9764419
50
179.9518545
51
195.8277822
0
ARC
8
DEFAULT_255_2_778
10
5.1403341
20
4.7469593
40
3.9703428
50
195.8981791
51
224.4944675
0
ARC
8
DEFAULT_255_2_778
10
5.1456737
20
4.7441593
40
3.9721934
50
224.4116796
51
253.7225617
0
ARC
8
DEFAULT_255_2_778
10
5.1414422
20
4.7475801
40
3.9742942
50
253.7949433
51
269.7917604
0
ARC
8
DEFAULT_255_2_778
10
5.1450455
20
4.8244799
40
4.0512079
50
269.7447533
51
270.0007
0
ARC
8
DEFAULT_255_2_778
10
5.1484401
20
4.7499958
40
3.9767253
50
269.951803
51
285.8272147
0
ARC
8
DEFAULT_255_2_778
10
5.1455545
20
4.7424272
40
3.9702337
50
285.8970692
51
314.3522569
0
ARC
8
DEFAULT_255_2_778
10
5.1481396
20
4.747961
40
3.9723876
50
314.2697982
51
343.6708722
0
ARC
8
DEFAULT_255_2_778
10
5.1460658
20
4.7434019
40
3.9730992
50
343.7423745
51
359.5324571
0
ARC
8
DEFAULT_255_2_778
10
5.0584822
20
4.7472753
40
4.0607127
50
359.4878903
51
359.9999512
0
ARC
8
DEFAULT_255_2_778
10
11.2199656
20
10.8747732
40
4.012203
50
269.9475816
51
285.5048756
0
ARC
8
DEFAULT_255_2_778
10
11.2292194
20
10.8305785
40
3.9671441
50
285.5467179
51
311.4748216
0
ARC
8
DEFAULT_255_2_778
10
11.2486211
20
10.8152951
40
3.9428459
50
311.4106698
51
342.8533588
0
ARC
8
DEFAULT_255_2_778
10
11.2383652
20
10.8125311
40
3.9518353
50
342.9354891
51
358.8429956
0
ARC
8
DEFAULT_255_2_778
10
11.1395241
20
10.8181294
40
4.0507707
50
358.7920569
51
0.0006001
0
ARC
8
DEFAULT_255_2_778
10
11.2143579
20
10.8215056
40
3.9759385
50
359.9519576
51
15.8299527
0
ARC
8
DEFAULT_255_2_778
10
11.2209202
20
10.8182696
40
3.9705108
50
15.9007107
51
44.4964303
0
ARC
8
DEFAULT_255_2_778
10
11.2154145
20
10.8209703
40
3.9725492
50
44.4129918
51
73.7211445
0
ARC
8
DEFAULT_255_2_778
10
11.2199224
20
10.8184436
40
3.9737142
50
73.7937482
51
89.7914009
0
ARC
8
DEFAULT_255_2_778
10
11.2163444
20
10.7420522
40
4.0501195
50
89.7447195
51
90.0007001
0
ARC
8
DEFAULT_255_2_778
10
5.1518905
20
4.7444644
40
2.0911048
50
336.3186449
51
359.9673226
0
ARC
8
DEFAULT_255_2_778
10
5.1432698
20
4.7496353
40
2.1010767
50
280.0325901
51
336.2839328
0
ARC
8
DEFAULT_255_2_778
10
5.1458949
20
4.760123
40
2.1109512
50
269.9864308
51
279.9128391
0
ARC
8
DEFAULT_255_2_778
10
5.1431092
20
4.7475752
40
2.0984046
50
245.9058129
51
270.0624118
0
ARC
8
DEFAULT_255_2_778
10
5.1449973
20
4.7552642
40
2.1061949
50
189.3125396
51
245.9443133
0
ARC
8
DEFAULT_255_2_778
10
5.1373411
20
4.7465757
40
2.0972464
50
179.9809819
51
189.1121478
0
ARC
8
DEFAULT_255_2_778
10
5.1384733
20
4.7482023
40
2.0983786
50
154.2923232
51
180.025407
0
ARC
8
DEFAULT_255_2_778
10
5.1623494
20
4.7419112
40
2.1226254
50
98.7707744
51
154.4188822
0
ARC
8
DEFAULT_255_2_778
10
5.144917
20
4.7815337
40
2.0808382
50
89.9868411
51
98.4627435
0
ARC
8
DEFAULT_255_2_778
10
6.9468982
20
6.5659752
40
0.2963968
50
0.0573355
51
89.9426451
0
ARC
8
DEFAULT_255_2_778
10
9.4146422
20
9.0083191
40
0.2962473
50
180.0478184
51
269.9715116
0
ARC
8
DEFAULT_255_2_778
10
11.2096415
20
10.8200937
40
2.0912469
50
156.3194614
51
179.967723
0
ARC
8
DEFAULT_255_2_778
10
11.2181971
20
10.8149051
40
2.1011663
50
100.0342894
51
156.2835899
0
ARC
8
DEFAULT_255_2_778
10
11.2156766
20
10.8041265
40
2.1113454
50
89.9913612
51
99.9159725
0
ARC
8
DEFAULT_255_2_778
10
11.2182675
20
10.8151444
40
2.1003287
50
65.8375879
51
90.0619932
0
ARC
8
DEFAULT_255_2_778
10
11.2177371
20
10.8094929
40
2.1057028
50
9.3144456
51
65.8873663
0
ARC
8
DEFAULT_255_2_778
10
11.2261311
20
10.8185712
40
2.095964
50
359.9808811
51
9.1066883
0
ARC
8
DEFAULT_255_2_778
10
11.2129642
20
10.8214784
40
2.1091338
50
337.0250156
51
359.9020267
0
ARC
8
DEFAULT_255_2_778
10
11.2107719
20
10.8246437
40
2.1123889
50
279.9370484
51
336.9691807
0
ARC
8
DEFAULT_255_2_778
10
11.2109885
20
10.843054
40
2.1304882
50
270.1346406
51
279.8458709
0
LINE
8
DEFAULT_255_2_778
10
7.2421949
20
10.8181718
11
7.2421949
21
8.7120718
0
LINE
8
DEFAULT_255_2_778
10
7.2421949
20
8.7120718
11
5.1450949
21
8.7120718
0
LINE
8
DEFAULT_255_2_778
10
9.1191949
20
4.7472718
11
9.1191949
21
6.8625718
0
LINE
8
DEFAULT_255_2_778
10
9.1191949
20
6.8625718
11
11.2162949
21
6.8625718
0
LINE
8
DEFAULT_255_2_778
10
11.2162949
20
14.7921718
11
11.2162949
21
14.7921718
0
LINE
8
DEFAULT_255_2_778
10
5.1453949
20
6.8623718
11
6.9471949
21
6.8623718
0
LINE
8
DEFAULT_255_2_778
10
7.2432949
20
6.5662718
11
7.2432949
21
4.7440718
0
LINE
8
DEFAULT_255_2_778
10
7.2432949
20
4.7440718
11
7.2429949
21
4.7432718
0
LINE
8
DEFAULT_255_2_778
10
11.2162949
20
8.7120718
11
9.4144949
21
8.7120718
0
LINE
8
DEFAULT_255_2_778
10
9.1183949
20
9.0080718
11
9.1183949
21
10.8212718
0
LINE
8
DEFAULT_255_2_778
10
11.2159949
20
8.7125718
11
11.2162949
21
8.7120718
0
ARC
8
DEFAULT_255_2_778
10
11.2196884
20
10.8223491
40
3.9766743
50
164.1644612
51
180.0378435
0
ARC
8
DEFAULT_255_2_778
10
11.2118323
20
10.8195546
40
3.969882
50
135.6412879
51
164.0947189
0
ARC
8
DEFAULT_255_2_778
10
11.2175143
20
10.8219555
40
3.97227
50
106.3252298
51
135.7233475
0
ARC
8
DEFAULT_255_2_778
10
11.2131356
20
10.81935
40
3.9735426
50
90.467307
51
106.254078
0
ARC
8
DEFAULT_255_2_778
10
11.2170186
20
10.7329163
40
4.0600063
50
90.0000509
51
90.5121542
0
ARC
8
DEFAULT_255_2_778
10
11.2392624
20
11.6444407
40
3.1485605
50
89.9995156
51
90.4048492
0
ARC
8
DEFAULT_255_2_778
10
11.2388872
20
11.6365576
40
3.1564438
50
74.25865
51
89.9927059
0
ARC
8
DEFAULT_255_2_778
10
11.7974181
20
13.5148711
40
1.1973748
50
40.2158729
51
75.5989211
0
ARC
8
DEFAULT_255_2_778
10
12.079442
20
13.7466439
40
0.8323836
50
0.9347098
51
40.5675097
0
ARC
8
DEFAULT_255_2_778
10
11.9860447
20
13.7501447
40
0.9257252
50
332.8710087
51
0.6237584
0
ARC
8
DEFAULT_255_2_778
10
12.0641858
20
13.7229749
40
0.8438694
50
286.9292231
51
332.0934835
0
ARC
8
DEFAULT_255_2_778
10
11.9807216
20
13.9638509
40
1.0986538
50
269.6085198
51
287.435434
0
ARC
8
DEFAULT_255_2_778
10
11.971857
20
14.7558525
40
1.8906304
50
266.9644009
51
270.0411549
0
ARC
8
DEFAULT_255_2_778
10
11.9995727
20
15.122717
40
2.2584628
50
263.0344191
51
266.7551271
0
ARC
8
DEFAULT_255_2_778
10
14.209661
20
33.6563487
40
20.9233948
50
262.9505418
51
263.1818921
0
ARC
8
DEFAULT_255_2_778
10
11.1679892
20
9.0771499
40
3.8432926
50
82.9181911
51
84.8634316
0
ARC
8
DEFAULT_255_2_778
10
11.2514582
20
9.9351066
40
2.9813151
50
84.9849087
51
87.495426
0
ARC
8
DEFAULT_255_2_778
10
11.2260839
20
9.3416862
40
3.5752775
50
87.504751
51
89.4322032
0
ARC
8
DEFAULT_255_2_778
10
11.2168906
20
8.673268
40
4.2437547
50
89.3975193
51
90.0050715
0
ARC
8
DEFAULT_255_2_778
10
11.2148128
20
10.8258012
40
2.0912221
50
89.9533623
51
113.5967821
0
ARC
8
DEFAULT_255_2_778
10
11.2199913
20
10.8171977
40
2.1011795
50
113.6322734
51
169.8733413
0
ARC
8
DEFAULT_255_2_778
10
11.2308853
20
10.8196746
40
2.1114727
50
169.991483
51
179.9145791
0
ARC
8
DEFAULT_255_2_778
10
9.2968468
20
9.00944
40
0.177432
50
179.9087637
51
180.0304108
0
ARC
8
DEFAULT_255_2_778
10
9.4160314
20
9.009485
40
0.2966167
50
180.0268736
51
224.9243342
0
ARC
8
DEFAULT_255_2_778
10
9.4155596
20
9.0092132
40
0.2960907
50
224.951558
51
269.991358
0
ARC
8
DEFAULT_255_2_778
10
10.7952499
20
7.7910977
40
0.9220257
50
44.9268269
51
90.0767365
0
ARC
8
DEFAULT_255_2_778
10
10.7970301
20
7.7895153
40
0.9218857
50
359.9258729
51
45.0745948
0
ARC
8
DEFAULT_255_2_778
10
10.7966392
20
7.7872344
40
0.9222765
50
314.2708228
51
0.067602
0
ARC
8
DEFAULT_255_2_778
10
10.7953695
20
7.7849582
40
0.9215362
50
269.9282195
51
314.4261386
0
ARC
8
DEFAULT_255_2_778
10
5.1436406
20
4.7453318
40
3.9762755
50
344.1681685
51
0.0430959
0
ARC
8
DEFAULT_255_2_778
10
5.1512945
20
4.7482255
40
3.9697043
50
315.5006054
51
344.0978486
0
ARC
8
DEFAULT_255_2_778
10
5.1456591
20
4.7457787
40
3.972013
50
286.2731161
51
315.5827559
0
ARC
8
DEFAULT_255_2_778
10
5.1495845
20
4.7501219
40
3.9750853
50
270.2079561
51
286.2012608
0
ARC
8
DEFAULT_255_2_778
10
5.1459645
20
4.8262296
40
4.0512069
50
269.9993
51
270.2552467
0
ARC
8
DEFAULT_255_2_778
10
5.124578
20
3.9453807
40
3.1704299
50
270.0005609
51
270.3856039
0
ARC
8
DEFAULT_255_2_778
10
5.124566
20
3.9353554
40
3.1604046
50
254.2690362
51
270.0007796
0
ARC
8
DEFAULT_255_2_778
10
4.5628593
20
2.0489866
40
1.1927571
50
220.1560963
51
255.6735033
0
ARC
8
DEFAULT_255_2_778
10
4.2844625
20
1.8211301
40
0.8330603
50
180.9428096
51
220.5262428
0
ARC
8
DEFAULT_255_2_778
10
4.3776218
20
1.8174969
40
0.9261616
50
152.8799412
51
180.6232476
0
ARC
8
DEFAULT_255_2_778
10
4.2990038
20
1.8449893
40
0.8437313
50
106.9497258
51
152.1078852
0
ARC
8
DEFAULT_255_2_778
10
4.3819418
20
1.6057248
40
1.0968233
50
89.6096138
51
107.4502713
0
ARC
8
DEFAULT_255_2_778
10
4.3907967
20
0.8009832
40
1.9015399
50
86.9584288
51
90.0416321
0
ARC
8
DEFAULT_255_2_778
10
4.3627289
20
0.4305234
40
2.2729826
50
83.0257632
51
86.7474063
0
ARC
8
DEFAULT_255_2_778
10
2.1120001
20
-18.4393004
40
21.2765529
50
82.9551149
51
83.1796788
0
ARC
8
DEFAULT_255_2_778
10
5.1967059
20
6.5016013
40
3.8543846
50
262.9180381
51
264.8565725
0
ARC
8
DEFAULT_255_2_778
10
5.1116197
20
5.6271325
40
2.9758158
50
264.9787998
51
267.501177
0
ARC
8
DEFAULT_255_2_778
10
5.136738
20
6.2154397
40
3.5646587
50
267.5100982
51
269.4332089
0
ARC
8
DEFAULT_255_2_778
10
5.1458653
20
6.8826387
40
4.2319162
50
269.3989988
51
270.0047337
0
ARC
8
DEFAULT_255_2_778
10
5.1484607
20
4.7418845
40
2.0911631
50
269.9384693
51
293.5862545
0
ARC
8
DEFAULT_255_2_778
10
5.1432798
20
4.750516
40
2.1011469
50
293.6215505
51
349.8704054
0
ARC
8
DEFAULT_255_2_778
10
5.1326187
20
4.7479693
40
2.1111984
50
349.989331
51
359.9146023
0
ARC
8
DEFAULT_255_2_778
10
6.9474182
20
6.566726
40
0.2963969
50
0.0573355
51
89.9426314
0
ARC
8
DEFAULT_255_2_778
10
5.5646222
20
7.7982501
40
0.9351403
50
270.0000383
51
270.2997811
0
ARC
8
DEFAULT_255_2_778
10
5.5645385
20
7.7868217
40
0.923712
50
225.1348963
51
270.0052317
0
ARC
8
DEFAULT_255_2_778
10
5.5645284
20
7.7864111
40
0.923414
50
180.0010303
51
225.11737
0
ARC
8
DEFAULT_255_2_778
10
5.4364213
20
7.7863945
40
0.7953071
50
179.9187288
51
179.9999994
0
ARC
8
DEFAULT_255_2_778
10
5.5564485
20
7.7908662
40
0.9153397
50
140.0383215
51
180.2092929
0
ARC
8
DEFAULT_255_2_778
10
5.5726101
20
7.7746481
40
0.9381459
50
93.7520952
51
139.9130859
0
ARC
8
DEFAULT_255_2_778
10
5.5789192
20
7.732339
40
0.9807836
50
89.9944056
51
93.9581316
0
LINE
8
DEFAULT_255_2_778
10
7.243015
20
8.7131226
11
7.243015
21
10.8197226
0
LINE
8
DEFAULT_255_2_778
10
9.119415
20
10.8228226
11
9.119415
21
9.0097226
0
LINE
8
DEFAULT_255_2_778
10
9.415515
20
8.7131226
11
10.794015
21
8.7131226
0
LINE
8
DEFAULT_255_2_778
10
10.794215
20
6.8634226
11
9.119915
21
6.8634226
0
LINE
8
DEFAULT_255_2_778
10
9.119915
20
6.8634226
11
9.119915
21
4.7483226
0
LINE
8
DEFAULT_255_2_778
10
7.243815
20
4.7448226
11
7.243815
21
6.5670226
0
LINE
8
DEFAULT_255_2_778
10
6.947715
20
6.8631226
11
5.569515
21
6.8631226
0
LINE
8
DEFAULT_255_2_778
10
5.579015
20
8.7131226
11
7.243215
21
8.7131226
0
LINE
8
DEFAULT_255_2_778
10
7.243215
20
8.7131226
11
7.243015
21
8.7131226
0
ENDSEC
0
EOF