0
SECTION
2
HEADER
9
$MEASUREMENT
70
1
0
ENDSEC
0
SECTION
2
TABLES
0
TABLE
2
LTYPE
0
LTYPE
72
65
70
64
2
CONTINUOUS
3
______
73
0
40
0
0
ENDTAB
0
TABLE
2
LAYER
0
LAYER
2
DEFAULT_255_2_778
70
0
62
255
6
CONTINUOUS
0
ENDTAB
0
ENDSEC
0
SECTION
2
ENTITIES
0
ARC
8
DEFAULT_255_2_778
10
23.1025926
20
3.7233814
40
0.8029452
50
248.4511671
51
270.6010084
0
ARC
8
DEFAULT_255_2_778
10
23.1566766
20
3.7592055
40
0.8569355
50
198.8222143
51
245.9667745
0
ARC
8
DEFAULT_255_2_778
10
23.842298
20
4.0521911
40
1.6014029
50
182.2508068
51
200.8303042
0
ARC
8
DEFAULT_255_2_778
10
24.1005993
20
4.0779956
40
1.8605842
50
179.9973877
51
182.7324404
0
ARC
8
DEFAULT_255_2_778
10
24.00042
20
4.1047409
40
1.7606068
50
161.9823316
51
180.8676523
0
ARC
8
DEFAULT_255_2_778
10
23.0932108
20
4.430442
40
0.7976752
50
109.8577496
51
164.0744381
0
ARC
8
DEFAULT_255_2_778
10
23.1003963
20
4.3194303
40
0.905056
50
89.6469164
51
107.8979799
0
ARC
8
DEFAULT_255_2_778
10
23.1110108
20
4.0917398
40
1.1327405
50
89.9997868
51
90.254787
0
ARC
8
DEFAULT_255_2_778
10
23.1208467
20
4.349413
40
0.8751226
50
71.950136
51
90.6437133
0
ARC
8
DEFAULT_255_2_778
10
23.1244525
20
4.4521156
40
0.7768763
50
16.0349453
51
69.8556034
0
ARC
8
DEFAULT_255_2_778
10
22.2140889
20
4.1195824
40
1.7450049
50
0.5456501
51
18.2725578
0
ARC
8
DEFAULT_255_2_778
10
21.565559
20
4.0782846
40
2.3941561
50
359.9951124
51
1.3861491
0
ARC
8
DEFAULT_255_2_778
10
22.1255799
20
4.0498391
40
1.8343525
50
342.3400186
51
0.8821493
0
ARC
8
DEFAULT_255_2_778
10
23.0515696
20
3.7399701
40
0.8581172
50
306.1806875
51
343.2982462
0
ARC
8
DEFAULT_255_2_778
10
23.1531588
20
3.6491261
40
0.7253752
50
277.5904198
51
303.9392025
0
ARC
8
DEFAULT_255_2_778
10
23.1134609
20
3.8788099
40
0.9583326
50
269.853768
51
278.1291655
0
ARC
8
DEFAULT_255_2_778
10
19.7152863
20
4.3710132
40
1.0526337
50
169.7575152
51
175.4192678
0
ARC
8
DEFAULT_255_2_778
10
19.6920134
20
4.37656
40
1.0287461
50
161.6170973
51
169.8310416
0
ARC
8
DEFAULT_255_2_778
10
19.6097788
20
4.4027418
40
0.9424518
50
158.2999614
51
161.5509421
0
ARC
8
DEFAULT_255_2_778
10
19.4516142
20
4.4748927
40
0.7688659
50
134.3041239
51
158.9376238
0
ARC
8
DEFAULT_255_2_778
10
19.3849587
20
4.5317078
40
0.6816972
50
112.288614
51
133.6302002
0
ARC
8
DEFAULT_255_2_778
10
19.4410278
20
4.3910401
40
0.8331215
50
97.4374902
51
112.1874168
0
ARC
8
DEFAULT_255_2_778
10
19.4787461
20
4.133465
40
1.0934196
50
89.8444296
51
97.6502026
0
ARC
8
DEFAULT_255_2_778
10
19.4939539
20
4.2458731
40
0.9810836
50
75.7484599
51
90.7147745
0
ARC
8
DEFAULT_255_2_778
10
19.5774917
20
4.5907362
40
0.626281
50
20.9388463
51
75.3887983
0
ARC
8
DEFAULT_255_2_778
10
18.8759847
20
4.2635108
40
1.3994812
50
11.5200267
51
23.1877978
0
ARC
8
DEFAULT_255_2_778
10
18.0749458
20
4.0763283
40
2.2218891
50
9.8147969
51
12.1243771
0
ARC
8
DEFAULT_255_2_778
10
16.1827366
20
4.371472
40
1.0477628
50
169.7348855
51
175.4231004
0
ARC
8
DEFAULT_255_2_778
10
16.1542999
20
4.3779354
40
1.0186304
50
161.5551587
51
169.8075805
0
ARC
8
DEFAULT_255_2_778
10
16.0721752
20
4.4041734
40
0.9324236
50
158.1493394
51
161.4879677
0
ARC
8
DEFAULT_255_2_778
10
15.9213847
20
4.473211
40
0.7668126
50
134.5290832
51
158.7437591
0
ARC
8
DEFAULT_255_2_778
10
15.8606222
20
4.5241501
40
0.6879294
50
112.8876947
51
133.896495
0
ARC
8
DEFAULT_255_2_778
10
15.9184936
20
4.3837744
40
0.8397617
50
98.3354169
51
112.8003171
0
ARC
8
DEFAULT_255_2_778
10
15.9613222
20
4.1128305
40
1.1140564
50
89.8049365
51
98.4947479
0
ARC
8
DEFAULT_255_2_778
10
15.9773625
20
4.2456406
40
0.9813162
50
75.7501403
51
90.715107
0
ARC
8
DEFAULT_255_2_778
10
16.0609823
20
4.5908285
40
0.6261785
50
20.9334011
51
75.3913352
0
ARC
8
DEFAULT_255_2_778
10
15.3590555
20
4.2634787
40
1.3998113
50
11.5186164
51
23.1834407
0
ARC
8
DEFAULT_255_2_778
10
14.557365
20
4.0761679
40
2.2228827
50
9.8145619
51
12.1231047
0
ARC
8
DEFAULT_255_2_778
10
22.9063835
20
4.7720746
40
1.1968783
50
33.7014108
51
82.9754654
0
ARC
8
DEFAULT_255_2_778
10
22.8335427
20
4.5130688
40
1.4634118
50
81.3849329
51
90.0128303
0
ARC
8
DEFAULT_255_2_778
10
22.8244865
20
4.3307527
40
1.6457508
50
89.6961195
51
104.7158806
0
ARC
8
DEFAULT_255_2_778
10
22.7650393
20
4.5651789
40
1.4039148
50
104.799677
51
131.415832
0
ARC
8
DEFAULT_255_2_778
10
22.9947719
20
4.3466905
40
1.7199618
50
132.3402438
51
162.4644672
0
ARC
8
DEFAULT_255_2_778
10
23.5576543
20
4.135941
40
2.3203972
50
161.6900674
51
175.1064885
0
ARC
8
DEFAULT_255_2_778
10
19.0447336
20
4.082583
40
2.2152809
50
6.5135501
51
26.2551732
0
ARC
8
DEFAULT_255_2_778
10
19.5896185
20
4.3683639
40
1.6002623
50
25.7088969
51
69.6097636
0
ARC
8
DEFAULT_255_2_778
10
19.5416239
20
4.1958974
40
1.7787081
50
70.0962387
51
85.2517375
0
ARC
8
DEFAULT_255_2_778
10
19.505576
20
3.8676918
40
2.1087894
50
85.013839
51
90.0451303
0
ARC
8
DEFAULT_255_2_778
10
19.4956006
20
4.0095318
40
1.9669662
50
89.7578104
51
106.2649606
0
ARC
8
DEFAULT_255_2_778
10
19.4289734
20
4.2363899
40
1.7305267
50
106.2509808
51
138.2444609
0
ARC
8
DEFAULT_255_2_778
10
19.5256612
20
4.1641791
40
1.850774
50
138.5701631
51
165.574076
0
ARC
8
DEFAULT_255_2_778
10
19.7190947
20
4.1016964
40
2.0537119
50
165.2302811
51
170.091753
0
ARC
8
DEFAULT_255_2_778
10
15.6379823
20
4.1255925
40
2.0842411
50
9.0957788
51
30.4880138
0
ARC
8
DEFAULT_255_2_778
10
16.0676852
20
4.3831484
40
1.5832827
50
30.3457294
51
69.9200123
0
ARC
8
DEFAULT_255_2_778
10
16.0106832
20
4.1990987
40
1.7757418
50
70.2314774
51
85.5675851
0
ARC
8
DEFAULT_255_2_778
10
15.9776074
20
3.8867014
40
2.0897795
50
85.325386
51
90.0381765
0
ARC
8
DEFAULT_255_2_778
10
15.9681037
20
4.0041616
40
1.9723355
50
89.7643689
51
106.0332021
0
ARC
8
DEFAULT_255_2_778
10
15.901761
20
4.2328204
40
1.7342477
50
106.0131195
51
136.3839387
0
ARC
8
DEFAULT_255_2_778
10
15.9826487
20
4.1713561
40
1.835243
50
136.7367017
51
164.8070551
0
ARC
8
DEFAULT_255_2_778
10
16.2648997
20
4.0872035
40
2.1296952
50
164.6122278
51
180.180873
0
ARC
8
DEFAULT_255_2_778
10
16.4802854
20
4.0700788
40
2.3450935
50
179.7458647
51
193.1144028
0
ARC
8
DEFAULT_255_2_778
10
16.00546
20
3.9550666
40
1.8565611
50
192.9824253
51
213.0128588
0
ARC
8
DEFAULT_255_2_778
10
15.8103349
20
3.8381423
40
1.6292566
50
213.3034339
51
250.50417
0
ARC
8
DEFAULT_255_2_778
10
15.9350524
20
4.1723709
40
1.9859547
50
250.3304307
51
265.3395381
0
ARC
8
DEFAULT_255_2_778
10
15.9745334
20
4.5332135
40
2.3488337
50
265.0948322
51
270.0410207
0
ARC
8
DEFAULT_255_2_778
10
15.9929843
20
4.4697382
40
2.2854194
50
269.579588
51
282.0591135
0
ARC
8
DEFAULT_255_2_778
10
16.1824727
20
3.68207
40
1.4756908
50
281.2535676
51
324.2345022
0
ARC
8
DEFAULT_255_2_778
10
15.8541068
20
3.9128212
40
1.877005
50
324.3775013
51
337.4231138
0
ARC
8
DEFAULT_255_2_778
10
15.3480371
20
4.1357281
40
2.4298986
50
337.1511755
51
342.3005407
0
ARC
8
DEFAULT_255_2_778
10
16.4320589
20
3.5067993
40
0.3782491
50
334.0420602
51
343.1219961
0
ARC
8
DEFAULT_255_2_778
10
16.2437175
20
3.6109309
40
0.593275
50
310.6582264
51
332.9615841
0
ARC
8
DEFAULT_255_2_778
10
16.0442754
20
3.8312139
40
0.8903633
50
290.8685551
51
311.1585179
0
ARC
8
DEFAULT_255_2_778
10
16.0115825
20
3.9041808
40
0.9702004
50
269.9901065
51
291.1375886
0
ARC
8
DEFAULT_255_2_778
10
15.997259
20
4.2075022
40
1.2736004
50
257.1045311
51
270.6368521
0
ARC
8
DEFAULT_255_2_778
10
15.8459589
20
3.6258298
40
0.6730643
50
203.3697887
51
258.6089408
0
ARC
8
DEFAULT_255_2_778
10
16.2122232
20
3.788886
40
1.0739692
50
188.7404623
51
203.6043098
0
ARC
8
DEFAULT_255_2_778
10
16.8651832
20
3.9012251
40
1.7364573
50
181.7274166
51
189.1301922
0
ARC
8
DEFAULT_255_2_778
10
19.7483857
20
4.0238492
40
2.0795445
50
184.8264621
51
200.5961606
0
ARC
8
DEFAULT_255_2_778
10
19.3367798
20
3.8554767
40
1.6350674
50
200.147046
51
249.1492541
0
ARC
8
DEFAULT_255_2_778
10
19.4568274
20
4.1664889
40
1.9684413
50
249.1060084
51
264.4306796
0
ARC
8
DEFAULT_255_2_778
10
19.5036392
20
4.5466778
40
2.3513986
50
264.194481
51
270.0578897
0
ARC
8
DEFAULT_255_2_778
10
19.5227843
20
4.4806382
40
2.2854194
50
269.579588
51
282.0591135
0
ARC
8
DEFAULT_255_2_778
10
19.7122727
20
3.69297
40
1.4756908
50
281.2535676
51
324.2345022
0
ARC
8
DEFAULT_255_2_778
10
19.3839068
20
3.9237212
40
1.877005
50
324.3775013
51
337.4231138
0
ARC
8
DEFAULT_255_2_778
10
18.8778371
20
4.1466281
40
2.4298986
50
337.1511755
51
342.3005407
0
ARC
8
DEFAULT_255_2_778
10
19.9597589
20
3.5176993
40
0.3782491
50
334.0420602
51
343.1219961
0
ARC
8
DEFAULT_255_2_778
10
19.7714175
20
3.6218309
40
0.593275
50
310.6582264
51
332.9615841
0
ARC
8
DEFAULT_255_2_778
10
19.5719754
20
3.8421139
40
0.8903633
50
290.8685551
51
311.1585179
0
ARC
8
DEFAULT_255_2_778
10
19.5392825
20
3.9150808
40
0.9702004
50
269.9901065
51
291.1375886
0
ARC
8
DEFAULT_255_2_778
10
19.52495
20
4.2186546
40
1.273853
50
257.105797
51
270.6371292
0
ARC
8
DEFAULT_255_2_778
10
19.3735767
20
3.6366465
40
0.6729739
50
203.3653862
51
258.6112349
0
ARC
8
DEFAULT_255_2_778
10
19.7400222
20
3.7997584
40
1.0740669
50
188.7381688
51
203.6004224
0
ARC
8
DEFAULT_255_2_778
10
20.3933867
20
3.9121422
40
1.7369613
50
181.7274806
51
189.1280928
0
ARC
8
DEFAULT_255_2_778
10
23.5712003
20
4.0712664
40
2.3307002
50
185.2061371
51
203.7194105
0
ARC
8
DEFAULT_255_2_778
10
22.832857
20
3.7101871
40
1.5098537
50
202.4452758
51
249.8995444
0
ARC
8
DEFAULT_255_2_778
10
22.826128
20
3.7837933
40
1.5769811
50
251.0482809
51
267.4286262
0
ARC
8
DEFAULT_255_2_778
10
22.8477447
20
4.0461999
40
1.8401195
50
267.1227865
51
270.0146427
0
ARC
8
DEFAULT_255_2_778
10
22.8678048
20
3.7310908
40
1.5251362
50
269.2640365
51
288.6140714
0
ARC
8
DEFAULT_255_2_778
10
23.0108713
20
3.2974414
40
1.0685091
50
288.7660805
51
327.8893516
0
ARC
8
DEFAULT_255_2_778
10
22.9034587
20
3.3725864
40
1.1994518
50
327.5762864
51
329.7525771
0
ARC
8
DEFAULT_255_2_778
10
14.5850208
20
6.1089038
40
0.8002218
50
168.4148027
51
180.9754836
0
ARC
8
DEFAULT_255_2_778
10
14.0705367
20
6.2254537
40
0.2730289
50
126.8839745
51
170.6931907
0
ARC
8
DEFAULT_255_2_778
10
14.0955924
20
6.1507565
40
0.3486963
50
94.1796707
51
122.8068328
0
ARC
8
DEFAULT_255_2_778
10
14.1560588
20
5.7101879
40
0.7930015
50
89.7286042
51
96.2172381
0
ARC
8
DEFAULT_255_2_778
10
14.1523507
20
3.9478947
40
2.5552966
50
86.3336166
51
89.8326331
0
ARC
8
DEFAULT_255_2_778
10
13.847469
20
-0.6190117
40
7.1323627
50
84.6373583
51
86.2354615
0
ARC
8
DEFAULT_255_2_778
10
27.0265056
20
146.6790649
40
140.7541866
50
264.8999152
51
264.9038227
0
ARC
8
DEFAULT_255_2_778
10
13.9950902
20
5.4696608
40
1.7834506
50
89.661874
51
100.8235755
0
ARC
8
DEFAULT_255_2_778
10
13.8884817
20
6.0106263
40
1.2320934
50
100.6781854
51
117.1764364
0
ARC
8
DEFAULT_255_2_778
10
13.7634479
20
6.2649136
40
0.9487841
50
117.4729832
51
171.872503
0
ARC
8
DEFAULT_255_2_778
10
14.1856043
20
6.1661021
40
1.3811963
50
170.2903133
51
180.1834268
0
ARC
8
DEFAULT_255_2_778
10
26.8854064
20
2.2840228
40
0.4897604
50
358.52377
51
24.5716606
0
ARC
8
DEFAULT_255_2_778
10
26.5871847
20
2.2673186
40
0.7878302
50
359.9972238
51
0.2972286
0
ARC
8
DEFAULT_255_2_778
10
26.950871
20
2.2366274
40
0.4252502
50
288.0214993
51
4.1335951
0
ARC
8
DEFAULT_255_2_778
10
26.9518184
20
2.2882828
40
0.4743787
50
274.5214766
51
285.9820777
0
ARC
8
DEFAULT_255_2_778
10
26.881896
20
3.7389147
40
1.9265258
50
269.9597701
51
273.1933698
0
ARC
8
DEFAULT_255_2_778
10
26.9471046
20
5.6561701
40
3.844357
50
262.280618
51
269.0079305
0
ARC
8
DEFAULT_255_2_778
10
36.2995203
20
86.4114814
40
85.1387316
50
263.3381024
51
263.3436376
0
ARC
8
DEFAULT_255_2_778
10
-29.4539866
20
-476.7790931
40
481.8772708
50
83.3412335
51
83.3420284
0
ARC
8
DEFAULT_255_2_778
10
27.0141446
20
6.4883663
40
5.4883866
50
263.7423746
51
266.9326472
0
ARC
8
DEFAULT_255_2_778
10
27.0250505
20
6.6173608
40
5.6177811
50
266.8919756
51
269.9721008
0
ARC
8
DEFAULT_255_2_778
10
27.0358806
20
3.1358734
40
2.136336
50
269.6361736
51
278.2292189
0
ARC
8
DEFAULT_255_2_778
10
27.1659611
20
2.2761122
40
1.2668212
50
277.9723068
51
293.5365754
0
ARC
8
DEFAULT_255_2_778
10
27.2645059
20
2.0138418
40
0.9871228
50
294.371685
51
331.6630303
0
ARC
8
DEFAULT_255_2_778
10
26.6208854
20
2.400004
40
1.7372536
50
330.5287364
51
340.3348987
0
ARC
8
DEFAULT_255_2_778
10
4.4673956
20
2.2287888
40
0.1795234
50
277.105018
51
317.5760588
0
ARC
8
DEFAULT_255_2_778
10
4.4861033
20
2.1467589
40
0.0961785
50
270.0069574
51
272.0838331
0
ARC
8
DEFAULT_255_2_778
10
4.1252767
20
2.2112135
40
0.1606944
50
227.1615252
51
271.5826809
0
ARC
8
DEFAULT_255_2_778
10
3.6989488
20
2.64218
40
0.1640337
50
179.9998621
51
227.6352534
0
ARC
8
DEFAULT_255_2_778
10
3.6989486
20
2.6421809
40
0.1640336
50
132.3647291
51
180.0001873
0
ARC
8
DEFAULT_255_2_778
10
5.5775423
20
4.5209101
40
0.1638702
50
89.974591
51
137.6604621
0
ARC
8
DEFAULT_255_2_778
10
5.5776115
20
4.5209639
40
0.1638165
50
42.3312423
51
89.9987808
0
ARC
8
DEFAULT_255_2_778
10
6.146272
20
3.913632
40
0.192414
50
3.5183986
51
38.1840585
0
ARC
8
DEFAULT_255_2_778
10
6.1491359
20
3.9134654
40
0.189566
50
0.0061844
51
3.6217786
0
ARC
8
DEFAULT_255_2_778
10
6.1835801
20
3.9091529
40
0.1551824
50
309.9448814
51
1.6000318
0
ARC
8
DEFAULT_255_2_778
10
5.7443226
20
0.9337237
40
0.1572858
50
314.8847771
51
315.038385
0
ARC
8
DEFAULT_255_2_778
10
5.722137
20
0.9449992
40
0.1810971
50
277.8888508
51
317.3413624
0
ARC
8
DEFAULT_255_2_778
10
5.7419015
20
0.8612738
40
0.0957934
50
270.0080465
51
273.0466792
0
ARC
8
DEFAULT_255_2_778
10
5.3806763
20
0.9258281
40
0.1604119
50
227.0680458
51
271.6213606
0
ARC
8
DEFAULT_255_2_778
10
4.9533482
20
1.3567796
40
0.164033
50
179.9997202
51
227.6353036
0
ARC
8
DEFAULT_255_2_778
10
4.9533482
20
1.3567812
40
0.1640332
50
132.3646964
51
180.0002798
0
ARC
8
DEFAULT_255_2_778
10
5.562676
20
1.9662543
40
0.1639262
50
89.9863671
51
137.6045805
0
ARC
8
DEFAULT_255_2_778
10
5.5626863
20
1.9658736
40
0.1643068
50
42.4540132
51
89.9899777
0
ARC
8
DEFAULT_255_2_778
10
6.2196579
20
1.3797551
40
0.1167237
50
357.440666
51
57.3010031
0
ARC
8
DEFAULT_255_2_778
10
6.1738472
20
1.3748351
40
0.1624181
50
348.4197894
51
359.8969287
0
ARC
8
DEFAULT_255_2_778
10
6.1542725
20
1.3796038
40
0.1825531
50
314.7157374
51
348.1868401
0
ARC
8
DEFAULT_255_2_778
10
3.2131168
20
3.4811227
40
0.1796783
50
277.1563104
51
317.6065303
0
ARC
8
DEFAULT_255_2_778
10
3.2320089
20
3.3983544
40
0.095574
50
270.0036739
51
272.0936896
0
ARC
8
DEFAULT_255_2_778
10
2.8570763
20
3.4631281
40
0.1604119
50
227.0680458
51
271.6213606
0
ARC
8
DEFAULT_255_2_778
10
2.4305231
20
3.8943362
40
0.1637081
50
179.949524
51
227.6855494
0
ARC
8
DEFAULT_255_2_778
10
2.430632
20
3.8944765
40
0.163817
50
132.3312925
51
179.9986388
0
ARC
8
DEFAULT_255_2_778
10
5.5778142
20
7.0440472
40
0.164033
50
89.9997202
51
137.6353036
0
ARC
8
DEFAULT_255_2_778
10
5.5778158
20
7.0440472
40
0.1640332
50
42.3646964
51
90.0002798
0
ARC
8
DEFAULT_255_2_778
10
6.1871818
20
6.4346812
40
0.164033
50
359.9997202
51
47.6353036
0
ARC
8
DEFAULT_255_2_778
10
6.1871818
20
6.4346796
40
0.1640332
50
312.3646964
51
0.0002798
0
ARC
8
DEFAULT_255_2_778
10
5.5696797
20
8.1103527
40
1.2079163
50
45.8517059
51
68.2215902
0
ARC
8
DEFAULT_255_2_778
10
5.5647222
20
8.0969557
40
1.2221966
50
68.2387906
51
88.9599884
0
ARC
8
DEFAULT_255_2_778
10
5.5645401
20
8.0966066
40
1.2225489
50
88.9517499
51
89.9994169
0
ARC
8
DEFAULT_255_2_778
10
5.5598688
20
8.1364347
40
1.18273
50
89.7731054
51
128.1503816
0
ARC
8
DEFAULT_255_2_778
10
5.549115
20
8.15698
40
1.1599382
50
128.3595559
51
135.0069711
0
ARC
8
DEFAULT_255_2_778
10
1.3222292
20
3.9038734
40
1.1802142
50
134.5402478
51
179.9948064
0
ARC
8
DEFAULT_255_2_778
10
1.3220573
20
3.9040153
40
1.1800423
50
180.0016932
51
225.463244
0
ARC
8
DEFAULT_255_2_778
10
4.2927242
20
0.9463034
40
1.1913372
50
228.4611237
51
269.7206152
0
ARC
8
DEFAULT_255_2_778
10
6.8394533
20
0.8967811
40
1.1418695
50
269.3708531
51
316.5422107
0
ARC
8
DEFAULT_255_2_778
10
9.7971366
20
3.8819084
40
1.1591647
50
315.0017626
51
340.3291062
0
ARC
8
DEFAULT_255_2_778
10
9.7546671
20
3.8969636
40
1.2042236
50
340.3347837
51
0.0525421
0
ARC
8
DEFAULT_255_2_778
10
9.7370383
20
3.8980664
40
1.2218517
50
0.0000705
51
1.0490558
0
ARC
8
DEFAULT_255_2_778
10
9.7414701
20
3.8990551
40
1.217403
50
1.0063479
51
33.2678542
0
ARC
8
DEFAULT_255_2_778
10
9.7468979
20
3.9007982
40
1.2119095
50
33.3397195
51
44.1262751
0
LINE
8
DEFAULT_255_2_778
10
20.264315
20
4.4550804
11
18.666015
21
4.4550804
0
LINE
8
DEFAULT_255_2_778
10
16.747715
20
4.4550804
11
15.138315
21
4.4550804
0
LINE
8
DEFAULT_255_2_778
10
23.913215
20
5.4361804
11
23.902115
21
5.4361804
0
LINE
8
DEFAULT_255_2_778
10
17.662915
20
3.3969804
11
16.794015
21
3.3969804
0
LINE
8
DEFAULT_255_2_778
10
15.129515
20
3.8488804
11
17.676215
21
3.8488804
0
LINE
8
DEFAULT_255_2_778
10
21.192715
20
3.4078804
11
20.321715
21
3.4078804
0
LINE
8
DEFAULT_255_2_778
10
18.657215
20
3.8597804
11
21.250115
21
3.8597804
0
LINE
8
DEFAULT_255_2_778
10
23.939615
20
2.7683804
11
23.950815
21
2.7683804
0
LINE
8
DEFAULT_255_2_778
10
23.950815
20
2.7683804
11
23.950815
21
2.3053804
0
LINE
8
DEFAULT_255_2_778
10
23.950815
20
2.3053804
11
24.887915
21
2.3053804
0
LINE
8
DEFAULT_255_2_778
10
24.887915
20
2.3053804
11
24.887915
21
7.2419804
0
LINE
8
DEFAULT_255_2_778
10
24.887915
20
7.2419804
11
23.892815
21
7.2419804
0
LINE
8
DEFAULT_255_2_778
10
23.892815
20
7.2419804
11
23.892815
21
5.4340804
0
LINE
8
DEFAULT_255_2_778
10
23.892815
20
5.4340804
11
23.913215
21
5.4361804
0
LINE
8
DEFAULT_255_2_778
10
14.468315
20
5.8748804
11
13.784915
21
5.8748804
0
LINE
8
DEFAULT_255_2_778
10
13.784915
20
5.8748804
11
13.784915
21
6.0952804
0
LINE
8
DEFAULT_255_2_778
10
14.523615
20
6.4812804
11
14.523615
21
7.2199804
0
LINE
8
DEFAULT_255_2_778
10
14.523615
20
7.2199804
11
14.005615
21
7.2530804
0
LINE
8
DEFAULT_255_2_778
10
12.804415
20
6.1616804
11
12.804415
21
5.8859804
0
LINE
8
DEFAULT_255_2_778
10
12.804415
20
5.8859804
11
12.209115
21
5.8859804
0
LINE
8
DEFAULT_255_2_778
10
12.209115
20
5.8859804
11
12.209115
21
5.2244804
0
LINE
8
DEFAULT_255_2_778
10
12.209115
20
5.2244804
11
12.804415
21
5.2244804
0
LINE
8
DEFAULT_255_2_778
10
12.804415
20
5.2244804
11
12.804415
21
2.2809804
0
LINE
8
DEFAULT_255_2_778
10
12.804415
20
2.2809804
11
13.796615
21
2.2809804
0
LINE
8
DEFAULT_255_2_778
10
13.796615
20
2.2809804
11
13.796615
21
5.2133804
0
LINE
8
DEFAULT_255_2_778
10
13.796615
20
5.2133804
11
14.480015
21
5.2133804
0
LINE
8
DEFAULT_255_2_778
10
14.480015
20
5.2133804
11
14.480015
21
5.8748804
0
LINE
8
DEFAULT_255_2_778
10
14.480015
20
5.8748804
11
14.468315
21
5.8748804
0
LINE
8
DEFAULT_255_2_778
10
28.733115
20
5.8748804
11
27.950515
21
3.4054804
0
LINE
8
DEFAULT_255_2_778
10
27.950515
20
3.4054804
11
27.939315
21
3.4054804
0
LINE
8
DEFAULT_255_2_778
10
27.939315
20
3.4054804
11
27.123615
21
5.8748804
0
LINE
8
DEFAULT_255_2_778
10
27.123615
20
5.8748804
11
26.118215
21
5.8748804
0
LINE
8
DEFAULT_255_2_778
10
26.118215
20
5.8748804
11
26.118215
21
7.2416804
0
LINE
8
DEFAULT_255_2_778
10
26.118215
20
7.2416804
11
25.126015
21
7.2416804
0
LINE
8
DEFAULT_255_2_778
10
25.126015
20
7.2416804
11
25.126015
21
2.2674804
0
LINE
8
DEFAULT_255_2_778
10
25.126015
20
2.2674804
11
26.118215
21
2.2674804
0
LINE
8
DEFAULT_255_2_778
10
26.118215
20
2.2674804
11
26.118215
21
5.7176804
0
LINE
8
DEFAULT_255_2_778
10
26.118215
20
5.7176804
11
27.330815
21
2.4876804
0
LINE
8
DEFAULT_255_2_778
10
26.415915
20
1.8483804
11
26.415915
21
1.0326804
0
LINE
8
DEFAULT_255_2_778
10
28.256815
20
1.8153804
11
29.756015
21
5.8721804
0
LINE
8
DEFAULT_255_2_778
10
29.756015
20
5.8721804
11
28.733115
21
5.8748804
0
LINE
8
DEFAULT_255_2_778
10
6.282115
20
3.7898804
11
4.599915
21
2.1076804
0
LINE
8
DEFAULT_255_2_778
10
4.486115
20
2.0505804
11
4.129715
21
2.0505804
0
LINE
8
DEFAULT_255_2_778
10
4.016015
20
2.0933804
11
3.588415
21
2.5209804
0
LINE
8
DEFAULT_255_2_778
10
3.588415
20
2.7633804
11
5.456415
21
4.6312804
0
LINE
8
DEFAULT_255_2_778
10
5.698715
20
4.6312804
11
6.297515
21
4.0325804
0
LINE
8
DEFAULT_255_2_778
10
6.283215
20
1.2501804
11
5.855615
21
0.8225804
0
LINE
8
DEFAULT_255_2_778
10
5.741915
20
0.7654804
11
5.385215
21
0.7654804
0
LINE
8
DEFAULT_255_2_778
10
5.271415
20
0.8083804
11
4.842815
21
1.2355804
0
LINE
8
DEFAULT_255_2_778
10
4.842815
20
1.4779804
11
5.441615
21
2.0767804
0
LINE
8
DEFAULT_255_2_778
10
5.683915
20
2.0767804
11
6.282715
21
1.4779804
0
LINE
8
DEFAULT_255_2_778
10
3.232015
20
3.3027804
11
2.861615
21
3.3027804
0
LINE
8
DEFAULT_255_2_778
10
2.747815
20
3.3456804
11
2.320315
21
3.7732804
0
LINE
8
DEFAULT_255_2_778
10
2.320315
20
4.0155804
11
5.456615
21
7.1545804
0
LINE
8
DEFAULT_255_2_778
10
5.699015
20
7.1545804
11
6.297715
21
6.5558804
0
LINE
8
DEFAULT_255_2_778
10
6.297715
20
6.3134804
11
3.345815
21
3.3599804
0
LINE
8
DEFAULT_255_2_778
10
4.728815
20
8.9770804
11
0.494415
21
4.7450804
0
LINE
8
DEFAULT_255_2_778
10
0.494415
20
3.0628804
11
3.502715
21
0.0545804
0
LINE
8
DEFAULT_255_2_778
10
4.286915
20
-0.2450196
11
6.826915
21
-0.2450196
0
LINE
8
DEFAULT_255_2_778
10
7.668315
20
0.1113804
11
10.616815
21
3.0622804
0
LINE
8
DEFAULT_255_2_778
10
10.616815
20
4.7445804
11
6.411015
21
8.9770804
0
ENDSEC
0
EOF