0
SECTION
2
HEADER
9
$MEASUREMENT
70
1
0
ENDSEC
0
SECTION
2
TABLES
0
TABLE
2
LTYPE
0
LTYPE
72
65
70
64
2
CONTINUOUS
3
______
73
0
40
0
0
ENDTAB
0
TABLE
2
LAYER
0
LAYER
2
DEFAULT_255_2_778
70
0
62
255
6
CONTINUOUS
0
ENDTAB
0
ENDSEC
0
SECTION
2
ENTITIES
0
LINE
8
DEFAULT_255_2_778
10
10.1066241
20
-0.2440298
11
6.4839241
21
3.2563702
0
LINE
8
DEFAULT_255_2_778
10
6.4839241
20
3.2563702
11
6.7350241
21
3.8672702
0
LINE
8
DEFAULT_255_2_778
10
6.7350241
20
3.8672702
11
10.3577241
21
0.3615702
0
LINE
8
DEFAULT_255_2_778
10
10.3577241
20
0.3615702
11
13.8301241
21
3.9622702
0
LINE
8
DEFAULT_255_2_778
10
13.8301241
20
3.9622702
11
13.5790241
21
3.3513702
0
LINE
8
DEFAULT_255_2_778
10
13.5790241
20
3.3513702
11
10.1066241
21
-0.2440298
0
LINE
8
DEFAULT_255_2_778
10
10.2067699
20
7.4647969
11
6.7399699
21
3.8695969
0
LINE
8
DEFAULT_255_2_778
10
6.7399699
20
3.8695969
11
10.3626699
21
0.3691969
0
LINE
8
DEFAULT_255_2_778
10
10.3626699
20
0.3691969
11
13.8358699
21
3.9733969
0
LINE
8
DEFAULT_255_2_778
10
13.8358699
20
3.9733969
11
10.2067699
21
7.4647969
0
LINE
8
DEFAULT_255_2_778
10
8.0967699
20
3.9031969
11
10.2515699
21
6.1307969
0
LINE
8
DEFAULT_255_2_778
10
10.2515699
20
6.1307969
11
12.4814699
21
3.9759969
0
LINE
8
DEFAULT_255_2_778
10
12.4814699
20
3.9759969
11
10.3266699
21
1.7486969
0
LINE
8
DEFAULT_255_2_778
10
10.3266699
20
1.7486969
11
8.0967699
21
3.9031969
0
LINE
8
DEFAULT_255_2_778
10
12.0546507
20
3.5347141
11
12.4822507
21
3.9757141
0
LINE
8
DEFAULT_255_2_778
10
12.4822507
20
3.9757141
11
10.2547507
21
6.1305141
0
LINE
8
DEFAULT_255_2_778
10
10.2547507
20
6.1305141
11
8.0999507
21
3.9030141
0
LINE
8
DEFAULT_255_2_778
10
8.0999507
20
3.9030141
11
8.2893507
21
3.7188141
0
LINE
8
DEFAULT_255_2_778
10
8.2893507
20
3.7188141
11
10.0142507
21
5.5109141
0
LINE
8
DEFAULT_255_2_778
10
10.0142507
20
5.5109141
11
12.0546507
21
3.5347141
0
LINE
8
DEFAULT_255_2_778
10
4.5297316
20
9.1454265
11
0.7726316
21
1.4637265
0
LINE
8
DEFAULT_255_2_778
10
0.7726316
20
1.4637265
11
7.6893316
21
3.5407265
0
LINE
8
DEFAULT_255_2_778
10
7.6893316
20
3.5407265
11
4.5297316
21
9.1454265
0
LINE
8
DEFAULT_255_2_778
10
4.6133316
20
7.2528265
11
6.3495316
21
4.1715265
0
LINE
8
DEFAULT_255_2_778
10
6.3495316
20
4.1715265
11
2.5472316
21
3.0359265
0
LINE
8
DEFAULT_255_2_778
10
2.5472316
20
3.0359265
11
4.6133316
21
7.2528265
0
LINE
8
DEFAULT_255_2_778
10
3.9158953
20
9.3629582
11
0.1751953
21
1.7373582
0
LINE
8
DEFAULT_255_2_778
10
0.1751953
20
1.7373582
11
0.7725953
21
1.4696582
0
LINE
8
DEFAULT_255_2_778
10
0.7725953
20
1.4696582
11
4.5296953
21
9.1457582
0
LINE
8
DEFAULT_255_2_778
10
4.5296953
20
9.1457582
11
3.9158953
21
9.3629582
0
LINE
8
DEFAULT_255_2_778
10
5.9697953
20
4.3387582
11
2.7013953
21
3.3561582
0
LINE
8
DEFAULT_255_2_778
10
2.7013953
20
3.3561582
11
2.5394953
21
3.0267582
0
LINE
8
DEFAULT_255_2_778
10
2.5394953
20
3.0267582
11
6.3465953
21
4.1712582
0
LINE
8
DEFAULT_255_2_778
10
6.3465953
20
4.1712582
11
4.6103953
21
7.2526582
0
LINE
8
DEFAULT_255_2_778
10
4.6103953
20
7.2526582
11
4.4759953
21
6.9846582
0
LINE
8
DEFAULT_255_2_778
10
4.4759953
20
6.9846582
11
4.4928953
21
6.9541582
0
LINE
8
DEFAULT_255_2_778
10
4.4928953
20
6.9541582
11
5.9697953
21
4.3387582
0
ARC
8
DEFAULT_255_2_778
10
6.7494363
20
2.4094609
40
2.6273932
50
113.4986728
51
128.0884161
0
ARC
8
DEFAULT_255_2_778
10
6.3905986
20
2.8595577
40
2.0517871
50
127.9551462
51
145.6173526
0
ARC
8
DEFAULT_255_2_778
10
5.9844843
20
3.137001
40
1.5599504
50
145.6037606
51
167.3296507
0
ARC
8
DEFAULT_255_2_778
10
5.6403194
20
3.8375453
40
1.2285322
50
180.8480294
51
194.5377134
0
ARC
8
DEFAULT_255_2_778
10
5.8319203
20
3.8576174
40
1.4205139
50
180.0005441
51
181.543175
0
ARC
8
DEFAULT_255_2_778
10
5.9516796
20
3.8362978
40
1.5404206
50
140.3172578
51
179.2074982
0
ARC
8
DEFAULT_255_2_778
10
6.4763709
20
3.4429191
40
2.1956427
50
124.9962529
51
141.1599876
0
ARC
8
DEFAULT_255_2_778
10
6.7250436
20
3.1133258
40
2.6083029
50
120.5282558
51
125.3187409
0
LINE
8
DEFAULT_255_2_778
10
4.4625216
20
3.4791626
11
4.4511216
21
3.5291626
0
LINE
8
DEFAULT_255_2_778
10
5.4001216
20
5.3600626
11
5.7018216
21
4.8189626
0
ARC
8
DEFAULT_255_2_778
10
7.0617592
20
1.9097484
40
3.8724424
50
92.2837558
51
99.0094015
0
ARC
8
DEFAULT_255_2_778
10
7.020502
20
2.3057526
40
3.4752019
50
90.0007188
51
91.864252
0
ARC
8
DEFAULT_255_2_778
10
7.0235274
20
2.3945278
40
3.3864281
50
78.3299783
51
90.0519258
0
ARC
8
DEFAULT_255_2_778
10
7.0935534
20
2.7186547
40
3.0548382
50
67.054567
51
78.3865392
0
ARC
8
DEFAULT_255_2_778
10
7.1916125
20
2.9694029
40
2.7857113
50
66.1083638
51
66.9012358
0
ARC
8
DEFAULT_255_2_778
10
7.1878924
20
2.3237462
40
4.0831042
50
66.1441895
51
76.6620243
0
ARC
8
DEFAULT_255_2_778
10
7.0585172
20
1.792834
40
4.6295431
50
76.6198614
51
86.7473824
0
ARC
8
DEFAULT_255_2_778
10
7.0389775
20
1.5504553
40
4.8726434
50
86.6796993
51
90.0050797
0
ARC
8
DEFAULT_255_2_778
10
7.038645
20
1.4855585
40
4.9375402
50
90.0011544
51
91.7803213
0
ARC
8
DEFAULT_255_2_778
10
7.0293062
20
1.501637
40
4.9211871
50
91.6774614
51
100.7089811
0
ARC
8
DEFAULT_255_2_778
10
6.6375518
20
2.6873975
40
3.6510781
50
115.8042001
51
127.4134125
0
ARC
8
DEFAULT_255_2_778
10
6.2151343
20
3.23394
40
2.9603316
50
127.3465189
51
141.1125192
0
ARC
8
DEFAULT_255_2_778
10
5.685318
20
3.6500759
40
2.2867025
50
140.8944572
51
162.6286676
0
ARC
8
DEFAULT_255_2_778
10
5.3788405
20
3.7589025
40
1.9617508
50
162.9896629
51
179.9604805
0
ARC
8
DEFAULT_255_2_778
10
5.3688938
20
3.7602819
40
1.9518035
50
180.0007713
51
181.6989444
0
ARC
8
DEFAULT_255_2_778
10
5.5025048
20
3.7904564
40
2.0864151
50
182.4184515
51
220.8909557
0
ARC
8
DEFAULT_255_2_778
10
6.1118637
20
4.2658059
40
2.8585119
50
220.0980782
51
234.7144494
0
ARC
8
DEFAULT_255_2_778
10
6.5174869
20
4.830279
40
3.5535943
50
234.6332755
51
246.6355793
0
ARC
8
DEFAULT_255_2_778
10
6.7697204
20
5.4035597
40
4.1798991
50
246.5780056
51
257.1680845
0
ARC
8
DEFAULT_255_2_778
10
6.8806857
20
5.8804878
40
4.6695614
50
257.1402031
51
267.6216074
0
ARC
8
DEFAULT_255_2_778
10
6.8963482
20
6.1127025
40
4.9022298
50
267.5513373
51
270.0032632
0
ARC
8
DEFAULT_255_2_778
10
6.8965077
20
6.1764482
40
4.9659756
50
270.0013816
51
271.6844024
0
ARC
8
DEFAULT_255_2_778
10
6.8948459
20
6.2331943
40
5.0227459
50
271.6843227
51
271.795822
0
ARC
8
DEFAULT_255_2_778
10
6.9064272
20
6.0175389
40
4.8068362
50
271.7384001
51
282.2551658
0
ARC
8
DEFAULT_255_2_778
10
6.9981531
20
5.605814
40
4.3850241
50
282.2258911
51
292.9795886
0
ARC
8
DEFAULT_255_2_778
10
7.2239167
20
5.0798789
40
3.812687
50
292.9417006
51
304.2190581
0
ARC
8
DEFAULT_255_2_778
10
7.6075788
20
4.5230085
40
3.1364614
50
304.1443996
51
317.5277399
0
ARC
8
DEFAULT_255_2_778
10
8.1230177
20
4.0597659
40
2.443483
50
317.3788025
51
336.0544493
0
ARC
8
DEFAULT_255_2_778
10
8.5379287
20
3.8709899
40
1.9876689
50
336.1734753
51
359.8440863
0
ARC
8
DEFAULT_255_2_778
10
8.5852088
20
3.8655667
40
1.9403812
50
0.0004231
51
1.7852157
0
ARC
8
DEFAULT_255_2_778
10
8.4652991
20
3.8469962
40
2.0608645
50
2.1974086
51
41.6188446
0
ARC
8
DEFAULT_255_2_778
10
8.0444007
20
3.5341415
40
2.5837125
50
40.6061306
51
44.9910014
0
ARC
8
DEFAULT_255_2_778
10
8.1318945
20
3.9610801
40
1.3881657
50
1.2150041
51
34.6287758
0
ARC
8
DEFAULT_255_2_778
10
8.1244649
20
3.9494219
40
1.3958883
50
0.0004833
51
1.6869608
0
ARC
8
DEFAULT_255_2_778
10
7.9972624
20
3.9706112
40
1.523238
50
321.1787772
51
359.2033919
0
ARC
8
DEFAULT_255_2_778
10
7.4839818
20
4.3453636
40
2.158273
50
305.5065289
51
321.9699041
0
ARC
8
DEFAULT_255_2_778
10
7.1425794
20
4.8138785
40
2.7379585
50
292.1281925
51
305.628047
0
ARC
8
DEFAULT_255_2_778
10
6.9598852
20
5.2534314
40
3.2139547
50
279.428819
51
292.1935605
0
ARC
8
DEFAULT_255_2_778
10
6.9102656
20
5.5188261
40
3.4838971
50
271.7827343
51
279.518806
0
ARC
8
DEFAULT_255_2_778
10
6.9061519
20
5.5810427
40
3.5462124
50
270.0016634
51
271.8178943
0
ARC
8
DEFAULT_255_2_778
10
6.900917
20
5.4195428
40
3.3847166
50
257.6281514
51
270.0903589
0
ARC
8
DEFAULT_255_2_778
10
6.8124654
20
5.0302304
40
2.9854954
50
244.7048085
51
257.6854433
0
ARC
8
DEFAULT_255_2_778
10
6.5769235
20
4.5406396
40
2.4422075
50
230.1354769
51
244.7931237
0
ARC
8
DEFAULT_255_2_778
10
6.1933919
20
4.0906146
40
1.8509608
50
210.3532266
51
230.3190308
0
ARC
8
DEFAULT_255_2_778
10
5.8374518
20
3.8802996
40
1.4375332
50
182.0604332
51
210.2886841
0
ARC
8
DEFAULT_255_2_778
10
5.8385847
20
3.8678189
40
1.438271
50
180.0006438
51
181.5619386
0
ARC
8
DEFAULT_255_2_778
10
5.9427422
20
3.8481802
40
1.5425532
50
139.9415176
51
179.2711315
0
ARC
8
DEFAULT_255_2_778
10
6.449805
20
3.462629
40
2.1790057
50
124.7426888
51
140.76282
0
ARC
8
DEFAULT_255_2_778
10
6.6976525
20
3.1305251
40
2.5931884
50
120.3068895
51
125.0608064
0
LINE
8
DEFAULT_255_2_778
10
8.3198481
20
5.5164151
11
8.8392481
21
6.0580151
0
LINE
8
DEFAULT_255_2_778
10
6.1148481
20
6.3371151
11
6.4553481
21
5.7344151
0
LINE
8
DEFAULT_255_2_778
10
9.8716481
20
5.3608151
11
9.2741481
21
4.7499151
0
LINE
8
DEFAULT_255_2_778
10
5.3890481
20
5.3693151
11
5.0482481
21
5.9744151
0
ARC
8
DEFAULT_255_2_778
10
8.0237787
20
3.9118075
40
1.5038903
50
2.64884
51
33.6989185
0
ARC
8
DEFAULT_255_2_778
10
8.5613801
20
3.9289209
40
0.9661036
50
359.9816774
51
3.108458
0
ARC
8
DEFAULT_255_2_778
10
8.4089804
20
3.9305497
40
1.1185049
50
355.0048077
51
359.9007392
0
ARC
8
DEFAULT_255_2_778
10
7.6419741
20
4.0051048
40
1.8891047
50
350.2445602
51
354.7777287
0
ARC
8
DEFAULT_255_2_778
10
7.9649147
20
3.1852041
40
1.5939016
50
16.5904655
51
43.6796637
0
ARC
8
DEFAULT_255_2_778
10
7.5950728
20
2.8739482
40
2.0765585
50
42.8431036
51
48.4255363
0
ARC
8
DEFAULT_255_2_778
10
7.0335663
20
2.2438317
40
2.8503537
50
89.9896236
51
92.079011
0
ARC
8
DEFAULT_255_2_778
10
7.0074848
20
1.4776636
40
3.6166194
50
78.4927165
51
89.5786249
0
ARC
8
DEFAULT_255_2_778
10
6.8244543
20
0.427461
40
4.6823227
50
77.6144348
51
78.8617277
0
ARC
8
DEFAULT_255_2_778
10
7.1272226
20
2.8483529
40
2.9203436
50
65.8984011
51
78.9369383
0
ARC
8
DEFAULT_255_2_778
10
7.0289053
20
2.3678142
40
3.4108209
50
78.8650418
51
90.109573
0
ARC
8
DEFAULT_255_2_778
10
7.0225366
20
2.1393846
40
3.6392443
50
90.0024268
51
91.8120166
0
ARC
8
DEFAULT_255_2_778
10
7.0620155
20
1.9036451
40
3.8762463
50
92.2850959
51
99.0056075
0
ARC
8
DEFAULT_255_2_778
10
8.5659217
20
3.865332
40
1.9550824
50
0.000507
51
1.7784924
0
ARC
8
DEFAULT_255_2_778
10
8.4270384
20
3.8880898
40
2.0940893
50
323.2846019
51
359.3777912
0
ARC
8
DEFAULT_255_2_778
10
7.8084639
20
4.3070529
40
2.8406242
50
309.307891
51
323.9696328
0
ARC
8
DEFAULT_255_2_778
10
7.3649636
20
4.841119
40
3.5348146
50
297.2879128
51
309.3862697
0
ARC
8
DEFAULT_255_2_778
10
7.0711646
20
5.401681
40
4.1676915
50
286.5885664
51
297.3443724
0
ARC
8
DEFAULT_255_2_778
10
6.9286628
20
5.8702377
40
4.6574315
50
276.3395473
51
286.6230026
0
ARC
8
DEFAULT_255_2_778
10
6.8944249
20
6.1318567
40
4.9212339
50
271.7843639
51
276.3993954
0
ARC
8
DEFAULT_255_2_778
10
6.879709
20
6.1067817
40
4.8966539
50
270.2467587
51
271.9656072
0
ARC
8
DEFAULT_255_2_778
10
6.8799186
20
6.0754379
40
4.8653094
50
270.0000829
51
270.2458803
0
ARC
8
DEFAULT_255_2_778
10
6.8749089
20
5.9164116
40
4.7062857
50
259.6144742
51
270.0610763
0
ARC
8
DEFAULT_255_2_778
10
6.7940368
20
5.4899232
40
4.2722064
50
248.6812676
51
259.6501991
0
ARC
8
DEFAULT_255_2_778
10
6.5759519
20
4.9389064
40
3.6796095
50
237.0131189
51
248.7254356
0
ARC
8
DEFAULT_255_2_778
10
6.201691
20
4.3695846
40
2.9983023
50
223.1391997
51
237.0888439
0
ARC
8
DEFAULT_255_2_778
10
5.7003058
20
3.9105164
40
2.3185588
50
202.3002589
51
223.3332907
0
ARC
8
DEFAULT_255_2_778
10
5.3749325
20
3.7656828
40
1.9625907
50
181.8475317
51
201.9927012
0
ARC
8
DEFAULT_255_2_778
10
5.5196077
20
3.0644642
40
2.0858923
50
182.4111906
51
220.8929958
0
ARC
8
DEFAULT_255_2_778
10
6.1293479
20
3.5401209
40
2.8584776
50
220.0992101
51
234.7161549
0
ARC
8
DEFAULT_255_2_778
10
6.5351658
20
4.1048941
40
3.5539173
50
234.6348873
51
246.636584
0
ARC
8
DEFAULT_255_2_778
10
6.7874357
20
4.678275
40
4.1803283
50
246.5789533
51
257.1682555
0
ARC
8
DEFAULT_255_2_778
10
6.8983341
20
5.1548964
40
4.6696768
50
257.1403216
51
267.6214222
0
ARC
8
DEFAULT_255_2_778
10
6.9139702
20
5.3866967
40
4.90193
50
267.5512626
51
270.0032545
0
ARC
8
DEFAULT_255_2_778
10
6.9141292
20
5.4502791
40
4.9655126
50
270.001379
51
271.6844803
0
ARC
8
DEFAULT_255_2_778
10
6.912468
20
5.5070311
40
5.0222888
50
271.6843917
51
271.7958955
0
ARC
8
DEFAULT_255_2_778
10
6.9240268
20
5.2930694
40
4.8080725
50
271.7381268
51
282.2520399
0
ARC
8
DEFAULT_255_2_778
10
7.0159462
20
4.8803656
40
4.3852627
50
282.2227085
51
292.9759158
0
ARC
8
DEFAULT_255_2_778
10
7.2419371
20
4.3538027
40
3.8122592
50
292.9380109
51
304.2163998
0
ARC
8
DEFAULT_255_2_778
10
7.6256826
20
3.7967489
40
3.1358353
50
304.1417774
51
317.5274126
0
ARC
8
DEFAULT_255_2_778
10
8.1408808
20
3.333705
40
2.4431685
50
317.3787383
51
336.0570209
0
ARC
8
DEFAULT_255_2_778
10
8.5551031
20
3.1452352
40
1.9881084
50
336.1765968
51
359.845056
0
ARC
8
DEFAULT_255_2_778
10
8.6025892
20
3.1398506
40
1.9406151
50
0.0002436
51
1.7852984
0
LINE
8
DEFAULT_255_2_778
10
9.5037623
20
3.6850091
11
9.4924623
21
3.6403091
0
LINE
8
DEFAULT_255_2_778
10
8.9730623
20
4.4274091
11
9.2749623
21
4.7462091
0
LINE
8
DEFAULT_255_2_778
10
6.8129623
20
5.0867091
11
6.9301623
21
5.0923091
0
LINE
8
DEFAULT_255_2_778
10
7.8287623
20
5.0008091
11
8.3197623
21
5.5141091
0
LINE
8
DEFAULT_255_2_778
10
6.4552623
20
5.7321091
11
6.8129623
21
5.0867091
0
LINE
8
DEFAULT_255_2_778
10
3.4133623
20
3.7024091
11
3.4355623
21
2.9767091
0
LINE
8
DEFAULT_255_2_778
10
10.5422623
20
3.2003091
11
10.5200623
21
3.9260091
0
ARC
8
DEFAULT_255_2_778
10
21.4498194
20
4.4539198
40
1.0901267
50
80.781768
51
90.8923901
0
ARC
8
DEFAULT_255_2_778
10
21.5801632
20
5.208618
40
0.3243876
50
54.6923244
51
82.152782
0
ARC
8
DEFAULT_255_2_778
10
21.6531745
20
5.3308782
40
0.1827541
50
356.4185155
51
51.2162455
0
ARC
8
DEFAULT_255_2_778
10
21.4726301
20
5.320946
40
0.3629447
50
352.0515668
51
359.7657195
0
ARC
8
DEFAULT_255_2_778
10
21.3340797
20
5.3393551
40
0.5027105
50
347.2740867
51
352.1571845
0
ARC
8
DEFAULT_255_2_778
10
21.3977733
20
5.30981
40
0.434325
50
317.0980138
51
349.2253469
0
ARC
8
DEFAULT_255_2_778
10
21.3611889
20
5.382558
40
0.5114352
50
274.6301507
51
313.9164632
0
ARC
8
DEFAULT_255_2_778
10
21.2825093
20
5.8307281
40
0.9654186
50
269.8179101
51
277.1381141
0
ARC
8
DEFAULT_255_2_778
10
21.1587591
20
3.3934156
40
0.6592157
50
78.7080587
51
91.0793692
0
ARC
8
DEFAULT_255_2_778
10
21.2689477
20
3.8684496
40
0.1724587
50
1.9680476
51
83.7111388
0
ARC
8
DEFAULT_255_2_778
10
21.0516035
20
3.8337064
40
0.3918171
50
359.7988613
51
5.9573268
0
ARC
8
DEFAULT_255_2_778
10
20.8966878
20
3.8329589
40
0.5467307
50
356.9442848
51
359.9341868
0
ARC
8
DEFAULT_255_2_778
10
25.9660424
20
3.0431736
40
3.1779422
50
180.1722834
51
184.9055951
0
ARC
8
DEFAULT_255_2_778
10
26.4373748
20
3.0507468
40
3.6493006
50
179.9995142
51
180.2689341
0
ARC
8
DEFAULT_255_2_778
10
27.2860352
20
3.0396066
40
4.4979748
50
176.011589
51
179.8577003
0
ARC
8
DEFAULT_255_2_778
10
31.1151429
20
2.77566
40
8.3361681
50
174.3390823
51
176.032381
0
ARC
8
DEFAULT_255_2_778
10
42.1096784
20
1.7295834
40
19.3803193
50
174.368719
51
174.4677942
0
ARC
8
DEFAULT_255_2_778
10
-16.2824621
20
7.5748529
40
39.3036905
50
354.241515
51
354.5193869
0
ARC
8
DEFAULT_255_2_778
10
18.2847058
20
4.261014
40
4.5780435
50
354.4845493
51
356.4887172
0
ARC
8
DEFAULT_255_2_778
10
20.9337145
20
4.0976237
40
1.9240009
50
356.5138752
51
359.8005066
0
ARC
8
DEFAULT_255_2_778
10
21.6393389
20
4.0916787
40
1.2183651
50
359.9645409
51
1.7419346
0
ARC
8
DEFAULT_255_2_778
10
22.3604542
20
4.1258588
40
0.4966951
50
0.3293952
51
28.322005
0
ARC
8
DEFAULT_255_2_778
10
22.4442041
20
4.1505897
40
0.4116297
50
30.8230763
51
72.0679355
0
ARC
8
DEFAULT_255_2_778
10
22.2909806
20
3.7380744
40
0.8514887
50
70.8047339
51
85.8625097
0
ARC
8
DEFAULT_255_2_778
10
22.2558194
20
3.4795099
40
1.1120374
50
85.0167709
51
85.118879
0
ARC
8
DEFAULT_255_2_778
10
21.974346
20
6.2252177
40
1.6710756
50
283.0065087
51
293.2651631
0
ARC
8
DEFAULT_255_2_778
10
22.1996231
20
5.7096857
40
1.1084866
50
293.0930052
51
309.8558848
0
ARC
8
DEFAULT_255_2_778
10
22.2442293
20
5.6177896
40
1.0096564
50
311.2548642
51
350.2966138
0
ARC
8
DEFAULT_255_2_778
10
21.7935531
20
5.7547251
40
1.4781439
50
348.0084271
51
351.6028189
0
ARC
8
DEFAULT_255_2_778
10
22.074563
20
5.7135687
40
1.1941363
50
351.5873701
51
355.985918
0
ARC
8
DEFAULT_255_2_778
10
22.2827818
20
5.6984918
40
0.985373
50
356.0129177
51
359.945301
0
ARC
8
DEFAULT_255_2_778
10
22.5891775
20
5.7081265
40
0.6790592
50
359.1076609
51
19.0769899
0
ARC
8
DEFAULT_255_2_778
10
22.727246
20
5.7406419
40
0.5381388
50
20.6099591
51
67.607058
0
ARC
8
DEFAULT_255_2_778
10
22.4817494
20
5.2329472
40
1.1015851
50
65.8604863
51
79.2124566
0
ARC
8
DEFAULT_255_2_778
10
22.2951542
20
4.3023817
40
2.0506506
50
78.9574772
51
86.8907213
0
ARC
8
DEFAULT_255_2_778
10
22.2126785
20
3.0647757
40
3.2909435
50
86.6256363
51
90.0981473
0
LINE
8
DEFAULT_255_2_778
10
15.1902412
20
6.3660143
11
17.9144412
21
6.3660143
0
LINE
8
DEFAULT_255_2_778
10
17.9144412
20
6.3660143
11
17.7133412
21
5.4294143
0
LINE
8
DEFAULT_255_2_778
10
17.7133412
20
5.4294143
11
16.4134412
21
5.4294143
0
LINE
8
DEFAULT_255_2_778
10
16.4134412
20
5.4294143
11
16.3274412
21
5.0470143
0
LINE
8
DEFAULT_255_2_778
10
16.3274412
20
5.0470143
11
17.6273412
21
5.0470143
0
LINE
8
DEFAULT_255_2_778
10
17.6273412
20
5.0470143
11
17.4262412
21
4.1104143
0
LINE
8
DEFAULT_255_2_778
10
17.4262412
20
4.1104143
11
16.1359412
21
4.1104143
0
LINE
8
DEFAULT_255_2_778
10
16.1359412
20
4.1104143
11
15.8491412
21
2.7722143
0
LINE
8
DEFAULT_255_2_778
10
15.8491412
20
2.7722143
11
14.4256412
21
2.7722143
0
LINE
8
DEFAULT_255_2_778
10
14.4256412
20
2.7722143
11
15.1902412
21
6.3660143
0
LINE
8
DEFAULT_255_2_778
10
18.2398412
20
6.3660143
11
19.6641412
21
6.3660143
0
LINE
8
DEFAULT_255_2_778
10
19.6641412
20
6.3660143
11
18.8968412
21
2.7814143
0
LINE
8
DEFAULT_255_2_778
10
18.8968412
20
2.7814143
11
17.4725412
21
2.7814143
0
LINE
8
DEFAULT_255_2_778
10
17.4725412
20
2.7814143
11
18.2398412
21
6.3660143
0
LINE
8
DEFAULT_255_2_778
10
21.1555412
20
4.8653143
11
21.2989412
21
5.5439143
0
LINE
8
DEFAULT_255_2_778
10
21.2989412
20
5.5439143
11
21.4328412
21
5.5439143
0
LINE
8
DEFAULT_255_2_778
10
21.2794412
20
4.8653143
11
21.1555412
21
4.8653143
0
LINE
8
DEFAULT_255_2_778
10
19.3204412
20
2.7719143
11
20.7161412
21
2.7719143
0
LINE
8
DEFAULT_255_2_778
10
20.7161412
20
2.7719143
11
20.9838412
21
4.0525143
0
LINE
8
DEFAULT_255_2_778
10
20.9838412
20
4.0525143
11
21.1463412
21
4.0525143
0
LINE
8
DEFAULT_255_2_778
10
21.4426412
20
3.8038143
11
21.4042412
21
2.7714143
0
LINE
8
DEFAULT_255_2_778
10
21.4042412
20
2.7714143
11
22.7997412
21
2.7714143
0
LINE
8
DEFAULT_255_2_778
10
22.3504412
20
4.5875143
11
22.3504412
21
4.5970143
0
LINE
8
DEFAULT_255_2_778
10
22.2070412
20
6.3557143
11
20.0850412
21
6.3557143
0
LINE
8
DEFAULT_255_2_778
10
20.0850412
20
6.3557143
11
19.3204412
21
2.7719143
0
ARC
8
DEFAULT_255_2_778
10
25.4808316
20
5.6252846
40
1.0862271
50
356.7079522
51
359.1423466
0
ARC
8
DEFAULT_255_2_778
10
25.5439523
20
5.6240823
40
1.0230955
50
359.1567554
51
359.9991996
0
ARC
8
DEFAULT_255_2_778
10
25.7780813
20
5.6348191
40
0.7890396
50
359.2192914
51
19.5919609
0
ARC
8
DEFAULT_255_2_778
10
25.8766707
20
5.6472874
40
0.6923053
50
21.3560782
51
66.9169798
0
ARC
8
DEFAULT_255_2_778
10
25.5556182
20
5.0051336
40
1.409594
50
65.1451952
51
78.6547402
0
ARC
8
DEFAULT_255_2_778
10
25.3203335
20
3.8841698
40
2.5549594
50
78.4266653
51
86.7924592
0
ARC
8
DEFAULT_255_2_778
10
25.2235573
20
2.4944802
40
3.947932
50
86.5186379
51
90.0883992
0
ARC
8
DEFAULT_255_2_778
10
25.2063509
20
3.0538223
40
3.3886034
50
89.812058
51
97.7089642
0
ARC
8
DEFAULT_255_2_778
10
25.0810689
20
3.953098
40
2.4806523
50
97.6276678
51
108.1869022
0
ARC
8
DEFAULT_255_2_778
10
24.8577565
20
4.6204798
40
1.776915
50
108.0626061
51
123.2579625
0
ARC
8
DEFAULT_255_2_778
10
24.5990741
20
5.0027831
40
1.3153822
50
122.9681241
51
167.9937201
0
ARC
8
DEFAULT_255_2_778
10
24.7783799
20
4.9685608
40
1.4978893
50
168.1400431
51
173.3643497
0
ARC
8
DEFAULT_255_2_778
10
24.4046295
20
5.0116951
40
1.1216584
50
173.3468008
51
179.8454277
0
ARC
8
DEFAULT_255_2_778
10
23.980563
20
4.9978288
40
0.6977923
50
178.612844
51
207.0639738
0
ARC
8
DEFAULT_255_2_778
10
23.9102353
20
4.9812731
40
0.62787
50
208.6387805
51
235.6852296
0
ARC
8
DEFAULT_255_2_778
10
24.113897
20
5.2700782
40
0.9812362
50
235.3696639
51
248.87183
0
ARC
8
DEFAULT_255_2_778
10
24.275161
20
5.6561984
40
1.3995737
50
248.4115125
51
252.6358102
0
ARC
8
DEFAULT_255_2_778
10
24.7231548
20
3.6969949
40
0.3369228
50
44.8093615
51
76.1397492
0
ARC
8
DEFAULT_255_2_778
10
24.8458118
20
3.8329883
40
0.1543885
50
359.1136487
51
41.0812121
0
ARC
8
DEFAULT_255_2_778
10
24.7819247
20
3.8317894
40
0.2182605
50
348.0809076
51
359.6877765
0
ARC
8
DEFAULT_255_2_778
10
24.7395243
20
3.8392412
40
0.2612899
50
348.0653407
51
348.4023372
0
ARC
8
DEFAULT_255_2_778
10
24.6125905
20
3.8886299
40
0.3963084
50
285.0958212
51
344.8726977
0
ARC
8
DEFAULT_255_2_778
10
24.5943409
20
3.9265058
40
0.4376987
50
269.9378555
51
286.1111071
0
ARC
8
DEFAULT_255_2_778
10
24.5843937
20
3.8659331
40
0.3772446
50
248.2414931
51
271.4388363
0
ARC
8
DEFAULT_255_2_778
10
24.5422201
20
3.7470767
40
0.2512702
50
214.79054
51
247.126231
0
ARC
8
DEFAULT_255_2_778
10
24.6493792
20
3.7486466
40
0.3453951
50
178.6886916
51
204.8114048
0
ARC
8
DEFAULT_255_2_778
10
24.9986818
20
3.748593
40
0.6946527
50
169.0110543
51
179.3436188
0
ARC
8
DEFAULT_255_2_778
10
24.5659175
20
3.53487
40
1.6433189
50
167.8405402
51
171.2213496
0
ARC
8
DEFAULT_255_2_778
10
24.3351106
20
3.5703503
40
1.409801
50
171.2148237
51
175.1045357
0
ARC
8
DEFAULT_255_2_778
10
24.1399758
20
3.5870596
40
1.213952
50
175.1043464
51
179.3181173
0
ARC
8
DEFAULT_255_2_778
10
24.0421827
20
3.5891682
40
1.1161412
50
179.3666096
51
179.9996294
0
ARC
8
DEFAULT_255_2_778
10
23.8224917
20
3.5799596
40
0.8964975
50
179.4109986
51
197.203917
0
ARC
8
DEFAULT_255_2_778
10
23.7100973
20
3.5685915
40
0.7860882
50
198.8356329
51
248.107953
0
ARC
8
DEFAULT_255_2_778
10
24.0721842
20
4.3115602
40
1.6115659
50
246.0115158
51
259.4864177
0
ARC
8
DEFAULT_255_2_778
10
24.3094873
20
5.5543185
40
2.8767682
50
259.3558688
51
268.7561282
0
ARC
8
DEFAULT_255_2_778
10
24.3607303
20
6.6645775
40
3.9879702
50
268.3663507
51
270.0148822
0
ARC
8
DEFAULT_255_2_778
10
24.3781892
20
6.2269848
40
3.5504153
50
269.7349685
51
278.9005543
0
ARC
8
DEFAULT_255_2_778
10
24.5588559
20
5.1035431
40
2.4125535
50
278.7895906
51
291.4092372
0
ARC
8
DEFAULT_255_2_778
10
24.8742087
20
4.3307869
40
1.5780494
50
290.9911226
51
315.5947131
0
ARC
8
DEFAULT_255_2_778
10
25.0076261
20
4.1722962
40
1.3719783
50
316.4245803
51
341.1669656
0
ARC
8
DEFAULT_255_2_778
10
24.7694738
20
4.2624127
40
1.6264931
50
340.8705803
51
347.822094
0
ARC
8
DEFAULT_255_2_778
10
25.1106859
20
4.1988853
40
1.2795961
50
347.3796907
51
353.7317763
0
ARC
8
DEFAULT_255_2_778
10
25.3612306
20
4.1706994
40
1.027472
50
353.7687054
51
359.9028616
0
ARC
8
DEFAULT_255_2_778
10
25.6982004
20
4.190652
40
0.6908415
50
358.2004339
51
50.2130302
0
ARC
8
DEFAULT_255_2_778
10
25.5014233
20
3.9562105
40
0.9969186
50
50.1451006
51
64.7393725
0
ARC
8
DEFAULT_255_2_778
10
25.3734931
20
3.7122501
40
1.2721956
50
64.2173803
51
65.0486927
0
ARC
8
DEFAULT_255_2_778
10
24.7999913
20
2.4074896
40
2.6972808
50
65.6952182
51
70.5515815
0
ARC
8
DEFAULT_255_2_778
10
24.0812879
20
0.3938982
40
4.8352835
50
70.4656281
51
73.3190059
0
ARC
8
DEFAULT_255_2_778
10
22.3784976
20
-5.3400183
40
10.8166878
50
73.3971167
51
75.2389262
0
ARC
8
DEFAULT_255_2_778
10
42.0827563
20
68.8687204
40
65.9635065
50
254.9685446
51
255.1117683
0
ARC
8
DEFAULT_255_2_778
10
26.515072
20
10.9199924
40
5.960111
50
253.6739466
51
255.0267235
0
ARC
8
DEFAULT_255_2_778
10
24.9966724
20
5.7233492
40
0.5461944
50
239.9464228
51
253.2943521
0
ARC
8
DEFAULT_255_2_778
10
24.7866299
20
5.369858
40
0.1351202
50
178.3445275
51
241.9703737
0
ARC
8
DEFAULT_255_2_778
10
24.9020245
20
5.3717538
40
0.2504665
50
169.2980869
51
179.5407193
0
ARC
8
DEFAULT_255_2_778
10
25.0006302
20
5.3557225
40
0.3503434
50
167.825313
51
169.7165145
0
ARC
8
DEFAULT_255_2_778
10
24.8307038
20
5.39837
40
0.1753425
50
169.4405951
51
169.737912
0
ARC
8
DEFAULT_255_2_778
10
24.8728695
20
5.3813254
40
0.2201029
50
122.5009163
51
167.089602
0
ARC
8
DEFAULT_255_2_778
10
24.9805644
20
5.2283081
40
0.4071118
50
99.2989868
51
123.7127314
0
ARC
8
DEFAULT_255_2_778
10
25.0256701
20
5.0104291
40
0.6294848
50
89.7363966
51
100.1461111
0
ARC
8
DEFAULT_255_2_778
10
25.0415068
20
5.2732172
40
0.3669186
50
66.8460604
51
92.0211545
0
ARC
8
DEFAULT_255_2_778
10
25.1121297
20
5.4510283
40
0.1757314
50
358.4899781
51
65.2216513
0
ARC
8
DEFAULT_255_2_778
10
24.9871081
20
5.4340742
40
0.3009444
50
359.9815374
51
2.3468348
0
ARC
8
DEFAULT_255_2_778
10
24.9096972
20
5.4357035
40
0.3783593
50
351.4889495
51
359.7385931
0
ARC
8
DEFAULT_255_2_778
10
24.7780325
20
5.4538699
40
0.511265
50
347.5454091
51
351.6592973
0
LINE
8
DEFAULT_255_2_778
10
26.5556662
20
5.3335075
11
26.5652662
21
5.5629075
0
LINE
8
DEFAULT_255_2_778
10
23.8574662
20
4.3204075
11
24.8038662
21
4.0241075
0
LINE
8
DEFAULT_255_2_778
10
24.3167662
20
3.8810075
11
22.9594662
21
3.8810075
0
LINE
8
DEFAULT_255_2_778
10
29.7687662
20
5.3171075
11
30.0077662
21
6.3400075
0
LINE
8
DEFAULT_255_2_778
10
30.0077662
20
6.3400075
11
26.8134662
21
6.3400075
0
LINE
8
DEFAULT_255_2_778
10
26.8134662
20
6.3400075
11
26.5840662
21
5.3171075
0
LINE
8
DEFAULT_255_2_778
10
26.5840662
20
5.3171075
11
27.4634662
21
5.3171075
0
LINE
8
DEFAULT_255_2_778
10
27.4634662
20
5.3171075
11
26.9282662
21
2.7459075
0
LINE
8
DEFAULT_255_2_778
10
26.9282662
20
2.7459075
11
28.3524662
21
2.7459075
0
LINE
8
DEFAULT_255_2_778
10
28.3524662
20
2.7459075
11
28.9067662
21
5.3171075
0
LINE
8
DEFAULT_255_2_778
10
28.9067662
20
5.3171075
11
29.7687662
21
5.3171075
0
ENDSEC
0
EOF