0
SECTION
2
HEADER
9
$MEASUREMENT
70
1
0
ENDSEC
0
SECTION
2
TABLES
0
TABLE
2
LTYPE
0
LTYPE
72
65
70
64
2
CONTINUOUS
3
______
73
0
40
0
0
ENDTAB
0
TABLE
2
LAYER
0
LAYER
2
DEFAULT_255_2_778
70
0
62
255
6
CONTINUOUS
0
ENDTAB
0
ENDSEC
0
SECTION
2
ENTITIES
0
ARC
8
DEFAULT_255_2_778
10
5.0170805
20
5.0250418
40
3.8554452
50
174.221216
51
180.1879432
0
ARC
8
DEFAULT_255_2_778
10
3.7584618
20
5.1558173
40
2.5900575
50
165.8961067
51
174.2960569
0
ARC
8
DEFAULT_255_2_778
10
2.9306106
20
5.3679011
40
1.7354853
50
153.111688
51
166.0268141
0
ARC
8
DEFAULT_255_2_778
10
2.5212826
20
5.5740985
40
1.2771572
50
109.6715793
51
153.0572111
0
ARC
8
DEFAULT_255_2_778
10
2.8213865
20
4.83262
40
2.0766466
50
99.0109546
51
110.5817318
0
ARC
8
DEFAULT_255_2_778
10
3.0216147
20
3.6204942
40
3.3051827
50
91.7595427
51
99.1480746
0
ARC
8
DEFAULT_255_2_778
10
3.0787776
20
2.3939539
40
4.5329418
50
89.9724657
51
92.0057057
0
ARC
8
DEFAULT_255_2_778
10
3.0802752
20
3.6526376
40
3.2742576
50
85.2240278
51
89.9880877
0
ARC
8
DEFAULT_255_2_778
10
3.0376456
20
3.1810418
40
3.7477667
50
81.3885711
51
85.1748527
0
ARC
8
DEFAULT_255_2_778
10
2.7851155
20
1.4886495
40
5.4588932
50
80.0418293
51
81.4276476
0
ARC
8
DEFAULT_255_2_778
10
1.7442442
20
-4.4621799
40
11.5000665
50
79.6262725
51
80.0611712
0
ARC
8
DEFAULT_255_2_778
10
9.1289054
20
35.8471657
40
29.4801308
50
259.6155352
51
259.7732051
0
ARC
8
DEFAULT_255_2_778
10
3.4173917
20
4.6671581
40
1.1000766
50
69.7883581
51
83.6023199
0
ARC
8
DEFAULT_255_2_778
10
3.3246612
20
3.8498416
40
1.9226363
50
83.5701199
51
89.351217
0
ARC
8
DEFAULT_255_2_778
10
3.2942924
20
2.6855847
40
3.0872105
50
89.0322987
51
90.0155226
0
ARC
8
DEFAULT_255_2_778
10
3.2818697
20
5.1509062
40
0.6219969
50
88.932661
51
110.5359083
0
ARC
8
DEFAULT_255_2_778
10
3.2496375
20
5.2858019
40
0.4846697
50
112.5621696
51
164.5332836
0
ARC
8
DEFAULT_255_2_778
10
3.8224397
20
5.0815061
40
1.0921019
50
162.2167333
51
176.3120929
0
ARC
8
DEFAULT_255_2_778
10
4.5258813
20
5.0157919
40
1.7984285
50
175.6643396
51
180.1082196
0
ARC
8
DEFAULT_255_2_778
10
13.1263177
20
1.9550664
40
1.662953
50
57.3022897
51
87.9962939
0
ARC
8
DEFAULT_255_2_778
10
13.0622921
20
1.2058086
40
2.4142871
50
87.0994431
51
90.0412009
0
ARC
8
DEFAULT_255_2_778
10
13.0489569
20
2.3543038
40
1.2658444
50
89.4749851
51
114.8181664
0
ARC
8
DEFAULT_255_2_778
10
12.9997833
20
2.4842578
40
1.1272959
50
115.322099
51
154.8959439
0
ARC
8
DEFAULT_255_2_778
10
13.2536223
20
2.3602465
40
1.409778
50
154.7088913
51
172.1746708
0
ARC
8
DEFAULT_255_2_778
10
13.5989567
20
2.3045091
40
1.7595045
50
171.907655
51
180.1176855
0
ARC
8
DEFAULT_255_2_778
10
13.1044552
20
2.2936931
40
1.2650198
50
179.6738034
51
200.5234447
0
ARC
8
DEFAULT_255_2_778
10
13.0986671
20
2.3234711
40
1.2703912
50
201.8728627
51
264.3112683
0
ARC
8
DEFAULT_255_2_778
10
13.1484292
20
2.4907601
40
1.442165
50
263.0026936
51
270.0090083
0
LINE
8
DEFAULT_255_2_778
10
13.148656
20
1.0485951
11
13.1497708
21
1.0485954
0
ARC
8
DEFAULT_255_2_778
10
13.1551125
20
3.3836565
40
2.3350673
50
269.8689298
51
286.9431901
0
ARC
8
DEFAULT_255_2_778
10
13.3534355
20
2.7242625
40
1.6465006
50
287.0283855
51
298.514981
0
ARC
8
DEFAULT_255_2_778
10
12.9860982
20
3.5421976
40
3.6889243
50
281.1474244
51
288.8007222
0
ARC
8
DEFAULT_255_2_778
10
12.8517877
20
4.1662729
40
4.3272063
50
277.2668359
51
281.2946808
0
ARC
8
DEFAULT_255_2_778
10
12.8605213
20
4.0606626
40
4.221342
50
271.0574029
51
277.3305647
0
ARC
8
DEFAULT_255_2_778
10
12.8743469
20
3.610549
40
3.7710538
50
270.003177
51
270.973583
0
ARC
8
DEFAULT_255_2_778
10
12.8633684
20
3.2876169
40
3.44814
50
258.3409998
51
270.1858985
0
ARC
8
DEFAULT_255_2_778
10
12.7304934
20
2.6631381
40
2.8096962
50
242.8638866
51
258.4212359
0
ARC
8
DEFAULT_255_2_778
10
12.458167
20
2.1655603
40
2.2427323
50
200.3758428
51
243.25737
0
ARC
8
DEFAULT_255_2_778
10
12.7472683
20
2.2676229
40
2.549285
50
186.7502941
51
200.2638735
0
ARC
8
DEFAULT_255_2_778
10
13.1925668
20
2.3272528
40
2.9985137
50
179.9208481
51
186.8816616
0
ARC
8
DEFAULT_255_2_778
10
13.1231721
20
2.3409747
40
2.9291318
50
169.2866857
51
180.1873838
0
ARC
8
DEFAULT_255_2_778
10
12.6323649
20
2.4353998
40
2.4293269
50
154.2779099
51
169.3230213
0
ARC
8
DEFAULT_255_2_778
10
12.4918591
20
2.4809059
40
2.2830813
50
111.1546046
51
153.7764012
0
ARC
8
DEFAULT_255_2_778
10
12.7823135
20
1.8363587
40
2.9892584
50
97.828241
51
111.8882074
0
ARC
8
DEFAULT_255_2_778
10
12.8689787
20
1.2747112
40
3.5574883
50
89.9101748
51
97.978974
0
ARC
8
DEFAULT_255_2_778
10
12.8920021
20
1.3831636
40
3.4490757
50
80.5190297
51
90.2898148
0
ARC
8
DEFAULT_255_2_778
10
13.0730131
20
2.4175167
40
2.3990491
50
63.6283799
51
80.7139085
0
ARC
8
DEFAULT_255_2_778
10
13.8478562
20
3.991019
40
0.6451368
50
63.1480512
51
63.2083293
0
LINE
8
DEFAULT_255_2_778
10
1.137656
20
3.5650951
11
0.197556
21
3.5650951
0
LINE
8
DEFAULT_255_2_778
10
0.197556
20
3.5650951
11
0.197556
21
4.7191951
0
LINE
8
DEFAULT_255_2_778
10
0.197556
20
4.7191951
11
1.161656
21
4.7191951
0
LINE
8
DEFAULT_255_2_778
10
1.161656
20
4.7191951
11
1.161656
21
5.0123951
0
LINE
8
DEFAULT_255_2_778
10
3.894856
20
6.8353951
11
3.797456
21
5.6994951
0
LINE
8
DEFAULT_255_2_778
10
2.727456
20
5.0123951
11
2.727456
21
4.7191951
0
LINE
8
DEFAULT_255_2_778
10
2.727456
20
4.7191951
11
3.859356
21
4.7191951
0
LINE
8
DEFAULT_255_2_778
10
3.859356
20
4.7191951
11
3.859356
21
3.5647951
0
LINE
8
DEFAULT_255_2_778
10
3.859356
20
3.5647951
11
2.727756
21
3.5647951
0
LINE
8
DEFAULT_255_2_778
10
2.727756
20
3.5647951
11
2.727756
21
-0.0539049
0
LINE
8
DEFAULT_255_2_778
10
2.727756
20
-0.0539049
11
1.138156
21
-0.0539049
0
LINE
8
DEFAULT_255_2_778
10
1.138156
20
-0.0539049
11
1.137656
21
3.5650951
0
LINE
8
DEFAULT_255_2_778
10
4.693056
20
6.8175951
11
6.282456
21
6.8175951
0
LINE
8
DEFAULT_255_2_778
10
6.282456
20
6.8175951
11
6.282456
21
-0.0531049
0
LINE
8
DEFAULT_255_2_778
10
6.282456
20
-0.0531049
11
4.693056
21
-0.0531049
0
LINE
8
DEFAULT_255_2_778
10
4.693056
20
-0.0531049
11
4.693056
21
6.8175951
0
LINE
8
DEFAULT_255_2_778
10
7.647156
20
6.7053951
11
9.236556
21
6.7053951
0
LINE
8
DEFAULT_255_2_778
10
9.236556
20
6.7053951
11
9.236556
21
5.4965951
0
LINE
8
DEFAULT_255_2_778
10
9.236556
20
5.4965951
11
7.647156
21
5.4965951
0
LINE
8
DEFAULT_255_2_778
10
7.647156
20
5.4965951
11
7.647156
21
6.7053951
0
LINE
8
DEFAULT_255_2_778
10
7.647156
20
4.7170951
11
9.236556
21
4.7170951
0
LINE
8
DEFAULT_255_2_778
10
9.236556
20
4.7170951
11
9.236556
21
-0.0560049
0
LINE
8
DEFAULT_255_2_778
10
9.236556
20
-0.0560049
11
7.647156
21
-0.0560049
0
LINE
8
DEFAULT_255_2_778
10
7.647156
20
-0.0560049
11
7.647156
21
4.7170951
0
LINE
8
DEFAULT_255_2_778
10
14.139456
20
1.2774951
11
14.174956
21
0.0500951
0
LINE
8
DEFAULT_255_2_778
10
14.139256
20
4.5665951
11
14.024656
21
3.3544951
0
LINE
8
DEFAULT_255_2_778
10
17.774856
20
4.7194951
11
19.517156
21
4.7194951
0
LINE
8
DEFAULT_255_2_778
10
19.517156
20
4.7194951
11
17.916156
21
2.5297951
0
LINE
8
DEFAULT_255_2_778
10
17.916156
20
2.5297951
11
19.650256
21
-0.0539049
0
LINE
8
DEFAULT_255_2_778
10
19.650256
20
-0.0539049
11
17.721956
21
-0.0539049
0
LINE
8
DEFAULT_255_2_778
10
17.721956
20
-0.0539049
11
16.445656
21
2.3096951
0
LINE
8
DEFAULT_255_2_778
10
16.445656
20
2.3096951
11
16.427856
21
2.3096951
0
LINE
8
DEFAULT_255_2_778
10
16.427856
20
2.3096951
11
16.427856
21
-0.0539049
0
LINE
8
DEFAULT_255_2_778
10
16.427856
20
-0.0539049
11
14.838556
21
-0.0539049
0
LINE
8
DEFAULT_255_2_778
10
14.838556
20
-0.0539049
11
14.838556
21
6.8170951
0
LINE
8
DEFAULT_255_2_778
10
14.838556
20
6.8170951
11
16.427856
21
6.8170951
0
LINE
8
DEFAULT_255_2_778
10
16.427856
20
6.8170951
11
16.427856
21
2.7125951
0
LINE
8
DEFAULT_255_2_778
10
16.427856
20
2.7125951
11
16.445656
21
2.7125951
0
LINE
8
DEFAULT_255_2_778
10
16.445656
20
2.7125951
11
17.774856
21
4.7194951
0
ARC
8
DEFAULT_255_2_778
10
23.085362
20
1.6773383
40
1.7803776
50
75.4402448
51
92.9598426
0
ARC
8
DEFAULT_255_2_778
10
22.981598
20
2.2356979
40
1.2197004
50
89.4441622
51
107.7071647
0
ARC
8
DEFAULT_255_2_778
10
22.9280213
20
2.444252
40
1.0048079
50
108.4139
51
154.3197615
0
ARC
8
DEFAULT_255_2_778
10
23.4256751
20
2.1733602
40
1.5709554
50
153.281076
51
167.5706178
0
ARC
8
DEFAULT_255_2_778
10
24.1540817
20
2.006902
40
2.3181245
50
167.4278224
51
177.4010395
0
ARC
8
DEFAULT_255_2_778
10
24.7978299
20
1.9637479
40
2.9631999
50
177.1319028
51
180.0291396
0
ARC
8
DEFAULT_255_2_778
10
23.9023226
20
2.8681128
40
2.3950537
50
144.4635943
51
156.0530968
0
ARC
8
DEFAULT_255_2_778
10
23.0241768
20
3.5308571
40
1.295588
50
102.7012651
51
145.7421976
0
ARC
8
DEFAULT_255_2_778
10
23.0668245
20
3.2721027
40
1.5574623
50
89.6797293
51
102.1388554
0
ARC
8
DEFAULT_255_2_778
10
23.0728137
20
2.6865798
40
2.1429628
50
86.7721781
51
89.9273655
0
ARC
8
DEFAULT_255_2_778
10
22.9706744
20
1.2784395
40
3.5546925
50
80.396396
51
86.4064495
0
ARC
8
DEFAULT_255_2_778
10
22.6034208
20
-1.1104505
40
5.971484
50
80.2812296
51
80.7459748
0
ARC
8
DEFAULT_255_2_778
10
22.5194994
20
-1.6066425
40
6.4747219
50
80.2595172
51
80.290489
0
LINE
8
DEFAULT_255_2_778
10
21.8346303
20
1.9622409
11
21.8346303
21
-0.0533591
0
LINE
8
DEFAULT_255_2_778
10
21.8346303
20
-0.0533591
11
20.2452303
21
-0.0533591
0
LINE
8
DEFAULT_255_2_778
10
20.2452303
20
-0.0533591
11
20.2452303
21
4.7197409
0
LINE
8
DEFAULT_255_2_778
10
20.2452303
20
4.7197409
11
21.6956303
21
4.7197409
0
LINE
8
DEFAULT_255_2_778
10
21.6956303
20
4.7197409
11
21.6956303
21
3.8402409
0
LINE
8
DEFAULT_255_2_778
10
21.6956303
20
3.8402409
11
21.7134303
21
3.8402409
0
LINE
8
DEFAULT_255_2_778
10
23.6149303
20
4.7747409
11
23.5329303
21
3.4005409
0
ENDSEC
0
EOF